  0
SECTION
  2
HEADER
  9
$ACADVER
  1
AC1009
  9
$INSBASE
 10
0.0
 20
0.0
 30
0.0
  9
$EXTMIN
 10
24.99622914499696
 20
-25.750029856048059
 30
-0.0015258207003583
  9
$EXTMAX
 10
615.43703137683963
 20
408.08463664145091
 30
0.0000000349246037
  9
$LIMMIN
 10
0.0
 20
0.0
  9
$LIMMAX
 10
420.0
 20
297.0
  9
$ORTHOMODE
 70
     0
  9
$REGENMODE
 70
     1
  9
$FILLMODE
 70
     1
  9
$QTEXTMODE
 70
     0
  9
$MIRRTEXT
 70
     1
  9
$DRAGMODE
 70
     2
  9
$LTSCALE
 40
1.0
  9
$OSMODE
 70
    37
  9
$ATTMODE
 70
     1
  9
$TEXTSIZE
 40
2.5
  9
$TRACEWID
 40
1.0
  9
$TEXTSTYLE
  7
STANDARD
  9
$CLAYER
  8
0
  9
$CELTYPE
  6
BYLAYER
  9
$CECOLOR
 62
   256
  9
$DIMSCALE
 40
1.0
  9
$DIMASZ
 40
2.5
  9
$DIMEXO
 40
0.625
  9
$DIMDLI
 40
3.75
  9
$DIMRND
 40
0.0
  9
$DIMDLE
 40
0.0
  9
$DIMEXE
 40
1.25
  9
$DIMTP
 40
0.0
  9
$DIMTM
 40
0.0
  9
$DIMTXT
 40
2.5
  9
$DIMCEN
 40
2.5
  9
$DIMTSZ
 40
0.0
  9
$DIMTOL
 70
     0
  9
$DIMLIM
 70
     0
  9
$DIMTIH
 70
     0
  9
$DIMTOH
 70
     0
  9
$DIMSE1
 70
     0
  9
$DIMSE2
 70
     0
  9
$DIMTAD
 70
     1
  9
$DIMZIN
 70
     8
  9
$DIMBLK
  1

  9
$DIMASO
 70
     1
  9
$DIMSHO
 70
     1
  9
$DIMPOST
  1

  9
$DIMAPOST
  1

  9
$DIMALT
 70
     0
  9
$DIMALTD
 70
     3
  9
$DIMALTF
 40
0.03937007874016
  9
$DIMLFAC
 40
1.0
  9
$DIMTOFL
 70
     1
  9
$DIMTVP
 40
0.0
  9
$DIMTIX
 70
     0
  9
$DIMSOXD
 70
     0
  9
$DIMSAH
 70
     0
  9
$DIMBLK1
  1

  9
$DIMBLK2
  1

  9
$DIMSTYLE
  2
ISO-25
  9
$DIMCLRD
 70
     0
  9
$DIMCLRE
 70
     0
  9
$DIMCLRT
 70
     0
  9
$DIMTFAC
 40
1.0
  9
$DIMGAP
 40
0.625
  9
$LUNITS
 70
     2
  9
$LUPREC
 70
     4
  9
$SKETCHINC
 40
1.0
  9
$FILLETRAD
 40
10.0
  9
$AUNITS
 70
     0
  9
$AUPREC
 70
     0
  9
$MENU
  1
.
  9
$ELEVATION
 40
0.0
  9
$PELEVATION
 40
0.0
  9
$THICKNESS
 40
0.0
  9
$LIMCHECK
 70
     0
  9
$BLIPMODE
 70
     0
  9
$CHAMFERA
 40
10.0
  9
$CHAMFERB
 40
10.0
  9
$SKPOLY
 70
     0
  9
$TDCREATE
 40
2452048.587873715
  9
$TDUPDATE
 40
2452048.5973748718
  9
$TDINDWG
 40
0.0095028935
  9
$TDUSRTIMER
 40
0.0095028935
  9
$USRTIMER
 70
     1
  9
$ANGBASE
 50
0.0
  9
$ANGDIR
 70
     0
  9
$PDMODE
 70
     0
  9
$PDSIZE
 40
0.0
  9
$PLINEWID
 40
0.0
  9
$COORDS
 70
     1
  9
$SPLFRAME
 70
     0
  9
$SPLINETYPE
 70
     6
  9
$SPLINESEGS
 70
     8
  9
$ATTDIA
 70
     0
  9
$ATTREQ
 70
     1
  9
$HANDLING
 70
-16383
  9
$HANDSEED
  5
4A59
  9
$SURFTAB1
 70
     6
  9
$SURFTAB2
 70
     6
  9
$SURFTYPE
 70
     6
  9
$SURFU
 70
     6
  9
$SURFV
 70
     6
  9
$UCSNAME
  2

  9
$UCSORG
 10
0.0
 20
0.0
 30
0.0
  9
$UCSXDIR
 10
1.0
 20
0.0
 30
0.0
  9
$UCSYDIR
 10
0.0
 20
1.0
 30
0.0
  9
$PUCSNAME
  2

  9
$PUCSORG
 10
0.0
 20
0.0
 30
0.0
  9
$PUCSXDIR
 10
1.0
 20
0.0
 30
0.0
  9
$PUCSYDIR
 10
0.0
 20
1.0
 30
0.0
  9
$USERI1
 70
     0
  9
$USERI2
 70
     0
  9
$USERI3
 70
     0
  9
$USERI4
 70
     0
  9
$USERI5
 70
     0
  9
$USERR1
 40
0.0
  9
$USERR2
 40
0.0
  9
$USERR3
 40
0.0
  9
$USERR4
 40
0.0
  9
$USERR5
 40
0.0
  9
$WORLDVIEW
 70
     1
  9
$SHADEDGE
 70
     3
  9
$SHADEDIF
 70
    70
  9
$TILEMODE
 70
     1
  9
$MAXACTVP
 70
    64
  9
$PLIMCHECK
 70
     0
  9
$PEXTMIN
 10
1.0000000000000000E+020
 20
1.0000000000000000E+020
 30
1.0000000000000000E+020
  9
$PEXTMAX
 10
-1.0000000000000000E+020
 20
-1.0000000000000000E+020
 30
-1.0000000000000000E+020
  9
$PLIMMIN
 10
0.0
 20
0.0
  9
$PLIMMAX
 10
420.0
 20
297.0
  9
$UNITMODE
 70
     0
  9
$VISRETAIN
 70
     1
  9
$PLINEGEN
 70
     0
  9
$PSLTSCALE
 70
     1
  0
ENDSEC
  0
SECTION
  2
TABLES
  0
TABLE
  2
VPORT
 70
    22
  0
VPORT
  2
*ACTIVE
 70
     0
 10
0.0
 20
0.0
 11
1.0
 21
1.0
 12
243.19809294536361
 22
20.724196922940902
 13
0.0
 23
0.0
 14
10.0
 24
10.0
 15
10.0
 25
10.0
 16
0.0
 26
0.0
 36
1.0
 17
0.0
 27
0.0
 37
0.0
 40
1136.324782680095
 41
0.8452830188679245
 42
50.0
 43
0.0
 44
0.0
 50
0.0
 51
0.0
 71
     0
 72
   100
 73
     1
 74
     3
 75
     0
 76
     0
 77
     0
 78
     0
  0
ENDTAB
  0
TABLE
  2
LTYPE
 70
     1
  0
LTYPE
  2
CONTINUOUS
 70
     0
  3
Solid line
 72
    65
 73
     0
 40
0.0
  0
ENDTAB
  0
TABLE
  2
LAYER
 70
     2
  0
LAYER
  2
0
 70
     0
 62
     7
  6
CONTINUOUS
  0
LAYER
  2
1外形線
 70
     0
 62
     3
  6
CONTINUOUS
  0
ENDTAB
  0
TABLE
  2
STYLE
 70
     2
  0
STYLE
  2
STANDARD
 70
     0
 40
0.0
 41
1.0
 50
0.0
 71
     0
 42
2.5
  3
txt
  4

  0
STYLE
  2
KANJI
 70
     0
 40
0.0
 41
1.0
 50
0.0
 71
     0
 42
10.0
  3
simplex
  4
bigfont
  0
ENDTAB
  0
TABLE
  2
VIEW
 70
     0
  0
ENDTAB
  0
TABLE
  2
UCS
 70
     0
  0
ENDTAB
  0
TABLE
  2
APPID
 70
     1
  0
APPID
  2
ACAD
 70
     0
  0
ENDTAB
  0
TABLE
  2
DIMSTYLE
 70
     2
  0
DIMSTYLE
  2
ISO-25
 70
     0
  3

  4

  5

  6

  7

 40
1.0
 41
2.5
 42
0.625
 43
3.75
 44
1.25
 45
0.0
 46
0.0
 47
0.0
 48
0.0
140
2.5
141
2.5
142
0.0
143
0.03937007874016
144
1.0
145
0.0
146
1.0
147
0.625
 71
     0
 72
     0
 73
     0
 74
     0
 75
     0
 76
     0
 77
     1
 78
     8
170
     0
171
     3
172
     1
173
     0
174
     0
175
     0
176
     0
177
     0
178
     0
  0
DIMSTYLE
  2
STANDARD
 70
     0
  3

  4

  5

  6
1
  7
1
 40
1.0
 41
1.0
 42
1.0
 43
6.0
 44
1.0
 45
0.0
 46
0.0
 47
0.0
 48
0.0
140
2.5
141
0.0
142
0.0
143
25.399999999999999
144
1.0
145
0.0
146
1.0
147
0.5
 71
     0
 72
     0
 73
     0
 74
     0
 75
     0
 76
     0
 77
     1
 78
     8
170
     0
171
     2
172
     1
173
     1
174
     0
175
     0
176
     0
177
     0
178
     0
  0
ENDTAB
  0
ENDSEC
  0
SECTION
  2
BLOCKS
  0
BLOCK
  8
0
  2
$MODEL_SPACE
 70
     0
 10
0.0
 20
0.0
 30
0.0
  3
$MODEL_SPACE
  1

  0
ENDBLK
  5
21
  8
0
  0
BLOCK
 67
     1
  8
0
  2
$PAPER_SPACE
 70
     0
 10
0.0
 20
0.0
 30
0.0
  3
$PAPER_SPACE
  1

  0
ENDBLK
  5
1D
 67
     1
  8
0
  0
BLOCK
  8
0
  2
1
 70
     0
 10
0.0
 20
0.0
 30
0.0
  3
1
  1

  0
SOLID
  5
2C
  8
0
  6
BYBLOCK
 62
     0
 10
-1.811110924292052
 20
0.4852857095671653
 30
0.0
 11
-1.811110924292052
 21
-0.4852857095673642
 31
0.0
 12
0.0
 22
0.0
 32
0.0
 13
0.0
 23
0.0
 33
0.0
  0
ENDBLK
  5
2E
  8
0
  0
ENDSEC
  0
SECTION
  2
ENTITIES
  0
LINE
  5
49D5
  8
1外形線
 10
146.1031821951872
 20
35.28408254355525
 30
0.0
 11
146.1031821951872
 21
34.284082543555201
 31
0.0
  0
LINE
  5
49D6
  8
1外形線
 10
136.1031821951872
 20
35.284082543555137
 30
0.0
 11
136.1031821951872
 21
34.284082543555201
 31
0.0
  0
LINE
  5
49D7
  8
1外形線
 10
122.40318219518581
 20
36.284082543554938
 30
0.0
 11
122.4031821951861
 21
34.284082543555108
 31
0.0
  0
LINE
  5
49D8
  8
1外形線
 10
121.2031821951858
 20
36.284082543554973
 30
0.0
 11
121.203182195186
 21
34.284082543554973
 31
0.0
  0
LINE
  5
49D9
  8
1外形線
 10
84.803182195185599
 20
36.284082543554938
 30
0.0
 11
84.803182195185286
 21
34.284082543555108
 31
0.0
  0
LINE
  5
49DA
  8
1外形線
 10
71.103182195184104
 20
35.284082543555137
 30
0.0
 11
71.103182195184104
 21
34.284082543555201
 31
0.0
  0
LINE
  5
49DB
  8
1外形線
 10
61.103182195184097
 20
35.28408254355525
 30
0.0
 11
61.103182195184097
 21
34.284082543555201
 31
0.0
  0
LINE
  5
49DC
  8
1外形線
 10
86.003182195185545
 20
36.284082543554973
 30
0.0
 11
86.003182195185317
 21
34.284082543554973
 31
0.0
  0
LINE
  5
49DD
  8
1外形線
 10
42.11010110739187
 20
29.28408254355503
 30
0.0
 11
165.09626328297949
 21
29.28408254355514
 31
0.0
  0
LINE
  5
49DE
  8
1外形線
 10
42.11010110739187
 20
34.284082543554909
 30
0.0
 11
165.09626328297961
 21
34.284082543555279
 31
0.0
  0
LINE
  5
49DF
  8
1外形線
 10
42.11010110739187
 20
34.284082543554909
 30
0.0
 11
42.11010110739187
 21
29.28408254355503
 31
0.0
  0
LINE
  5
49E0
  8
1外形線
 10
52.103182195185688
 20
29.28408254355514
 30
0.0
 11
52.103182195185688
 21
34.284082543555257
 31
0.0
  0
LINE
  5
49E1
  8
1外形線
 10
82.303182195186196
 20
29.284082543555112
 30
0.0
 11
82.303182195186196
 21
34.284082543555172
 31
0.0
  0
LINE
  5
49E2
  8
1外形線
 10
84.303182195184604
 20
29.284082543555112
 30
0.0
 11
84.303182195184604
 21
34.284082543555172
 31
0.0
  0
LINE
  5
49E3
  8
1外形線
 10
124.9031821951851
 20
29.284082543555112
 30
0.0
 11
124.9031821951851
 21
34.284082543555172
 31
0.0
  0
LINE
  5
49E4
  8
1外形線
 10
122.9031821951867
 20
29.284082543555112
 30
0.0
 11
122.9031821951867
 21
34.284082543555172
 31
0.0
  0
LINE
  5
49E5
  8
1外形線
 10
155.1031821951857
 20
29.28408254355514
 30
0.0
 11
155.1031821951857
 21
34.284082543555257
 31
0.0
  0
LINE
  5
49E6
  8
1外形線
 10
165.09626328297949
 20
34.284082543555257
 30
0.0
 11
165.09626328297949
 21
29.28408254355514
 31
0.0
  0
LINE
  5
49E7
  8
1外形線
 10
140.12824500965331
 20
113.81058408789811
 30
0.0
 11
106.0526719379688
 21
113.81058408789811
 31
0.0
  0
LINE
  5
49E8
  8
1外形線
 10
140.12824500965331
 20
112.81058408789811
 30
0.0
 11
106.0526719379688
 21
112.81058408789811
 31
0.0
  0
LINE
  5
49E9
  8
1外形線
 10
153.60691356155789
 20
134.61058408789759
 30
0.0
 11
53.599450828813467
 21
134.61058408789759
 31
0.0
  0
LINE
  5
49EA
  8
1外形線
 10
85.303182195184945
 20
59.810584087897666
 30
0.0
 11
121.9031821951867
 21
59.810584087897666
 31
0.0
  0
LINE
  5
49EB
  8
1外形線
 10
50.103182195185013
 20
131.61058408789921
 30
0.0
 11
50.103182195185013
 21
95.010584087897087
 31
0.0
  0
LINE
  5
49EC
  8
1外形線
 10
104.1031821951857
 20
82.160073830680858
 30
0.0
 11
104.1031821951857
 21
110.86109434511501
 31
0.0
  0
LINE
  5
49ED
  8
1外形線
 10
103.1031821951857
 20
82.160073830680858
 30
0.0
 11
103.1031821951857
 21
110.86109434511501
 31
0.0
  0
LINE
  5
49EE
  8
1外形線
 10
80.60318219518615
 20
92.010584087898621
 30
0.0
 11
53.599450828811882
 21
92.010584087898621
 31
0.0
  0
LINE
  5
49EF
  8
1外形線
 10
61.10318219518922
 20
95.710584087898155
 30
0.0
 11
71.10318219518922
 21
95.710584087898155
 31
0.0
  0
LINE
  5
49F0
  8
1外形線
 10
61.10318219518922
 20
94.510584087898096
 30
0.0
 11
71.10318219518922
 21
94.510584087898167
 31
0.0
  0
LINE
  5
49F1
  8
1外形線
 10
70.103182195184104
 20
36.284082543555137
 30
0.0
 11
62.103182195184097
 21
36.28408254355525
 31
0.0
  0
ARC
  5
49F2
  8
1外形線
 10
62.103182195184097
 20
35.28408254355525
 30
0.0
 40
1.0
 50
89.999999999999204
 51
180.0
  0
LINE
  5
49F3
  8
1外形線
 10
50.614339258181303
 20
92.159468381599027
 30
0.0
 11
43.003678476164282
 21
92.92053445980082
 31
0.0
  0
LINE
  5
49F4
  8
1外形線
 10
49.103182195185013
 20
94.010584087897087
 30
0.0
 11
42.310101107391908
 21
94.010584087897087
 31
0.0
  0
ARC
  5
49F5
  8
1外形線
 10
43.103182195185227
 20
93.915571650010875
 30
0.0
 40
1.0
 50
187.5409324273958
 51
264.28940686249888
  0
ARC
  5
49F6
  8
1外形線
 10
42.310101107391908
 20
93.810584087897027
 30
0.0
 40
0.2
 50
90.0
 51
187.5409324273958
  0
ARC
  5
49F7
  8
1外形線
 10
53.599450828811882
 20
122.01058408789849
 30
0.0
 40
30.0
 50
264.28940686249888
 51
270.0
  0
ARC
  5
49F8
  8
1外形線
 10
49.103182195185013
 20
95.010584087897087
 30
0.0
 40
1.0
 50
270.0
 51
0.0
  0
LINE
  5
49F9
  8
1外形線
 10
61.103182195189099
 20
95.710584087898084
 30
0.0
 11
61.10318219518922
 21
94.510584087898167
 31
0.0
  0
LINE
  5
49FA
  8
1外形線
 10
104.1031821951857
 20
61.310584087897659
 30
0.0
 11
104.1031821951857
 21
72.461094345114475
 31
0.0
  0
LINE
  5
49FB
  8
1外形線
 10
103.1031821951857
 20
61.310584087897659
 30
0.0
 11
103.1031821951857
 21
72.461094345114446
 31
0.0
  0
LINE
  5
49FC
  8
1外形線
 10
82.303182195185968
 20
63.306852721526177
 30
0.0
 11
82.303182195186082
 21
90.310584087898633
 31
0.0
  0
ARC
  5
49FD
  8
1外形線
 10
70.103182195184104
 20
35.284082543555137
 30
0.0
 40
1.0
 50
0.0
 51
89.999999999999204
  0
LINE
  5
49FE
  8
1外形線
 10
86.003182195185317
 20
36.284082543554973
 30
0.0
 11
84.803182195185599
 21
36.284082543554938
 31
0.0
  0
ARC
  5
49FF
  8
1外形線
 10
85.303182195184945
 20
58.810584087897659
 30
0.0
 40
1.0
 50
90.0
 51
179.9999999999967
  0
LINE
  5
4A00
  8
1外形線
 10
82.452066488886317
 20
60.321741150895598
 30
0.0
 11
83.213132567088223
 21
52.711080368877099
 31
0.0
  0
ARC
  5
4A01
  8
1外形線
 10
84.208169757298265
 20
52.810584087898071
 30
0.0
 40
1.0
 50
185.71059313750061
 51
262.4590675726156
  0
ARC
  5
4A02
  8
1外形線
 10
84.103182195184559
 20
52.017503000104732
 30
0.0
 40
0.2
 50
262.45906757261611
 51
0.0
  0
LINE
  5
4A03
  8
1外形線
 10
84.303182195184945
 20
58.81058408789773
 30
0.0
 11
84.303182195184604
 21
52.017503000104732
 31
0.0
  0
ARC
  5
4A04
  8
1外形線
 10
112.3031821951859
 20
63.30685272152607
 30
0.0
 40
30.0
 50
180.0
 51
185.71059313750061
  0
ARC
  5
4A05
  8
1外形線
 10
103.60318219518589
 20
61.310584087897659
 30
0.0
 40
0.5000000000000027
 50
179.9999999999967
 51
359.9999999999967
  0
LINE
  5
4A06
  8
1外形線
 10
84.803182195185741
 20
70.810584087896714
 30
0.0
 11
84.803182195185741
 21
80.810584087896714
 31
0.0
  0
LINE
  5
4A07
  8
1外形線
 10
86.003182195185786
 20
70.810584087896714
 30
0.0
 11
86.003182195185786
 21
80.810584087896714
 31
0.0
  0
LINE
  5
4A08
  8
1外形線
 10
84.803182195185741
 20
70.810584087896544
 30
0.0
 11
86.003182195185786
 21
70.810584087896714
 31
0.0
  0
LINE
  5
4A09
  8
1外形線
 10
84.803182195185741
 20
80.810584087896473
 30
0.0
 11
86.003182195185786
 21
80.810584087896714
 31
0.0
  0
LINE
  5
4A0A
  8
1外形線
 10
71.10318219518922
 20
95.710584087898155
 30
0.0
 11
71.103182195189333
 21
94.510584087898224
 31
0.0
  0
ARC
  5
4A0B
  8
1外形線
 10
80.60318219518615
 20
90.310584087898633
 30
0.0
 40
1.7
 50
0.0
 51
90.0
  0
ARC
  5
4A0C
  8
1外形線
 10
103.6031821951856
 20
79.710584087897701
 30
0.0
 40
2.4999999999999991
 50
0.0
 51
180.0
  0
ARC
  5
4A0D
  8
1外形線
 10
103.6031821951856
 20
74.910584087897632
 30
0.0
 40
2.4999999999999991
 50
180.0
 51
0.0
  0
LINE
  5
4A0E
  8
1外形線
 10
101.10318219518589
 20
79.710584087897701
 30
0.0
 11
101.10318219518599
 21
74.910584087897632
 31
0.0
  0
LINE
  5
4A0F
  8
1外形線
 10
106.10318219518579
 20
79.710584087897701
 30
0.0
 11
106.10318219518579
 21
74.910584087897632
 31
0.0
  0
LINE
  5
4A10
  8
1外形線
 10
67.078119380718022
 20
113.81058408789811
 30
0.0
 11
101.1536924524025
 21
113.81058408789811
 31
0.0
  0
LINE
  5
4A11
  8
1外形線
 10
67.078119380718022
 20
112.81058408789811
 30
0.0
 11
101.1536924524025
 21
112.81058408789811
 31
0.0
  0
LINE
  5
4A12
  8
1外形線
 10
61.10318219518922
 20
132.1105840878981
 30
0.0
 11
71.10318219518922
 21
132.11058408789799
 31
0.0
  0
LINE
  5
4A13
  8
1外形線
 10
61.10318219518922
 20
130.910584087898
 30
0.0
 11
71.10318219518922
 21
130.910584087898
 31
0.0
  0
ARC
  5
4A14
  8
1外形線
 10
43.103182195185227
 20
132.7055965257853
 30
0.0
 40
1.0
 50
95.710593137500993
 51
172.45906757260411
  0
LINE
  5
4A15
  8
1外形線
 10
49.103182195185013
 20
132.61058408789921
 30
0.0
 11
42.310101107391908
 21
132.61058408789921
 31
0.0
  0
ARC
  5
4A16
  8
1外形線
 10
42.310101107391908
 20
132.8105840878992
 30
0.0
 40
0.2
 50
172.45906757260411
 51
270.0
  0
CIRCLE
  5
4A17
  8
1外形線
 10
62.10318219518502
 20
113.31058408789811
 30
0.0
 40
5.0
  0
LINE
  5
4A18
  8
1外形線
 10
51.603182195185013
 20
112.81058408789811
 30
0.0
 11
57.128245009652012
 21
112.81058408789811
 31
0.0
  0
LINE
  5
4A19
  8
1外形線
 10
51.603182195185013
 20
113.81058408789789
 30
0.0
 11
57.128245009652012
 21
113.81058408789811
 31
0.0
  0
ARC
  5
4A1A
  8
1外形線
 10
51.603182195185013
 20
113.3105840878985
 30
0.0
 40
0.4999999999999006
 50
90.000000000003254
 51
270.0
  0
CIRCLE
  5
4A1B
  8
1外形線
 10
62.10318219518502
 20
113.31058408789811
 30
0.0
 40
3.6000000000000001
  0
CIRCLE
  5
4A1C
  8
1外形線
 10
62.10318219518502
 20
113.31058408789811
 30
0.0
 40
2.1000000000000001
  0
ARC
  5
4A1D
  8
1外形線
 10
49.103182195185013
 20
131.61058408789921
 30
0.0
 40
1.0
 50
0.0
 51
90.0
  0
LINE
  5
4A1E
  8
1外形線
 10
61.103182195189099
 20
130.91058408789809
 30
0.0
 11
61.10318219518922
 21
132.11058408789799
 31
0.0
  0
LINE
  5
4A1F
  8
1外形線
 10
50.614339258182888
 20
134.4616997941973
 30
0.0
 11
43.003678476164282
 21
133.70063371599539
 31
0.0
  0
ARC
  5
4A20
  8
1外形線
 10
53.599450828813467
 20
104.61058408789761
 30
0.0
 40
30.0
 50
90.0
 51
95.710593137500993
  0
LINE
  5
4A21
  8
1外形線
 10
71.10318219518922
 20
130.910584087898
 30
0.0
 11
71.103182195189333
 21
132.11058408789799
 31
0.0
  0
LINE
  5
4A22
  8
1外形線
 10
104.1031821951857
 20
115.76007383068131
 30
0.0
 11
104.1031821951857
 21
132.1105840878981
 31
0.0
  0
LINE
  5
4A23
  8
1外形線
 10
103.1031821951857
 20
115.76007383068131
 30
0.0
 11
103.1031821951857
 21
132.1105840878981
 31
0.0
  0
CIRCLE
  5
4A24
  8
1外形線
 10
103.6031821951856
 20
113.31058408789811
 30
0.0
 40
2.5
  0
ARC
  5
4A25
  8
1外形線
 10
103.6031821951856
 20
132.1105840878981
 30
0.0
 40
0.4999999999999716
 50
0.0
 51
180.0
  0
LINE
  5
4A26
  8
1外形線
 10
157.10318219518629
 20
131.61058408789921
 30
0.0
 11
157.10318219518629
 21
95.010584087897087
 31
0.0
  0
LINE
  5
4A27
  8
1外形線
 10
158.10318219518629
 20
94.010584087897087
 30
0.0
 11
164.89626328297939
 21
94.010584087897087
 31
0.0
  0
LINE
  5
4A28
  8
1外形線
 10
156.59202513219
 20
92.159468381599027
 30
0.0
 11
164.202685914207
 21
92.92053445980082
 31
0.0
  0
LINE
  5
4A29
  8
1外形線
 10
124.9031821951851
 20
63.306852721524479
 30
0.0
 11
124.9031821951851
 21
90.310584087898633
 31
0.0
  0
ARC
  5
4A2A
  8
1外形線
 10
137.1031821951872
 20
35.284082543555137
 30
0.0
 40
1.0
 50
90.00000000000081
 51
180.0
  0
LINE
  5
4A2B
  8
1外形線
 10
121.203182195186
 20
36.284082543554973
 30
0.0
 11
122.40318219518581
 21
36.284082543554938
 31
0.0
  0
ARC
  5
4A2C
  8
1外形線
 10
121.9031821951867
 20
58.810584087897659
 30
0.0
 40
1.0
 50
0.0
 51
90.0
  0
LINE
  5
4A2D
  8
1外形線
 10
124.75429790148461
 20
60.321741150893793
 30
0.0
 11
123.9932318232828
 21
52.711080368876928
 31
0.0
  0
ARC
  5
4A2E
  8
1外形線
 10
122.9981946330727
 20
52.810584087897951
 30
0.0
 40
1.0
 50
277.54093242740402
 51
354.28940686249939
  0
ARC
  5
4A2F
  8
1外形線
 10
123.1031821951868
 20
52.017503000104632
 30
0.0
 40
0.2
 50
180.0
 51
277.54093242739992
  0
LINE
  5
4A30
  8
1外形線
 10
122.9031821951867
 20
58.810584087897659
 30
0.0
 11
122.9031821951866
 21
52.017503000104632
 31
0.0
  0
ARC
  5
4A31
  8
1外形線
 10
94.903182195185195
 20
63.306852721524592
 30
0.0
 40
30.0
 50
354.28940686249939
 51
0.0
  0
LINE
  5
4A32
  8
1外形線
 10
137.1031821951872
 20
36.284082543555137
 30
0.0
 11
145.10318219518729
 21
36.28408254355525
 31
0.0
  0
ARC
  5
4A33
  8
1外形線
 10
145.10318219518729
 20
35.28408254355525
 30
0.0
 40
1.0
 50
0.0
 51
90.00000000000081
  0
LINE
  5
4A34
  8
1外形線
 10
153.60691356155951
 20
92.010584087898565
 30
0.0
 11
126.6031821951852
 21
92.010584087898565
 31
0.0
  0
LINE
  5
4A35
  8
1外形線
 10
146.10318219518209
 20
94.510584087898096
 30
0.0
 11
136.10318219518209
 21
94.510584087898167
 31
0.0
  0
LINE
  5
4A36
  8
1外形線
 10
146.10318219518209
 20
95.710584087898155
 30
0.0
 11
136.10318219518209
 21
95.710584087898155
 31
0.0
  0
LINE
  5
4A37
  8
1外形線
 10
121.20318219518551
 20
70.810584087896714
 30
0.0
 11
121.20318219518551
 21
80.810584087896714
 31
0.0
  0
LINE
  5
4A38
  8
1外形線
 10
122.40318219518559
 20
70.810584087896714
 30
0.0
 11
122.40318219518559
 21
80.810584087896714
 31
0.0
  0
LINE
  5
4A39
  8
1外形線
 10
122.40318219518559
 20
70.810584087896544
 30
0.0
 11
121.20318219518551
 21
70.810584087896714
 31
0.0
  0
LINE
  5
4A3A
  8
1外形線
 10
122.40318219518559
 20
80.810584087896473
 30
0.0
 11
121.20318219518551
 21
80.810584087896714
 31
0.0
  0
ARC
  5
4A3B
  8
1外形線
 10
126.6031821951852
 20
90.310584087898633
 30
0.0
 40
1.7
 50
90.0
 51
180.0
  0
LINE
  5
4A3C
  8
1外形線
 10
136.10318219518209
 20
95.710584087898155
 30
0.0
 11
136.103182195182
 21
94.510584087898224
 31
0.0
  0
LINE
  5
4A3D
  8
1外形線
 10
146.1031821951822
 20
95.710584087898084
 30
0.0
 11
146.10318219518209
 21
94.510584087898167
 31
0.0
  0
ARC
  5
4A3E
  8
1外形線
 10
153.60691356155951
 20
122.01058408789849
 30
0.0
 40
30.0
 50
270.0
 51
275.71059313750101
  0
ARC
  5
4A3F
  8
1外形線
 10
158.10318219518629
 20
95.010584087897087
 30
0.0
 40
1.0
 50
180.0
 51
270.0
  0
ARC
  5
4A40
  8
1外形線
 10
164.10318219518609
 20
93.915571650010875
 30
0.0
 40
1.0
 50
275.71059313750061
 51
352.45906757260411
  0
ARC
  5
4A41
  8
1外形線
 10
164.89626328297939
 20
93.810584087897027
 30
0.0
 40
0.2
 50
352.45906757260411
 51
90.0
  0
LINE
  5
4A42
  8
1外形線
 10
158.10318219518629
 20
132.61058408789921
 30
0.0
 11
164.89626328297939
 21
132.61058408789921
 31
0.0
  0
LINE
  5
4A43
  8
1外形線
 10
156.5920251321885
 20
134.4616997941973
 30
0.0
 11
164.202685914207
 21
133.70063371599539
 31
0.0
  0
LINE
  5
4A44
  8
1外形線
 10
146.10318219518209
 20
130.910584087898
 30
0.0
 11
136.10318219518209
 21
130.910584087898
 31
0.0
  0
LINE
  5
4A45
  8
1外形線
 10
146.10318219518209
 20
132.1105840878981
 30
0.0
 11
136.10318219518209
 21
132.11058408789799
 31
0.0
  0
LINE
  5
4A46
  8
1外形線
 10
136.10318219518209
 20
130.910584087898
 30
0.0
 11
136.103182195182
 21
132.11058408789799
 31
0.0
  0
CIRCLE
  5
4A47
  8
1外形線
 10
145.10318219518629
 20
113.31058408789811
 30
0.0
 40
5.0
  0
CIRCLE
  5
4A48
  8
1外形線
 10
145.10318219518629
 20
113.31058408789811
 30
0.0
 40
3.6000000000000001
  0
CIRCLE
  5
4A49
  8
1外形線
 10
145.10318219518629
 20
113.31058408789811
 30
0.0
 40
2.1000000000000001
  0
LINE
  5
4A4A
  8
1外形線
 10
155.60318219518641
 20
113.81058408789799
 30
0.0
 11
150.07811938071939
 21
113.81058408789811
 31
0.0
  0
LINE
  5
4A4B
  8
1外形線
 10
155.60318219518641
 20
112.81058408789811
 30
0.0
 11
150.07811938071939
 21
112.81058408789811
 31
0.0
  0
ARC
  5
4A4C
  8
1外形線
 10
155.60318219518641
 20
113.3105840878985
 30
0.0
 40
0.4999999999999006
 50
270.0
 51
89.999999999996746
  0
LINE
  5
4A4D
  8
1外形線
 10
146.1031821951822
 20
130.91058408789809
 30
0.0
 11
146.10318219518209
 21
132.11058408789799
 31
0.0
  0
ARC
  5
4A4E
  8
1外形線
 10
158.10318219518629
 20
131.61058408789921
 30
0.0
 40
1.0
 50
90.0
 51
180.0
  0
ARC
  5
4A4F
  8
1外形線
 10
153.60691356155789
 20
104.61058408789761
 30
0.0
 40
30.0
 50
84.289406862499007
 51
90.0
  0
ARC
  5
4A50
  8
1外形線
 10
164.10318219518609
 20
132.7055965257853
 30
0.0
 40
1.0
 50
7.5409324273958473
 51
84.289406862499007
  0
ARC
  5
4A51
  8
1外形線
 10
164.89626328297939
 20
132.8105840878992
 30
0.0
 40
0.2
 50
270.0
 51
7.5409324273958473
  0
ENDSEC
  0
EOF
