  0
SECTION
  2
HEADER
  9
$ACADVER
  1
AC1009
  9
$INSBASE
 10
0.0
 20
0.0
 30
0.0
  9
$EXTMIN
 10
33.123792275673452
 20
31.443949863626411
 30
0.0
  9
$EXTMAX
 10
164.76324459593201
 20
125.8439498636303
 30
0.0
  9
$LIMMIN
 10
0.0
 20
0.0
  9
$LIMMAX
 10
420.0
 20
297.0
  9
$ORTHOMODE
 70
     0
  9
$REGENMODE
 70
     1
  9
$FILLMODE
 70
     1
  9
$QTEXTMODE
 70
     0
  9
$MIRRTEXT
 70
     1
  9
$DRAGMODE
 70
     2
  9
$LTSCALE
 40
1.0
  9
$OSMODE
 70
    37
  9
$ATTMODE
 70
     1
  9
$TEXTSIZE
 40
2.5
  9
$TRACEWID
 40
1.0
  9
$TEXTSTYLE
  7
STANDARD
  9
$CLAYER
  8
0
  9
$CELTYPE
  6
BYLAYER
  9
$CECOLOR
 62
   256
  9
$DIMSCALE
 40
1.0
  9
$DIMASZ
 40
2.5
  9
$DIMEXO
 40
0.625
  9
$DIMDLI
 40
3.75
  9
$DIMRND
 40
0.0
  9
$DIMDLE
 40
0.0
  9
$DIMEXE
 40
1.25
  9
$DIMTP
 40
0.0
  9
$DIMTM
 40
0.0
  9
$DIMTXT
 40
2.5
  9
$DIMCEN
 40
2.5
  9
$DIMTSZ
 40
0.0
  9
$DIMTOL
 70
     0
  9
$DIMLIM
 70
     0
  9
$DIMTIH
 70
     0
  9
$DIMTOH
 70
     0
  9
$DIMSE1
 70
     0
  9
$DIMSE2
 70
     0
  9
$DIMTAD
 70
     1
  9
$DIMZIN
 70
     8
  9
$DIMBLK
  1

  9
$DIMASO
 70
     1
  9
$DIMSHO
 70
     1
  9
$DIMPOST
  1

  9
$DIMAPOST
  1

  9
$DIMALT
 70
     0
  9
$DIMALTD
 70
     3
  9
$DIMALTF
 40
0.03937007874016
  9
$DIMLFAC
 40
1.0
  9
$DIMTOFL
 70
     1
  9
$DIMTVP
 40
0.0
  9
$DIMTIX
 70
     0
  9
$DIMSOXD
 70
     0
  9
$DIMSAH
 70
     0
  9
$DIMBLK1
  1

  9
$DIMBLK2
  1

  9
$DIMSTYLE
  2
ISO-25
  9
$DIMCLRD
 70
     0
  9
$DIMCLRE
 70
     0
  9
$DIMCLRT
 70
     0
  9
$DIMTFAC
 40
1.0
  9
$DIMGAP
 40
0.625
  9
$LUNITS
 70
     2
  9
$LUPREC
 70
     4
  9
$SKETCHINC
 40
1.0
  9
$FILLETRAD
 40
10.0
  9
$AUNITS
 70
     0
  9
$AUPREC
 70
     0
  9
$MENU
  1
.
  9
$ELEVATION
 40
0.0
  9
$PELEVATION
 40
0.0
  9
$THICKNESS
 40
0.0
  9
$LIMCHECK
 70
     0
  9
$BLIPMODE
 70
     0
  9
$CHAMFERA
 40
10.0
  9
$CHAMFERB
 40
10.0
  9
$SKPOLY
 70
     0
  9
$TDCREATE
 40
2452048.587873715
  9
$TDUPDATE
 40
2452048.5887233098
  9
$TDINDWG
 40
0.0008500579
  9
$TDUSRTIMER
 40
0.0008500579
  9
$USRTIMER
 70
     1
  9
$ANGBASE
 50
0.0
  9
$ANGDIR
 70
     0
  9
$PDMODE
 70
     0
  9
$PDSIZE
 40
0.0
  9
$PLINEWID
 40
0.0
  9
$COORDS
 70
     1
  9
$SPLFRAME
 70
     0
  9
$SPLINETYPE
 70
     6
  9
$SPLINESEGS
 70
     8
  9
$ATTDIA
 70
     0
  9
$ATTREQ
 70
     1
  9
$HANDLING
 70
-16383
  9
$HANDSEED
  5
1A1
  9
$SURFTAB1
 70
     6
  9
$SURFTAB2
 70
     6
  9
$SURFTYPE
 70
     6
  9
$SURFU
 70
     6
  9
$SURFV
 70
     6
  9
$UCSNAME
  2

  9
$UCSORG
 10
0.0
 20
0.0
 30
0.0
  9
$UCSXDIR
 10
1.0
 20
0.0
 30
0.0
  9
$UCSYDIR
 10
0.0
 20
1.0
 30
0.0
  9
$PUCSNAME
  2

  9
$PUCSORG
 10
0.0
 20
0.0
 30
0.0
  9
$PUCSXDIR
 10
1.0
 20
0.0
 30
0.0
  9
$PUCSYDIR
 10
0.0
 20
1.0
 30
0.0
  9
$USERI1
 70
     0
  9
$USERI2
 70
     0
  9
$USERI3
 70
     0
  9
$USERI4
 70
     0
  9
$USERI5
 70
     0
  9
$USERR1
 40
0.0
  9
$USERR2
 40
0.0
  9
$USERR3
 40
0.0
  9
$USERR4
 40
0.0
  9
$USERR5
 40
0.0
  9
$WORLDVIEW
 70
     1
  9
$SHADEDGE
 70
     3
  9
$SHADEDIF
 70
    70
  9
$TILEMODE
 70
     1
  9
$MAXACTVP
 70
    64
  9
$PLIMCHECK
 70
     0
  9
$PEXTMIN
 10
1.0000000000000000E+020
 20
1.0000000000000000E+020
 30
1.0000000000000000E+020
  9
$PEXTMAX
 10
-1.0000000000000000E+020
 20
-1.0000000000000000E+020
 30
-1.0000000000000000E+020
  9
$PLIMMIN
 10
0.0
 20
0.0
  9
$PLIMMAX
 10
420.0
 20
297.0
  9
$UNITMODE
 70
     0
  9
$VISRETAIN
 70
     1
  9
$PLINEGEN
 70
     0
  9
$PSLTSCALE
 70
     1
  0
ENDSEC
  0
SECTION
  2
TABLES
  0
TABLE
  2
VPORT
 70
     4
  0
VPORT
  2
*ACTIVE
 70
     0
 10
0.0
 20
0.0
 11
1.0
 21
1.0
 12
248.0294117647058
 22
148.5
 13
0.0
 23
0.0
 14
10.0
 24
10.0
 15
10.0
 25
10.0
 16
0.0
 26
0.0
 36
1.0
 17
0.0
 27
0.0
 37
0.0
 40
297.0
 41
1.670231729055258
 42
50.0
 43
0.0
 44
0.0
 50
0.0
 51
0.0
 71
     0
 72
   100
 73
     1
 74
     3
 75
     0
 76
     0
 77
     0
 78
     0
  0
ENDTAB
  0
TABLE
  2
LTYPE
 70
     1
  0
LTYPE
  2
CONTINUOUS
 70
     0
  3
Solid line
 72
    65
 73
     0
 40
0.0
  0
ENDTAB
  0
TABLE
  2
LAYER
 70
     2
  0
LAYER
  2
0
 70
     0
 62
     7
  6
CONTINUOUS
  0
LAYER
  2
1外形線
 70
     0
 62
     3
  6
CONTINUOUS
  0
ENDTAB
  0
TABLE
  2
STYLE
 70
     2
  0
STYLE
  2
STANDARD
 70
     0
 40
0.0
 41
1.0
 50
0.0
 71
     0
 42
2.5
  3
txt
  4

  0
STYLE
  2
KANJI
 70
     0
 40
0.0
 41
1.0
 50
0.0
 71
     0
 42
10.0
  3
simplex
  4
bigfont
  0
ENDTAB
  0
TABLE
  2
VIEW
 70
     0
  0
ENDTAB
  0
TABLE
  2
UCS
 70
     0
  0
ENDTAB
  0
TABLE
  2
APPID
 70
     1
  0
APPID
  2
ACAD
 70
     0
  0
ENDTAB
  0
TABLE
  2
DIMSTYLE
 70
     2
  0
DIMSTYLE
  2
ISO-25
 70
     0
  3

  4

  5

  6

  7

 40
1.0
 41
2.5
 42
0.625
 43
3.75
 44
1.25
 45
0.0
 46
0.0
 47
0.0
 48
0.0
140
2.5
141
2.5
142
0.0
143
0.03937007874016
144
1.0
145
0.0
146
1.0
147
0.625
 71
     0
 72
     0
 73
     0
 74
     0
 75
     0
 76
     0
 77
     1
 78
     8
170
     0
171
     3
172
     1
173
     0
174
     0
175
     0
176
     0
177
     0
178
     0
  0
DIMSTYLE
  2
STANDARD
 70
     0
  3

  4

  5

  6
1
  7
1
 40
1.0
 41
1.0
 42
1.0
 43
6.0
 44
1.0
 45
0.0
 46
0.0
 47
0.0
 48
0.0
140
2.5
141
0.0
142
0.0
143
25.399999999999999
144
1.0
145
0.0
146
1.0
147
0.5
 71
     0
 72
     0
 73
     0
 74
     0
 75
     0
 76
     0
 77
     1
 78
     8
170
     0
171
     2
172
     1
173
     1
174
     0
175
     0
176
     0
177
     0
178
     0
  0
ENDTAB
  0
ENDSEC
  0
SECTION
  2
BLOCKS
  0
BLOCK
  8
0
  2
$MODEL_SPACE
 70
     0
 10
0.0
 20
0.0
 30
0.0
  3
$MODEL_SPACE
  1

  0
ENDBLK
  5
21
  8
0
  0
BLOCK
 67
     1
  8
0
  2
$PAPER_SPACE
 70
     0
 10
0.0
 20
0.0
 30
0.0
  3
$PAPER_SPACE
  1

  0
ENDBLK
  5
1D
 67
     1
  8
0
  0
BLOCK
  8
0
  2
1
 70
     0
 10
0.0
 20
0.0
 30
0.0
  3
1
  1

  0
SOLID
  5
2C
  8
0
  6
BYBLOCK
 62
     0
 10
-1.811110924292052
 20
0.4852857095671653
 30
0.0
 11
-1.811110924292052
 21
-0.4852857095673642
 31
0.0
 12
0.0
 22
0.0
 32
0.0
 13
0.0
 23
0.0
 33
0.0
  0
ENDBLK
  5
2E
  8
0
  0
ENDSEC
  0
SECTION
  2
ENTITIES
  0
LINE
  5
142
  8
1外形線
 10
118.6009271840101
 20
125.8439498636303
 30
0.0
 11
66.09719581764017
 21
125.8439498636299
 31
0.0
  0
CIRCLE
  5
143
  8
1外形線
 10
110.0971958176424
 20
101.4439498636299
 30
0.0
 40
3.6000000000000001
  0
CIRCLE
  5
144
  8
1外形線
 10
110.0971958176424
 20
101.4439498636299
 30
0.0
 40
5.0
  0
LINE
  5
145
  8
1外形線
 10
118.6009271840132
 20
77.043949863629791
 30
0.0
 11
86.097195817640156
 21
77.04394986362945
 31
0.0
  0
CIRCLE
  5
146
  8
1外形線
 10
110.0971958176424
 20
101.4439498636299
 30
0.0
 40
2.1000000000000001
  0
ARC
  5
147
  8
1外形線
 10
66.097195817640383
 20
95.443949863629925
 30
0.0
 40
30.399999999999999
 50
90.000000000000398
 51
179.9999999999979
  0
CIRCLE
  5
148
  8
1外形線
 10
60.097195817640511
 20
101.4439498636299
 30
0.0
 40
2.5
  0
LINE
  5
149
  8
1外形線
 10
82.297195817640443
 20
38.443949863628909
 30
0.0
 11
82.29719581764067
 21
31.643949863628929
 31
0.0
  0
LINE
  5
14A
  8
1外形線
 10
84.348311523938307
 20
39.955106926607982
 30
0.0
 11
83.58724544573812
 21
32.344446144610231
 31
0.0
  0
LINE
  5
14B
  8
1外形線
 10
37.897195817640799
 20
38.44394986363033
 30
0.0
 11
37.897195817640799
 21
31.643949863632649
 31
0.0
  0
LINE
  5
14C
  8
1外形線
 10
35.846080111338608
 20
39.955106926653251
 30
0.0
 11
36.607146189542668
 21
32.344446144611616
 31
0.0
  0
ARC
  5
14D
  8
1外形線
 10
37.602183379752709
 20
32.44394986363266
 30
0.0
 40
1.0
 50
185.7105931374993
 51
269.99999999999829
  0
LINE
  5
14E
  8
1外形線
 10
37.602183379752709
 20
31.44394986363266
 30
0.0
 11
37.697195817640761
 21
31.44394986363266
 31
0.0
  0
ARC
  5
14F
  8
1外形線
 10
37.697195817640761
 20
31.643949863632649
 30
0.0
 40
0.2
 50
269.99999999999829
 51
359.9999999999996
  0
ARC
  5
150
  8
1外形線
 10
82.592208255528064
 20
32.443949863631332
 30
0.0
 40
1.0
 50
269.99999999999829
 51
354.28940686249751
  0
LINE
  5
151
  8
1外形線
 10
82.497195817640716
 20
31.443949863628941
 30
0.0
 11
82.592208255528419
 21
31.443949863628941
 31
0.0
  0
ARC
  5
152
  8
1外形線
 10
82.497195817640588
 20
31.643949863628961
 30
0.0
 40
0.2
 50
180.00000000000179
 51
270.00000000001501
  0
LINE
  5
153
  8
1外形線
 10
105.12225863210941
 20
100.9439498636299
 30
0.0
 11
62.546685560423668
 21
100.9439498636299
 31
0.0
  0
LINE
  5
154
  8
1外形線
 10
38.89719581764092
 20
39.44394986363028
 30
0.0
 11
81.297195817640443
 21
39.443949863628852
 31
0.0
  0
LINE
  5
155
  8
1外形線
 10
59.597195817641193
 20
56.418887049163011
 30
0.0
 11
59.597195817642437
 21
98.994460120846355
 31
0.0
  0
LINE
  5
156
  8
1外形線
 10
60.597195817641193
 20
56.418887049162969
 30
0.0
 11
60.597195817642451
 21
98.994460120847165
 31
0.0
  0
LINE
  5
157
  8
1外形線
 10
35.69719581763826
 20
42.940218497284107
 30
0.0
 11
35.697195817640299
 21
95.443949863631005
 31
0.0
  0
LINE
  5
158
  8
1外形線
 10
39.497195817639117
 20
50.44394986363087
 30
0.0
 11
39.497195817639572
 21
65.443949863630934
 31
0.0
  0
LINE
  5
159
  8
1外形線
 10
38.29719581763964
 20
65.443949863631005
 30
0.0
 11
38.297195817639192
 21
50.443949863630962
 31
0.0
  0
ARC
  5
15A
  8
1外形線
 10
65.69719581763826
 20
42.940218497282949
 30
0.0
 40
30.0
 50
179.9999999999977
 51
185.7105931374991
  0
ARC
  5
15B
  8
1外形線
 10
38.897195817640799
 20
38.44394986363028
 30
0.0
 40
1.0
 50
89.999999999997968
 51
179.9999999999998
  0
LINE
  5
15C
  8
1外形線
 10
39.497195817641511
 20
50.44394986363087
 30
0.0
 11
38.297195817639192
 21
50.443949863630962
 31
0.0
  0
LINE
  5
15D
  8
1外形線
 10
39.49719581764208
 20
65.443949863630934
 30
0.0
 11
38.29719581763964
 21
65.443949863631005
 31
0.0
  0
CIRCLE
  5
15E
  8
1外形線
 10
60.097195817641079
 20
51.443949863630003
 30
0.0
 40
2.1000000000000001
  0
CIRCLE
  5
15F
  8
1外形線
 10
60.097195817641079
 20
51.443949863630003
 30
0.0
 40
3.6000000000000001
  0
CIRCLE
  5
160
  8
1外形線
 10
60.097195817641079
 20
51.443949863630003
 30
0.0
 40
5.0
  0
LINE
  5
161
  8
1外形線
 10
60.597195817640738
 20
40.943949863629477
 30
0.0
 11
60.597195817640852
 21
46.469012678096952
 31
0.0
  0
LINE
  5
162
  8
1外形線
 10
59.597195817640852
 20
40.943949863629477
 30
0.0
 11
59.597195817640852
 21
46.469012678096981
 31
0.0
  0
ARC
  5
163
  8
1外形線
 10
60.097195817640852
 20
40.943949863629477
 30
0.0
 40
0.4999999999999006
 50
180.00000000000159
 51
359.99999999999829
  0
LINE
  5
164
  8
1外形線
 10
84.497195817638897
 20
42.940218497238391
 30
0.0
 11
84.497195817640133
 21
75.443949863629541
 31
0.0
  0
LINE
  5
165
  8
1外形線
 10
81.897195817643194
 20
65.44394986362974
 30
0.0
 11
81.897195817642739
 21
50.443949863629683
 31
0.0
  0
LINE
  5
166
  8
1外形線
 10
80.697195817642793
 20
50.443949863629662
 30
0.0
 11
80.697195817643262
 21
65.443949863629712
 31
0.0
  0
ARC
  5
167
  8
1外形線
 10
54.497195817638897
 20
42.940218497239577
 30
0.0
 40
30.0
 50
354.28940686249712
 51
359.99999999999773
  0
ARC
  5
168
  8
1外形線
 10
81.297195817640443
 20
38.443949863628852
 30
0.0
 40
1.0
 50
0.0000000000016284
 51
89.999999999997968
  0
LINE
  5
169
  8
1外形線
 10
80.69719581764042
 20
50.443949863629662
 30
0.0
 11
81.897195817642739
 21
50.443949863629683
 31
0.0
  0
LINE
  5
16A
  8
1外形線
 10
80.697195817640647
 20
65.443949863629712
 30
0.0
 11
81.897195817643194
 21
65.44394986362974
 31
0.0
  0
ARC
  5
16B
  8
1外形線
 10
86.097195817640156
 20
75.443949863629484
 30
0.0
 40
1.600000000000005
 50
90.0
 51
179.9999999999975
  0
LINE
  5
16C
  8
1外形線
 10
111.0971958176421
 20
80.843949863628069
 30
0.0
 11
96.097195817641989
 21
80.843949863628069
 31
0.0
  0
LINE
  5
16D
  8
1外形線
 10
96.097195817641989
 20
79.643949863628166
 30
0.0
 11
111.0971958176421
 21
79.643949863628166
 31
0.0
  0
LINE
  5
16E
  8
1外形線
 10
96.097195817641989
 20
80.843949863630684
 30
0.0
 11
96.097195817641989
 21
79.643949863628166
 31
0.0
  0
LINE
  5
16F
  8
1外形線
 10
111.0971958176421
 20
80.843949863630456
 30
0.0
 11
111.0971958176421
 21
79.643949863628166
 31
0.0
  0
LINE
  5
170
  8
1外形線
 10
105.12225863210941
 20
101.9439498636299
 30
0.0
 11
62.546685560423668
 21
101.9439498636299
 31
0.0
  0
LINE
  5
171
  8
1外形線
 10
96.097195817641989
 20
123.2439498636317
 30
0.0
 11
111.0971958176421
 21
123.2439498636317
 31
0.0
  0
LINE
  5
172
  8
1外形線
 10
111.0971958176421
 20
122.04394986363179
 30
0.0
 11
96.097195817641989
 21
122.04394986363179
 31
0.0
  0
LINE
  5
173
  8
1外形線
 10
96.097195817641989
 20
122.04394986362909
 30
0.0
 11
96.097195817641989
 21
123.2439498636317
 31
0.0
  0
LINE
  5
174
  8
1外形線
 10
111.0971958176421
 20
122.04394986362939
 30
0.0
 11
111.0971958176421
 21
123.2439498636317
 31
0.0
  0
ARC
  5
175
  8
1外形線
 10
120.5971958176428
 20
101.4439498636298
 30
0.0
 40
0.4999999999999006
 50
270.0
 51
89.999999999996746
  0
LINE
  5
176
  8
1外形線
 10
122.0971958176426
 20
122.6439498636296
 30
0.0
 11
122.0971958176429
 21
80.243949863630107
 31
0.0
  0
LINE
  5
177
  8
1外形線
 10
164.76324459593189
 20
125.8439498636301
 30
0.0
 11
164.76324459592911
 21
31.443949863626411
 31
0.0
  0
LINE
  5
178
  8
1外形線
 10
159.7632445959317
 20
125.8439498636302
 30
0.0
 11
159.763244595929
 21
31.443949863626582
 31
0.0
  0
LINE
  5
179
  8
1外形線
 10
159.763244595929
 20
31.443949863626582
 30
0.0
 11
164.763244595929
 21
31.443949863626411
 31
0.0
  0
LINE
  5
17A
  8
1外形線
 10
157.76324459593161
 20
79.643949863628222
 30
0.0
 11
159.76324459593161
 21
79.643949863627995
 31
0.0
  0
LINE
  5
17B
  8
1外形線
 10
157.76324459593161
 20
80.843949863628154
 30
0.0
 11
159.76324459593161
 21
80.843949863627984
 31
0.0
  0
ARC
  5
17C
  8
1外形線
 10
158.76324459592979
 20
64.44394986362704
 30
0.0
 40
1.0
 50
89.999999999998366
 51
179.99999999999829
  0
ARC
  5
17D
  8
1外形線
 10
158.76324459592951
 20
51.443949863626983
 30
0.0
 40
1.0
 50
179.99999999999829
 51
269.99999999999829
  0
LINE
  5
17E
  8
1外形線
 10
157.76324459592979
 20
64.443949863627068
 30
0.0
 11
157.76324459592951
 21
51.443949863627012
 31
0.0
  0
LINE
  5
17F
  8
1外形線
 10
123.0971958176428
 20
79.243949863630121
 30
0.0
 11
129.8971958176428
 21
79.243949863629695
 31
0.0
  0
LINE
  5
180
  8
1外形線
 10
121.5860387546436
 20
77.192834157330154
 30
0.0
 11
129.19669953666141
 21
77.95390023553216
 31
0.0
  0
ARC
  5
181
  8
1外形線
 10
118.6009271840129
 20
107.04394986362971
 30
0.0
 40
30.0
 50
270.0000000000004
 51
275.71059313750101
  0
ARC
  5
182
  8
1外形線
 10
123.0971958176428
 20
80.243949863630107
 30
0.0
 40
1.0
 50
180.0000000000002
 51
269.9999999999967
  0
ARC
  5
183
  8
1外形線
 10
129.8971958176428
 20
79.043949863629706
 30
0.0
 40
0.2
 50
359.99999999998329
 51
89.999999999996334
  0
LINE
  5
184
  8
1外形線
 10
130.0971958176427
 20
79.043949863629649
 30
0.0
 11
130.0971958176427
 21
78.94893742574186
 31
0.0
  0
ARC
  5
185
  8
1外形線
 10
129.0971958176404
 20
78.948937425742201
 30
0.0
 40
1.0
 50
275.71059313750061
 51
0.0
  0
LINE
  5
186
  8
1外形線
 10
120.5971958176428
 20
100.9439498636299
 30
0.0
 11
115.0721330031754
 21
100.9439498636299
 31
0.0
  0
LINE
  5
187
  8
1外形線
 10
157.76324459593161
 20
80.843949863627984
 30
0.0
 11
157.76324459593161
 21
79.643949863628222
 31
0.0
  0
LINE
  5
188
  8
1外形線
 10
159.76324459592931
 20
41.443949863611458
 30
0.0
 11
164.76324459592931
 21
41.443949863611458
 31
0.0
  0
LINE
  5
189
  8
1外形線
 10
158.76324459592951
 20
50.443949863626983
 30
0.0
 11
159.76324459592951
 21
50.443949863626962
 31
0.0
  0
LINE
  5
18A
  8
1外形線
 10
158.7632445959299
 20
65.44394986362704
 30
0.0
 11
159.7632445959299
 21
65.443949863627012
 31
0.0
  0
LINE
  5
18B
  8
1外形線
 10
164.7632445959303
 20
77.043949863629649
 30
0.0
 11
159.7632445959303
 21
77.043949863629791
 31
0.0
  0
LINE
  5
18C
  8
1外形線
 10
159.7632445959305
 20
79.343949863628239
 30
0.0
 11
164.7632445959307
 21
79.343949863628325
 31
0.0
  0
LINE
  5
18D
  8
1外形線
 10
157.76324459593161
 20
122.0439498636278
 30
0.0
 11
159.76324459593161
 21
122.043949863628
 31
0.0
  0
LINE
  5
18E
  8
1外形線
 10
157.76324459593161
 20
123.24394986362771
 30
0.0
 11
159.76324459593161
 21
123.243949863628
 31
0.0
  0
LINE
  5
18F
  8
1外形線
 10
120.5971958176428
 20
101.9439498636297
 30
0.0
 11
115.0721330031754
 21
101.9439498636299
 31
0.0
  0
LINE
  5
190
  8
1外形線
 10
123.0971958176426
 20
123.6439498636296
 30
0.0
 11
129.89719581764029
 21
123.6439498636295
 31
0.0
  0
LINE
  5
191
  8
1外形線
 10
121.5860387546409
 20
125.69506556992989
 30
0.0
 11
129.19669953666141
 21
124.9339994917277
 31
0.0
  0
ARC
  5
192
  8
1外形線
 10
118.6009271840103
 20
95.843949863630314
 30
0.0
 40
30.0
 50
84.289406862499391
 51
90.000000000000398
  0
ARC
  5
193
  8
1外形線
 10
123.0971958176426
 20
122.6439498636296
 30
0.0
 40
1.0
 50
89.999999999998366
 51
180.0000000000004
  0
ARC
  5
194
  8
1外形線
 10
129.89719581764029
 20
123.8439498636295
 30
0.0
 40
0.2
 50
269.99999999999869
 51
0.0
  0
ARC
  5
195
  8
1外形線
 10
129.0971958176404
 20
123.93896230151761
 30
0.0
 40
1.0
 50
0.0
 51
84.289406862498979
  0
LINE
  5
196
  8
1外形線
 10
130.0971958176404
 20
123.93896230151761
 30
0.0
 11
130.0971958176404
 21
123.8439498636295
 31
0.0
  0
LINE
  5
197
  8
1外形線
 10
157.76324459593161
 20
122.043949863628
 30
0.0
 11
157.76324459593161
 21
123.24394986362771
 31
0.0
  0
LINE
  5
198
  8
1外形線
 10
159.7632445959317
 20
123.5439498636284
 30
0.0
 11
164.76324459593201
 21
123.5439498636281
 31
0.0
  0
LINE
  5
199
  8
1外形線
 10
164.76324459593161
 20
125.8439498636301
 30
0.0
 11
159.76324459593161
 21
125.8439498636302
 31
0.0
  0
ENDSEC
  0
EOF
