  0
SECTION
  2
HEADER
  9
$ACADVER
  1
AC1009
  9
$INSBASE
 10
0.0
 20
0.0
 30
0.0
  9
$EXTMIN
 10
20.717761997079091
 20
-25.750029856048059
 30
-0.0015258207003583
  9
$EXTMAX
 10
615.43703137683963
 20
462.53139940095582
 30
0.0000000349246037
  9
$LIMMIN
 10
0.0
 20
0.0
  9
$LIMMAX
 10
420.0
 20
297.0
  9
$ORTHOMODE
 70
     0
  9
$REGENMODE
 70
     1
  9
$FILLMODE
 70
     1
  9
$QTEXTMODE
 70
     0
  9
$MIRRTEXT
 70
     1
  9
$DRAGMODE
 70
     2
  9
$LTSCALE
 40
1.0
  9
$OSMODE
 70
    37
  9
$ATTMODE
 70
     1
  9
$TEXTSIZE
 40
2.5
  9
$TRACEWID
 40
1.0
  9
$TEXTSTYLE
  7
STANDARD
  9
$CLAYER
  8
0
  9
$CELTYPE
  6
BYLAYER
  9
$CECOLOR
 62
   256
  9
$DIMSCALE
 40
1.0
  9
$DIMASZ
 40
2.5
  9
$DIMEXO
 40
0.625
  9
$DIMDLI
 40
3.75
  9
$DIMRND
 40
0.0
  9
$DIMDLE
 40
0.0
  9
$DIMEXE
 40
1.25
  9
$DIMTP
 40
0.0
  9
$DIMTM
 40
0.0
  9
$DIMTXT
 40
2.5
  9
$DIMCEN
 40
2.5
  9
$DIMTSZ
 40
0.0
  9
$DIMTOL
 70
     0
  9
$DIMLIM
 70
     0
  9
$DIMTIH
 70
     0
  9
$DIMTOH
 70
     0
  9
$DIMSE1
 70
     0
  9
$DIMSE2
 70
     0
  9
$DIMTAD
 70
     1
  9
$DIMZIN
 70
     8
  9
$DIMBLK
  1

  9
$DIMASO
 70
     1
  9
$DIMSHO
 70
     1
  9
$DIMPOST
  1

  9
$DIMAPOST
  1

  9
$DIMALT
 70
     0
  9
$DIMALTD
 70
     3
  9
$DIMALTF
 40
0.03937007874016
  9
$DIMLFAC
 40
1.0
  9
$DIMTOFL
 70
     1
  9
$DIMTVP
 40
0.0
  9
$DIMTIX
 70
     0
  9
$DIMSOXD
 70
     0
  9
$DIMSAH
 70
     0
  9
$DIMBLK1
  1

  9
$DIMBLK2
  1

  9
$DIMSTYLE
  2
ISO-25
  9
$DIMCLRD
 70
     0
  9
$DIMCLRE
 70
     0
  9
$DIMCLRT
 70
     0
  9
$DIMTFAC
 40
1.0
  9
$DIMGAP
 40
0.625
  9
$LUNITS
 70
     2
  9
$LUPREC
 70
     4
  9
$SKETCHINC
 40
1.0
  9
$FILLETRAD
 40
10.0
  9
$AUNITS
 70
     0
  9
$AUPREC
 70
     0
  9
$MENU
  1
.
  9
$ELEVATION
 40
0.0
  9
$PELEVATION
 40
0.0
  9
$THICKNESS
 40
0.0
  9
$LIMCHECK
 70
     0
  9
$BLIPMODE
 70
     0
  9
$CHAMFERA
 40
10.0
  9
$CHAMFERB
 40
10.0
  9
$SKPOLY
 70
     0
  9
$TDCREATE
 40
2452048.587873715
  9
$TDUPDATE
 40
2452048.6164838308
  9
$TDINDWG
 40
0.0286126736
  9
$TDUSRTIMER
 40
0.0286126736
  9
$USRTIMER
 70
     1
  9
$ANGBASE
 50
0.0
  9
$ANGDIR
 70
     0
  9
$PDMODE
 70
     0
  9
$PDSIZE
 40
0.0
  9
$PLINEWID
 40
0.0
  9
$COORDS
 70
     1
  9
$SPLFRAME
 70
     0
  9
$SPLINETYPE
 70
     6
  9
$SPLINESEGS
 70
     8
  9
$ATTDIA
 70
     0
  9
$ATTREQ
 70
     1
  9
$HANDLING
 70
-16383
  9
$HANDSEED
  5
6B10
  9
$SURFTAB1
 70
     6
  9
$SURFTAB2
 70
     6
  9
$SURFTYPE
 70
     6
  9
$SURFU
 70
     6
  9
$SURFV
 70
     6
  9
$UCSNAME
  2

  9
$UCSORG
 10
0.0
 20
0.0
 30
0.0
  9
$UCSXDIR
 10
1.0
 20
0.0
 30
0.0
  9
$UCSYDIR
 10
0.0
 20
1.0
 30
0.0
  9
$PUCSNAME
  2

  9
$PUCSORG
 10
0.0
 20
0.0
 30
0.0
  9
$PUCSXDIR
 10
1.0
 20
0.0
 30
0.0
  9
$PUCSYDIR
 10
0.0
 20
1.0
 30
0.0
  9
$USERI1
 70
     0
  9
$USERI2
 70
     0
  9
$USERI3
 70
     0
  9
$USERI4
 70
     0
  9
$USERI5
 70
     0
  9
$USERR1
 40
0.0
  9
$USERR2
 40
0.0
  9
$USERR3
 40
0.0
  9
$USERR4
 40
0.0
  9
$USERR5
 40
0.0
  9
$WORLDVIEW
 70
     1
  9
$SHADEDGE
 70
     3
  9
$SHADEDIF
 70
    70
  9
$TILEMODE
 70
     1
  9
$MAXACTVP
 70
    64
  9
$PLIMCHECK
 70
     0
  9
$PEXTMIN
 10
1.0000000000000000E+020
 20
1.0000000000000000E+020
 30
1.0000000000000000E+020
  9
$PEXTMAX
 10
-1.0000000000000000E+020
 20
-1.0000000000000000E+020
 30
-1.0000000000000000E+020
  9
$PLIMMIN
 10
0.0
 20
0.0
  9
$PLIMMAX
 10
420.0
 20
297.0
  9
$UNITMODE
 70
     0
  9
$VISRETAIN
 70
     1
  9
$PLINEGEN
 70
     0
  9
$PSLTSCALE
 70
     1
  0
ENDSEC
  0
SECTION
  2
TABLES
  0
TABLE
  2
VPORT
 70
    52
  0
VPORT
  2
*ACTIVE
 70
     0
 10
0.0
 20
0.0
 11
1.0
 21
1.0
 12
243.19809294536361
 22
20.724196922940902
 13
0.0
 23
0.0
 14
10.0
 24
10.0
 15
10.0
 25
10.0
 16
0.0
 26
0.0
 36
1.0
 17
0.0
 27
0.0
 37
0.0
 40
1137.7171551220929
 41
0.8452830188679245
 42
50.0
 43
0.0
 44
0.0
 50
0.0
 51
0.0
 71
     0
 72
   100
 73
     1
 74
     3
 75
     0
 76
     0
 77
     0
 78
     0
  0
ENDTAB
  0
TABLE
  2
LTYPE
 70
     1
  0
LTYPE
  2
CONTINUOUS
 70
     0
  3
Solid line
 72
    65
 73
     0
 40
0.0
  0
ENDTAB
  0
TABLE
  2
LAYER
 70
     3
  0
LAYER
  2
0
 70
     0
 62
     7
  6
CONTINUOUS
  0
LAYER
  2
1外形線
 70
     0
 62
     3
  6
CONTINUOUS
  0
LAYER
  2
4太線
 70
     0
 62
     6
  6
CONTINUOUS
  0
ENDTAB
  0
TABLE
  2
STYLE
 70
     2
  0
STYLE
  2
STANDARD
 70
     0
 40
0.0
 41
1.0
 50
0.0
 71
     0
 42
2.5
  3
txt
  4

  0
STYLE
  2
KANJI
 70
     0
 40
0.0
 41
1.0
 50
0.0
 71
     0
 42
10.0
  3
simplex
  4
bigfont
  0
ENDTAB
  0
TABLE
  2
VIEW
 70
     0
  0
ENDTAB
  0
TABLE
  2
UCS
 70
     0
  0
ENDTAB
  0
TABLE
  2
APPID
 70
     1
  0
APPID
  2
ACAD
 70
     0
  0
ENDTAB
  0
TABLE
  2
DIMSTYLE
 70
     2
  0
DIMSTYLE
  2
ISO-25
 70
     0
  3

  4

  5

  6

  7

 40
1.0
 41
2.5
 42
0.625
 43
3.75
 44
1.25
 45
0.0
 46
0.0
 47
0.0
 48
0.0
140
2.5
141
2.5
142
0.0
143
0.03937007874016
144
1.0
145
0.0
146
1.0
147
0.625
 71
     0
 72
     0
 73
     0
 74
     0
 75
     0
 76
     0
 77
     1
 78
     8
170
     0
171
     3
172
     1
173
     0
174
     0
175
     0
176
     0
177
     0
178
     0
  0
DIMSTYLE
  2
STANDARD
 70
     0
  3

  4

  5

  6
1
  7
1
 40
1.0
 41
1.0
 42
1.0
 43
6.0
 44
1.0
 45
0.0
 46
0.0
 47
0.0
 48
0.0
140
2.5
141
0.0
142
0.0
143
25.399999999999999
144
1.0
145
0.0
146
1.0
147
0.5
 71
     0
 72
     0
 73
     0
 74
     0
 75
     0
 76
     0
 77
     1
 78
     8
170
     0
171
     2
172
     1
173
     1
174
     0
175
     0
176
     0
177
     0
178
     0
  0
ENDTAB
  0
ENDSEC
  0
SECTION
  2
BLOCKS
  0
BLOCK
  8
0
  2
$MODEL_SPACE
 70
     0
 10
0.0
 20
0.0
 30
0.0
  3
$MODEL_SPACE
  1

  0
ENDBLK
  5
21
  8
0
  0
BLOCK
 67
     1
  8
0
  2
$PAPER_SPACE
 70
     0
 10
0.0
 20
0.0
 30
0.0
  3
$PAPER_SPACE
  1

  0
ENDBLK
  5
1D
 67
     1
  8
0
  0
BLOCK
  8
0
  2
1
 70
     0
 10
0.0
 20
0.0
 30
0.0
  3
1
  1

  0
SOLID
  5
2C
  8
0
  6
BYBLOCK
 62
     0
 10
-1.811110924292052
 20
0.4852857095671653
 30
0.0
 11
-1.811110924292052
 21
-0.4852857095673642
 31
0.0
 12
0.0
 22
0.0
 32
0.0
 13
0.0
 23
0.0
 33
0.0
  0
ENDBLK
  5
2E
  8
0
  0
ENDSEC
  0
SECTION
  2
ENTITIES
  0
CIRCLE
  5
6AE7
  8
1外形線
 10
271.92863459221053
 20
52.150133079040302
 30
0.0
 40
2.1000000000000001
  0
LINE
  5
6AE8
  8
1外形線
 10
259.42863459220411
 20
42.150133079040408
 30
0.0
 11
281.92863459220922
 21
42.150133079040181
 31
0.0
  0
ARC
  5
6AE9
  8
1外形線
 10
240.4286345922109
 20
59.650133079042568
 30
0.0
 40
41.5
 50
359.99999999999341
 51
179.99999999999341
  0
LINE
  5
6AEA
  8
1外形線
 10
165.5933312337695
 20
99.150133079046896
 30
0.0
 11
165.5933312337695
 21
42.150133079047002
 31
0.0
  0
LINE
  5
6AEB
  8
1外形線
 10
167.89333123376949
 20
101.15013307904709
 30
0.0
 11
167.89333123376949
 21
42.150133079047002
 31
0.0
  0
ARC
  5
6AEC
  8
1外形線
 10
72.654425399222305
 20
59.65013307905042
 30
0.0
 40
41.5
 50
0.0
 51
180.0
  0
LINE
  5
6AED
  8
1外形線
 10
114.1544253992223
 20
42.150133079047002
 30
0.0
 11
91.654425399222305
 21
42.150133079047002
 31
0.0
  0
LINE
  5
6AEE
  8
1外形線
 10
53.654425399222312
 20
42.150133079047123
 30
0.0
 11
31.15442539922185
 21
42.150133079045638
 31
0.0
  0
LINE
  5
6AEF
  8
1外形線
 10
31.15442539922185
 20
42.150133079052921
 30
0.0
 11
31.15442539922185
 21
59.65013307905042
 31
0.0
  0
ARC
  5
6AF0
  8
1外形線
 10
72.654425399222305
 20
59.650133079051557
 30
0.0
 40
19.0
 50
0.0
 51
180.0
  0
ARC
  5
6AF1
  8
1外形線
 10
72.654425399222305
 20
59.650133079051557
 30
0.0
 40
21.0
 50
0.0
 51
180.0
  0
LINE
  5
6AF2
  8
1外形線
 10
53.654425399222312
 20
59.650133079048373
 30
0.0
 11
53.654425399222312
 21
42.150133079048373
 31
0.0
  0
LINE
  5
6AF3
  8
1外形線
 10
51.654425399222312
 20
59.650133079048373
 30
0.0
 11
51.654425399222312
 21
42.150133079043592
 31
0.0
  0
LINE
  5
6AF4
  8
1外形線
 10
93.654425399222305
 20
59.650133079048373
 30
0.0
 11
93.654425399222305
 21
42.15013307904394
 31
0.0
  0
LINE
  5
6AF5
  8
1外形線
 10
91.654425399222305
 20
59.650133079048373
 30
0.0
 11
91.654425399222305
 21
42.150133079048373
 31
0.0
  0
LINE
  5
6AF6
  8
1外形線
 10
114.1544253992223
 20
42.150133079050477
 30
0.0
 11
114.1544253992224
 21
59.650133079050143
 31
0.0
  0
LINE
  5
6AF7
  8
1外形線
 10
163.5933312337695
 20
80.650133079042462
 30
0.0
 11
156.3908436561874
 21
80.650133079042462
 31
0.0
  0
LINE
  5
6AF8
  8
1外形線
 10
167.89333123376949
 20
42.150133079047002
 30
0.0
 11
145.39333123376949
 21
42.150133079047002
 31
0.0
  0
LINE
  5
6AF9
  8
1外形線
 10
145.39333123376949
 20
78.745145516930279
 30
0.0
 11
145.39333123376949
 21
42.150133079047002
 31
0.0
  0
LINE
  5
6AFA
  8
1外形線
 10
154.40076927576749
 20
80.550876883242154
 30
0.0
 11
146.29382751474861
 21
79.74018270714032
 31
0.0
  0
ARC
  5
6AFB
  8
1外形線
 10
146.39333123376949
 20
78.745145516930279
 30
0.0
 40
1.0
 50
95.710593137499757
 51
180.0
  0
ARC
  5
6AFC
  8
1外形線
 10
156.3908436561876
 20
60.650133079042462
 30
0.0
 40
20.0
 50
90.000000000000185
 51
95.710593137499757
  0
ARC
  5
6AFD
  8
1外形線
 10
163.5933312337695
 20
82.650133079042448
 30
0.0
 40
2.0
 50
270.00000000000023
 51
0.0
  0
ARC
  5
6AFE
  8
1外形線
 10
240.42863459220749
 20
59.650133079046903
 30
0.0
 40
19.0
 50
89.999999999989214
 51
179.9999999999886
  0
LINE
  5
6AFF
  8
1外形線
 10
198.92863459220879
 20
42.150133079047002
 30
0.0
 11
221.42863459220411
 21
42.150133079044728
 31
0.0
  0
LINE
  5
6B00
  8
1外形線
 10
198.92863459220879
 20
42.15013307904735
 30
0.0
 11
198.9286345922107
 21
59.650133079047009
 31
0.0
  0
LINE
  5
6B01
  8
1外形線
 10
221.4286345922074
 20
59.65013307904735
 30
0.0
 11
221.42863459220411
 21
42.15013307904735
 31
0.0
  0
CIRCLE
  5
6B02
  8
1外形線
 10
208.92863459220999
 20
52.150133079045759
 30
0.0
 40
2.1000000000000001
  0
ARC
  5
6B03
  8
1外形線
 10
240.42863459220749
 20
59.650133079046903
 30
0.0
 40
19.0
 50
359.99999999998852
 51
89.999999999989214
  0
LINE
  5
6B04
  8
1外形線
 10
259.4286345922074
 20
59.650133079040067
 30
0.0
 11
259.42863459220411
 21
42.150133079040067
 31
0.0
  0
ARC
  5
6B05
  8
1外形線
 10
167.5933312337695
 20
99.150133079046896
 30
0.0
 40
2.0
 50
90.000000000001023
 51
180.0
  0
LINE
  5
6B06
  8
1外形線
 10
167.89333123376949
 20
101.150133079047
 30
0.0
 11
167.5933312337695
 21
101.1501330790468
 31
0.0
  0
CIRCLE
  5
6B07
  8
1外形線
 10
240.42863459220411
 20
91.150133079042575
 30
0.0
 40
2.1000000000000001
  0
LINE
  5
6B08
  8
1外形線
 10
281.92863459220922
 20
42.150133079040181
 30
0.0
 11
281.92863459221132
 21
59.650133079037801
 31
0.0
  0
ENDSEC
  0
EOF
