  0
SECTION
  2
HEADER
  9
$ACADVER
  1
AC1009
  9
$INSBASE
 10
0.0
 20
0.0
 30
0.0
  9
$EXTMIN
 10
20.44514926073338
 20
-25.750029856048059
 30
-0.0015258207003583
  9
$EXTMAX
 10
615.43703137683963
 20
462.53139940095582
 30
0.0000000349246037
  9
$LIMMIN
 10
0.0
 20
0.0
  9
$LIMMAX
 10
420.0
 20
297.0
  9
$ORTHOMODE
 70
     0
  9
$REGENMODE
 70
     1
  9
$FILLMODE
 70
     1
  9
$QTEXTMODE
 70
     0
  9
$MIRRTEXT
 70
     1
  9
$DRAGMODE
 70
     2
  9
$LTSCALE
 40
1.0
  9
$OSMODE
 70
    37
  9
$ATTMODE
 70
     1
  9
$TEXTSIZE
 40
2.5
  9
$TRACEWID
 40
1.0
  9
$TEXTSTYLE
  7
STANDARD
  9
$CLAYER
  8
0
  9
$CELTYPE
  6
BYLAYER
  9
$CECOLOR
 62
   256
  9
$DIMSCALE
 40
1.0
  9
$DIMASZ
 40
2.5
  9
$DIMEXO
 40
0.625
  9
$DIMDLI
 40
3.75
  9
$DIMRND
 40
0.0
  9
$DIMDLE
 40
0.0
  9
$DIMEXE
 40
1.25
  9
$DIMTP
 40
0.0
  9
$DIMTM
 40
0.0
  9
$DIMTXT
 40
2.5
  9
$DIMCEN
 40
2.5
  9
$DIMTSZ
 40
0.0
  9
$DIMTOL
 70
     0
  9
$DIMLIM
 70
     0
  9
$DIMTIH
 70
     0
  9
$DIMTOH
 70
     0
  9
$DIMSE1
 70
     0
  9
$DIMSE2
 70
     0
  9
$DIMTAD
 70
     1
  9
$DIMZIN
 70
     8
  9
$DIMBLK
  1

  9
$DIMASO
 70
     1
  9
$DIMSHO
 70
     1
  9
$DIMPOST
  1

  9
$DIMAPOST
  1

  9
$DIMALT
 70
     0
  9
$DIMALTD
 70
     3
  9
$DIMALTF
 40
0.03937007874016
  9
$DIMLFAC
 40
1.0
  9
$DIMTOFL
 70
     1
  9
$DIMTVP
 40
0.0
  9
$DIMTIX
 70
     0
  9
$DIMSOXD
 70
     0
  9
$DIMSAH
 70
     0
  9
$DIMBLK1
  1

  9
$DIMBLK2
  1

  9
$DIMSTYLE
  2
ISO-25
  9
$DIMCLRD
 70
     0
  9
$DIMCLRE
 70
     0
  9
$DIMCLRT
 70
     0
  9
$DIMTFAC
 40
1.0
  9
$DIMGAP
 40
0.625
  9
$LUNITS
 70
     2
  9
$LUPREC
 70
     4
  9
$SKETCHINC
 40
1.0
  9
$FILLETRAD
 40
10.0
  9
$AUNITS
 70
     0
  9
$AUPREC
 70
     0
  9
$MENU
  1
.
  9
$ELEVATION
 40
0.0
  9
$PELEVATION
 40
0.0
  9
$THICKNESS
 40
0.0
  9
$LIMCHECK
 70
     0
  9
$BLIPMODE
 70
     0
  9
$CHAMFERA
 40
10.0
  9
$CHAMFERB
 40
10.0
  9
$SKPOLY
 70
     0
  9
$TDCREATE
 40
2452048.587873715
  9
$TDUPDATE
 40
2452048.6167302541
  9
$TDINDWG
 40
0.0288588542
  9
$TDUSRTIMER
 40
0.0288588542
  9
$USRTIMER
 70
     1
  9
$ANGBASE
 50
0.0
  9
$ANGDIR
 70
     0
  9
$PDMODE
 70
     0
  9
$PDSIZE
 40
0.0
  9
$PLINEWID
 40
0.0
  9
$COORDS
 70
     1
  9
$SPLFRAME
 70
     0
  9
$SPLINETYPE
 70
     6
  9
$SPLINESEGS
 70
     8
  9
$ATTDIA
 70
     0
  9
$ATTREQ
 70
     1
  9
$HANDLING
 70
-16383
  9
$HANDSEED
  5
6B5D
  9
$SURFTAB1
 70
     6
  9
$SURFTAB2
 70
     6
  9
$SURFTYPE
 70
     6
  9
$SURFU
 70
     6
  9
$SURFV
 70
     6
  9
$UCSNAME
  2

  9
$UCSORG
 10
0.0
 20
0.0
 30
0.0
  9
$UCSXDIR
 10
1.0
 20
0.0
 30
0.0
  9
$UCSYDIR
 10
0.0
 20
1.0
 30
0.0
  9
$PUCSNAME
  2

  9
$PUCSORG
 10
0.0
 20
0.0
 30
0.0
  9
$PUCSXDIR
 10
1.0
 20
0.0
 30
0.0
  9
$PUCSYDIR
 10
0.0
 20
1.0
 30
0.0
  9
$USERI1
 70
     0
  9
$USERI2
 70
     0
  9
$USERI3
 70
     0
  9
$USERI4
 70
     0
  9
$USERI5
 70
     0
  9
$USERR1
 40
0.0
  9
$USERR2
 40
0.0
  9
$USERR3
 40
0.0
  9
$USERR4
 40
0.0
  9
$USERR5
 40
0.0
  9
$WORLDVIEW
 70
     1
  9
$SHADEDGE
 70
     3
  9
$SHADEDIF
 70
    70
  9
$TILEMODE
 70
     1
  9
$MAXACTVP
 70
    64
  9
$PLIMCHECK
 70
     0
  9
$PEXTMIN
 10
1.0000000000000000E+020
 20
1.0000000000000000E+020
 30
1.0000000000000000E+020
  9
$PEXTMAX
 10
-1.0000000000000000E+020
 20
-1.0000000000000000E+020
 30
-1.0000000000000000E+020
  9
$PLIMMIN
 10
0.0
 20
0.0
  9
$PLIMMAX
 10
420.0
 20
297.0
  9
$UNITMODE
 70
     0
  9
$VISRETAIN
 70
     1
  9
$PLINEGEN
 70
     0
  9
$PSLTSCALE
 70
     1
  0
ENDSEC
  0
SECTION
  2
TABLES
  0
TABLE
  2
VPORT
 70
    53
  0
VPORT
  2
*ACTIVE
 70
     0
 10
0.0
 20
0.0
 11
1.0
 21
1.0
 12
243.19809294536361
 22
20.724196922940902
 13
0.0
 23
0.0
 14
10.0
 24
10.0
 15
10.0
 25
10.0
 16
0.0
 26
0.0
 36
1.0
 17
0.0
 27
0.0
 37
0.0
 40
1137.7171551220929
 41
0.8452830188679245
 42
50.0
 43
0.0
 44
0.0
 50
0.0
 51
0.0
 71
     0
 72
   100
 73
     1
 74
     3
 75
     0
 76
     0
 77
     0
 78
     0
  0
ENDTAB
  0
TABLE
  2
LTYPE
 70
     1
  0
LTYPE
  2
CONTINUOUS
 70
     0
  3
Solid line
 72
    65
 73
     0
 40
0.0
  0
ENDTAB
  0
TABLE
  2
LAYER
 70
     3
  0
LAYER
  2
0
 70
     0
 62
     7
  6
CONTINUOUS
  0
LAYER
  2
1外形線
 70
     0
 62
     3
  6
CONTINUOUS
  0
LAYER
  2
4太線
 70
     0
 62
     6
  6
CONTINUOUS
  0
ENDTAB
  0
TABLE
  2
STYLE
 70
     2
  0
STYLE
  2
STANDARD
 70
     0
 40
0.0
 41
1.0
 50
0.0
 71
     0
 42
2.5
  3
txt
  4

  0
STYLE
  2
KANJI
 70
     0
 40
0.0
 41
1.0
 50
0.0
 71
     0
 42
10.0
  3
simplex
  4
bigfont
  0
ENDTAB
  0
TABLE
  2
VIEW
 70
     0
  0
ENDTAB
  0
TABLE
  2
UCS
 70
     0
  0
ENDTAB
  0
TABLE
  2
APPID
 70
     1
  0
APPID
  2
ACAD
 70
     0
  0
ENDTAB
  0
TABLE
  2
DIMSTYLE
 70
     2
  0
DIMSTYLE
  2
ISO-25
 70
     0
  3

  4

  5

  6

  7

 40
1.0
 41
2.5
 42
0.625
 43
3.75
 44
1.25
 45
0.0
 46
0.0
 47
0.0
 48
0.0
140
2.5
141
2.5
142
0.0
143
0.03937007874016
144
1.0
145
0.0
146
1.0
147
0.625
 71
     0
 72
     0
 73
     0
 74
     0
 75
     0
 76
     0
 77
     1
 78
     8
170
     0
171
     3
172
     1
173
     0
174
     0
175
     0
176
     0
177
     0
178
     0
  0
DIMSTYLE
  2
STANDARD
 70
     0
  3

  4

  5

  6
1
  7
1
 40
1.0
 41
1.0
 42
1.0
 43
6.0
 44
1.0
 45
0.0
 46
0.0
 47
0.0
 48
0.0
140
2.5
141
0.0
142
0.0
143
25.399999999999999
144
1.0
145
0.0
146
1.0
147
0.5
 71
     0
 72
     0
 73
     0
 74
     0
 75
     0
 76
     0
 77
     1
 78
     8
170
     0
171
     2
172
     1
173
     1
174
     0
175
     0
176
     0
177
     0
178
     0
  0
ENDTAB
  0
ENDSEC
  0
SECTION
  2
BLOCKS
  0
BLOCK
  8
0
  2
$MODEL_SPACE
 70
     0
 10
0.0
 20
0.0
 30
0.0
  3
$MODEL_SPACE
  1

  0
ENDBLK
  5
21
  8
0
  0
BLOCK
 67
     1
  8
0
  2
$PAPER_SPACE
 70
     0
 10
0.0
 20
0.0
 30
0.0
  3
$PAPER_SPACE
  1

  0
ENDBLK
  5
1D
 67
     1
  8
0
  0
BLOCK
  8
0
  2
1
 70
     0
 10
0.0
 20
0.0
 30
0.0
  3
1
  1

  0
SOLID
  5
2C
  8
0
  6
BYBLOCK
 62
     0
 10
-1.811110924292052
 20
0.4852857095671653
 30
0.0
 11
-1.811110924292052
 21
-0.4852857095673642
 31
0.0
 12
0.0
 22
0.0
 32
0.0
 13
0.0
 23
0.0
 33
0.0
  0
ENDBLK
  5
2E
  8
0
  0
ENDSEC
  0
SECTION
  2
ENTITIES
  0
LINE
  5
6B35
  8
1外形線
 10
308.92904217443919
 20
20.724197580909379
 30
0.0
 11
286.42904217443908
 21
20.724197580909379
 31
0.0
  0
ARC
  5
6B36
  8
1外形線
 10
264.42904217443919
 20
41.224197580905177
 30
0.0
 40
44.499999999999879
 50
0.0
 51
180.0
  0
LINE
  5
6B37
  8
1外形線
 10
20.44514926073338
 20
20.724197580909379
 30
0.0
 11
42.945149260733487
 21
20.724197580909379
 31
0.0
  0
ARC
  5
6B38
  8
1外形線
 10
64.945149260733388
 20
41.224197580905177
 30
0.0
 40
44.499999999999879
 50
0.0
 51
180.0
  0
LINE
  5
6B39
  8
1外形線
 10
20.44514926073338
 20
20.724197580909379
 30
0.0
 11
20.44514926073338
 21
41.22419758090512
 31
0.0
  0
ARC
  5
6B3A
  8
1外形線
 10
64.945149260733388
 20
41.22419758090922
 30
0.0
 40
24.0
 50
0.0
 51
180.0
  0
ARC
  5
6B3B
  8
1外形線
 10
64.945149260733388
 20
41.22419758090922
 30
0.0
 40
22.0
 50
0.0
 51
180.0
  0
LINE
  5
6B3C
  8
1外形線
 10
42.945149260733388
 20
41.22419758090922
 30
0.0
 11
42.945149260733487
 21
20.72419758090922
 31
0.0
  0
LINE
  5
6B3D
  8
1外形線
 10
40.945149260733388
 20
20.72419758090944
 30
0.0
 11
40.945149260733388
 21
41.22419758090922
 31
0.0
  0
LINE
  5
6B3E
  8
1外形線
 10
86.945149260733373
 20
41.22419758090922
 30
0.0
 11
86.945149260733274
 21
20.72419758090922
 31
0.0
  0
LINE
  5
6B3F
  8
1外形線
 10
88.945149260733388
 20
20.724197580909671
 30
0.0
 11
88.945149260733388
 21
41.22419758090922
 31
0.0
  0
LINE
  5
6B40
  8
1外形線
 10
109.4451492607333
 20
20.72419758090922
 30
0.0
 11
109.4451492607333
 21
41.224197580905177
 31
0.0
  0
LINE
  5
6B41
  8
1外形線
 10
86.945149260733274
 20
20.72419758090922
 30
0.0
 11
109.4451492607333
 21
20.72419758090922
 31
0.0
  0
LINE
  5
6B42
  8
1外形線
 10
177.99313201026669
 20
83.724197580905056
 30
0.0
 11
177.99313201026669
 21
20.72419758090922
 31
0.0
  0
LINE
  5
6B43
  8
1外形線
 10
157.79313201026679
 20
63.31921001879703
 30
0.0
 11
157.79313201026679
 21
20.72419758090922
 31
0.0
  0
LINE
  5
6B44
  8
1外形線
 10
180.2931320102669
 20
85.701569574233531
 30
0.0
 11
180.29313201026679
 21
20.72419758090922
 31
0.0
  0
LINE
  5
6B45
  8
1外形線
 10
180.29313201026679
 20
20.72419758090922
 30
0.0
 11
157.79313201026679
 21
20.72419758090922
 31
0.0
  0
ARC
  5
6B46
  8
1外形線
 10
175.99313201026669
 20
67.224197580909205
 30
0.0
 40
2.0
 50
270.00000000000023
 51
0.0
  0
ARC
  5
6B47
  8
1外形線
 10
179.99313201026681
 20
83.724197580905056
 30
0.0
 40
2.0
 50
90.000000000001023
 51
180.0
  0
ARC
  5
6B48
  8
1外形線
 10
168.79064443268479
 20
45.224197580909163
 30
0.0
 40
20.0
 50
90.0
 51
95.710593137499799
  0
LINE
  5
6B49
  8
1外形線
 10
166.8005700522647
 20
65.124941385108912
 30
0.0
 11
158.6936282912458
 21
64.314247209007064
 31
0.0
  0
ARC
  5
6B4A
  8
1外形線
 10
158.79313201026679
 20
63.31921001879703
 30
0.0
 40
1.0
 50
95.710593137499799
 51
180.0
  0
LINE
  5
6B4B
  8
1外形線
 10
175.99313201026669
 20
65.22419758090922
 30
0.0
 11
168.7906444326847
 21
65.22419758090922
 31
0.0
  0
LINE
  5
6B4C
  8
1外形線
 10
180.29313201026679
 20
85.72419758090507
 30
0.0
 11
179.99313201026681
 21
85.72419758090507
 31
0.0
  0
ARC
  5
6B4D
  8
1外形線
 10
264.42904217443919
 20
41.22419758090922
 30
0.0
 40
22.0
 50
0.0
 51
180.0
  0
LINE
  5
6B4E
  8
1外形線
 10
219.92904217443919
 20
20.72419758090922
 30
0.0
 11
219.92904217443919
 21
41.224197580905177
 31
0.0
  0
LINE
  5
6B4F
  8
1外形線
 10
242.42904217443919
 20
41.22419758090922
 30
0.0
 11
242.4290421744393
 21
20.72419758090922
 31
0.0
  0
LINE
  5
6B50
  8
1外形線
 10
242.4290421744393
 20
20.72419758090922
 30
0.0
 11
219.92904217443919
 21
20.72419758090922
 31
0.0
  0
CIRCLE
  5
6B51
  8
1外形線
 10
229.92904217444041
 20
30.724197580908019
 30
0.0
 40
2.1000000000000001
  0
LINE
  5
6B52
  8
1外形線
 10
286.42904217443919
 20
41.22419758090922
 30
0.0
 11
286.42904217443908
 21
20.72419758090922
 31
0.0
  0
CIRCLE
  5
6B53
  8
1外形線
 10
264.42904217443242
 20
75.72419758090507
 30
0.0
 40
2.1000000000000001
  0
LINE
  5
6B54
  8
1外形線
 10
308.92904217443919
 20
20.724197580909379
 30
0.0
 11
308.9290421744393
 21
41.22419758090512
 31
0.0
  0
CIRCLE
  5
6B55
  8
1外形線
 10
298.9290421744405
 20
30.7241975809095
 30
0.0
 40
2.1000000000000001
  0
ENDSEC
  0
EOF
