  0
SECTION
  2
HEADER
  9
$ACADVER
  1
AC1009
  9
$INSBASE
 10
0.0
 20
0.0
 30
0.0
  9
$EXTMIN
 10
20.44514926073338
 20
-25.750029856048059
 30
-0.0015258207003583
  9
$EXTMAX
 10
615.43703137683963
 20
462.53139940095582
 30
0.0000000349246037
  9
$LIMMIN
 10
0.0
 20
0.0
  9
$LIMMAX
 10
420.0
 20
297.0
  9
$ORTHOMODE
 70
     0
  9
$REGENMODE
 70
     1
  9
$FILLMODE
 70
     1
  9
$QTEXTMODE
 70
     0
  9
$MIRRTEXT
 70
     1
  9
$DRAGMODE
 70
     2
  9
$LTSCALE
 40
1.0
  9
$OSMODE
 70
    37
  9
$ATTMODE
 70
     1
  9
$TEXTSIZE
 40
2.5
  9
$TRACEWID
 40
1.0
  9
$TEXTSTYLE
  7
STANDARD
  9
$CLAYER
  8
0
  9
$CELTYPE
  6
BYLAYER
  9
$CECOLOR
 62
   256
  9
$DIMSCALE
 40
1.0
  9
$DIMASZ
 40
2.5
  9
$DIMEXO
 40
0.625
  9
$DIMDLI
 40
3.75
  9
$DIMRND
 40
0.0
  9
$DIMDLE
 40
0.0
  9
$DIMEXE
 40
1.25
  9
$DIMTP
 40
0.0
  9
$DIMTM
 40
0.0
  9
$DIMTXT
 40
2.5
  9
$DIMCEN
 40
2.5
  9
$DIMTSZ
 40
0.0
  9
$DIMTOL
 70
     0
  9
$DIMLIM
 70
     0
  9
$DIMTIH
 70
     0
  9
$DIMTOH
 70
     0
  9
$DIMSE1
 70
     0
  9
$DIMSE2
 70
     0
  9
$DIMTAD
 70
     1
  9
$DIMZIN
 70
     8
  9
$DIMBLK
  1

  9
$DIMASO
 70
     1
  9
$DIMSHO
 70
     1
  9
$DIMPOST
  1

  9
$DIMAPOST
  1

  9
$DIMALT
 70
     0
  9
$DIMALTD
 70
     3
  9
$DIMALTF
 40
0.03937007874016
  9
$DIMLFAC
 40
1.0
  9
$DIMTOFL
 70
     1
  9
$DIMTVP
 40
0.0
  9
$DIMTIX
 70
     0
  9
$DIMSOXD
 70
     0
  9
$DIMSAH
 70
     0
  9
$DIMBLK1
  1

  9
$DIMBLK2
  1

  9
$DIMSTYLE
  2
ISO-25
  9
$DIMCLRD
 70
     0
  9
$DIMCLRE
 70
     0
  9
$DIMCLRT
 70
     0
  9
$DIMTFAC
 40
1.0
  9
$DIMGAP
 40
0.625
  9
$LUNITS
 70
     2
  9
$LUPREC
 70
     4
  9
$SKETCHINC
 40
1.0
  9
$FILLETRAD
 40
10.0
  9
$AUNITS
 70
     0
  9
$AUPREC
 70
     0
  9
$MENU
  1
.
  9
$ELEVATION
 40
0.0
  9
$PELEVATION
 40
0.0
  9
$THICKNESS
 40
0.0
  9
$LIMCHECK
 70
     0
  9
$BLIPMODE
 70
     0
  9
$CHAMFERA
 40
10.0
  9
$CHAMFERB
 40
10.0
  9
$SKPOLY
 70
     0
  9
$TDCREATE
 40
2452048.587873715
  9
$TDUPDATE
 40
2452048.628876192
  9
$TDINDWG
 40
0.0410047917
  9
$TDUSRTIMER
 40
0.0410047917
  9
$USRTIMER
 70
     1
  9
$ANGBASE
 50
0.0
  9
$ANGDIR
 70
     0
  9
$PDMODE
 70
     0
  9
$PDSIZE
 40
0.0
  9
$PLINEWID
 40
0.0
  9
$COORDS
 70
     1
  9
$SPLFRAME
 70
     0
  9
$SPLINETYPE
 70
     6
  9
$SPLINESEGS
 70
     8
  9
$ATTDIA
 70
     0
  9
$ATTREQ
 70
     1
  9
$HANDLING
 70
-16383
  9
$HANDSEED
  5
6BC6
  9
$SURFTAB1
 70
     6
  9
$SURFTAB2
 70
     6
  9
$SURFTYPE
 70
     6
  9
$SURFU
 70
     6
  9
$SURFV
 70
     6
  9
$UCSNAME
  2

  9
$UCSORG
 10
0.0
 20
0.0
 30
0.0
  9
$UCSXDIR
 10
1.0
 20
0.0
 30
0.0
  9
$UCSYDIR
 10
0.0
 20
1.0
 30
0.0
  9
$PUCSNAME
  2

  9
$PUCSORG
 10
0.0
 20
0.0
 30
0.0
  9
$PUCSXDIR
 10
1.0
 20
0.0
 30
0.0
  9
$PUCSYDIR
 10
0.0
 20
1.0
 30
0.0
  9
$USERI1
 70
     0
  9
$USERI2
 70
     0
  9
$USERI3
 70
     0
  9
$USERI4
 70
     0
  9
$USERI5
 70
     0
  9
$USERR1
 40
0.0
  9
$USERR2
 40
0.0
  9
$USERR3
 40
0.0
  9
$USERR4
 40
0.0
  9
$USERR5
 40
0.0
  9
$WORLDVIEW
 70
     1
  9
$SHADEDGE
 70
     3
  9
$SHADEDIF
 70
    70
  9
$TILEMODE
 70
     1
  9
$MAXACTVP
 70
    64
  9
$PLIMCHECK
 70
     0
  9
$PEXTMIN
 10
1.0000000000000000E+020
 20
1.0000000000000000E+020
 30
1.0000000000000000E+020
  9
$PEXTMAX
 10
-1.0000000000000000E+020
 20
-1.0000000000000000E+020
 30
-1.0000000000000000E+020
  9
$PLIMMIN
 10
0.0
 20
0.0
  9
$PLIMMAX
 10
420.0
 20
297.0
  9
$UNITMODE
 70
     0
  9
$VISRETAIN
 70
     1
  9
$PLINEGEN
 70
     0
  9
$PSLTSCALE
 70
     1
  0
ENDSEC
  0
SECTION
  2
TABLES
  0
TABLE
  2
VPORT
 70
    54
  0
VPORT
  2
*ACTIVE
 70
     0
 10
0.0
 20
0.0
 11
1.0
 21
1.0
 12
243.19809294536361
 22
20.724196922940902
 13
0.0
 23
0.0
 14
10.0
 24
10.0
 15
10.0
 25
10.0
 16
0.0
 26
0.0
 36
1.0
 17
0.0
 27
0.0
 37
0.0
 40
1137.7171551220929
 41
0.8452830188679245
 42
50.0
 43
0.0
 44
0.0
 50
0.0
 51
0.0
 71
     0
 72
   100
 73
     1
 74
     3
 75
     0
 76
     0
 77
     0
 78
     0
  0
ENDTAB
  0
TABLE
  2
LTYPE
 70
     1
  0
LTYPE
  2
CONTINUOUS
 70
     0
  3
Solid line
 72
    65
 73
     0
 40
0.0
  0
ENDTAB
  0
TABLE
  2
LAYER
 70
     3
  0
LAYER
  2
0
 70
     0
 62
     7
  6
CONTINUOUS
  0
LAYER
  2
1外形線
 70
     0
 62
     3
  6
CONTINUOUS
  0
LAYER
  2
4太線
 70
     0
 62
     6
  6
CONTINUOUS
  0
ENDTAB
  0
TABLE
  2
STYLE
 70
     2
  0
STYLE
  2
STANDARD
 70
     0
 40
0.0
 41
1.0
 50
0.0
 71
     0
 42
2.5
  3
txt
  4

  0
STYLE
  2
KANJI
 70
     0
 40
0.0
 41
1.0
 50
0.0
 71
     0
 42
10.0
  3
simplex
  4
bigfont
  0
ENDTAB
  0
TABLE
  2
VIEW
 70
     0
  0
ENDTAB
  0
TABLE
  2
UCS
 70
     0
  0
ENDTAB
  0
TABLE
  2
APPID
 70
     1
  0
APPID
  2
ACAD
 70
     0
  0
ENDTAB
  0
TABLE
  2
DIMSTYLE
 70
     2
  0
DIMSTYLE
  2
ISO-25
 70
     0
  3

  4

  5

  6

  7

 40
1.0
 41
2.5
 42
0.625
 43
3.75
 44
1.25
 45
0.0
 46
0.0
 47
0.0
 48
0.0
140
2.5
141
2.5
142
0.0
143
0.03937007874016
144
1.0
145
0.0
146
1.0
147
0.625
 71
     0
 72
     0
 73
     0
 74
     0
 75
     0
 76
     0
 77
     1
 78
     8
170
     0
171
     3
172
     1
173
     0
174
     0
175
     0
176
     0
177
     0
178
     0
  0
DIMSTYLE
  2
STANDARD
 70
     0
  3

  4

  5

  6
1
  7
1
 40
1.0
 41
1.0
 42
1.0
 43
6.0
 44
1.0
 45
0.0
 46
0.0
 47
0.0
 48
0.0
140
2.5
141
0.0
142
0.0
143
25.399999999999999
144
1.0
145
0.0
146
1.0
147
0.5
 71
     0
 72
     0
 73
     0
 74
     0
 75
     0
 76
     0
 77
     1
 78
     8
170
     0
171
     2
172
     1
173
     1
174
     0
175
     0
176
     0
177
     0
178
     0
  0
ENDTAB
  0
ENDSEC
  0
SECTION
  2
BLOCKS
  0
BLOCK
  8
0
  2
$MODEL_SPACE
 70
     0
 10
0.0
 20
0.0
 30
0.0
  3
$MODEL_SPACE
  1

  0
ENDBLK
  5
21
  8
0
  0
BLOCK
 67
     1
  8
0
  2
$PAPER_SPACE
 70
     0
 10
0.0
 20
0.0
 30
0.0
  3
$PAPER_SPACE
  1

  0
ENDBLK
  5
1D
 67
     1
  8
0
  0
BLOCK
  8
0
  2
1
 70
     0
 10
0.0
 20
0.0
 30
0.0
  3
1
  1

  0
SOLID
  5
2C
  8
0
  6
BYBLOCK
 62
     0
 10
-1.811110924292052
 20
0.4852857095671653
 30
0.0
 11
-1.811110924292052
 21
-0.4852857095673642
 31
0.0
 12
0.0
 22
0.0
 32
0.0
 13
0.0
 23
0.0
 33
0.0
  0
ENDBLK
  5
2E
  8
0
  0
ENDSEC
  0
SECTION
  2
ENTITIES
  0
ARC
  5
6B90
  8
1外形線
 10
266.61048454324299
 20
55.00938473798746
 30
0.0
 40
56.0
 50
0.0
 51
180.0
  0
ARC
  5
6B91
  8
1外形線
 10
266.61048454324299
 20
55.00938473798746
 30
0.0
 40
34.0
 50
0.9459919373400669
 51
179.0540080626599
  0
LINE
  5
6B92
  8
1外形線
 10
117.3707168923881
 20
25.009384737987709
 30
0.0
 11
138.87071689238809
 21
25.009384737987709
 31
0.0
  0
ARC
  5
6B93
  8
1外形線
 10
82.870716892388145
 20
55.00938473798746
 30
0.0
 40
56.0
 50
0.0
 51
180.0
  0
LINE
  5
6B94
  8
1外形線
 10
48.370716892388153
 20
25.009384737987709
 30
0.0
 11
26.870716892388138
 21
25.009384737987709
 31
0.0
  0
LINE
  5
6B95
  8
1外形線
 10
26.870716892388138
 20
55.00938473798746
 30
0.0
 11
26.870716892388138
 21
25.009384737987681
 31
0.0
  0
LINE
  5
6B96
  8
1外形線
 10
119.3709895257111
 20
25.009384737987489
 30
0.0
 11
118.86581016144601
 21
55.603741997403972
 31
0.0
  0
LINE
  5
6B97
  8
1外形線
 10
117.3707168923881
 20
25.009384737987489
 30
0.0
 11
116.8660827576095
 21
55.570722149658991
 31
0.0
  0
LINE
  5
6B98
  8
1外形線
 10
46.370444259065152
 20
25.009384737987709
 30
0.0
 11
46.875623623330171
 21
55.603741997403972
 31
0.0
  0
LINE
  5
6B99
  8
1外形線
 10
48.370716892388153
 20
25.009384737987489
 30
0.0
 11
48.875351027166737
 21
55.570722149658991
 31
0.0
  0
LINE
  5
6B9A
  8
1外形線
 10
48.370716892388153
 20
25.009384737987709
 30
0.0
 11
46.370444259065259
 21
25.009384737987741
 31
0.0
  0
LINE
  5
6B9B
  8
1外形線
 10
119.3709895257111
 20
25.00938473798751
 30
0.0
 11
117.3707168923881
 21
25.009384737987709
 31
0.0
  0
ARC
  5
6B9C
  8
1外形線
 10
82.870716892388145
 20
55.00938473798746
 30
0.0
 40
36.0
 50
0.9459919373392528
 51
179.0540080626607
  0
ARC
  5
6B9D
  8
1外形線
 10
82.870716892388145
 20
55.00938473798746
 30
0.0
 40
34.0
 50
0.9459919373400669
 51
179.0540080626599
  0
LINE
  5
6B9E
  8
1外形線
 10
184.5676593494195
 20
109.0093847379873
 30
0.0
 11
184.56765934941939
 21
25.00938473798773
 31
0.0
  0
LINE
  5
6B9F
  8
1外形線
 10
164.8676593494194
 20
89.104397175875064
 30
0.0
 11
164.8676593494194
 21
25.009384737987709
 31
0.0
  0
LINE
  5
6BA0
  8
1外形線
 10
186.8676593494194
 20
111.0093847379874
 30
0.0
 11
186.8676593494194
 21
25.009384737987709
 31
0.0
  0
LINE
  5
6BA1
  8
1外形線
 10
138.87071689238809
 20
55.009384737987489
 30
0.0
 11
138.87071689238809
 21
25.009384737987709
 31
0.0
  0
LINE
  5
6BA2
  8
1外形線
 10
186.8676593494194
 20
25.009384737987709
 30
0.0
 11
164.8676593494194
 21
25.009384737987709
 31
0.0
  0
ARC
  5
6BA3
  8
1外形線
 10
165.86765934941931
 20
89.104397175875064
 30
0.0
 40
1.0
 50
95.710593137500993
 51
180.0
  0
ARC
  5
6BA4
  8
1外形線
 10
177.3614404054631
 20
41.009384737987482
 30
0.0
 40
50.0
 50
90.0
 51
95.710593137502016
  0
LINE
  5
6BA5
  8
1外形線
 10
172.38625445441099
 20
90.761244248486705
 30
0.0
 11
165.76815563039821
 21
90.09943436608512
 31
0.0
  0
LINE
  5
6BA6
  8
1外形線
 10
182.56765934941939
 20
91.009384737983169
 30
0.0
 11
177.36144040546489
 21
91.009384737983169
 31
0.0
  0
LINE
  5
6BA7
  8
1外形線
 10
182.56765934941939
 20
91.009384737987475
 30
0.0
 11
177.3614404054631
 21
91.009384737987475
 31
0.0
  0
ARC
  5
6BA8
  8
1外形線
 10
182.56765934941939
 20
93.009384737983154
 30
0.0
 40
2.0
 50
270.00000000000023
 51
0.0
  0
LINE
  5
6BA9
  8
1外形線
 10
186.8676593494194
 20
111.0093847379873
 30
0.0
 11
186.56765934941939
 21
111.0093847379873
 31
0.0
  0
ARC
  5
6BAA
  8
1外形線
 10
186.56765934941939
 20
109.0093847379873
 30
0.0
 40
2.0
 50
90.000000000001023
 51
180.0
  0
LINE
  5
6BAB
  8
1外形線
 10
186.56765934941939
 20
111.0093847379874
 30
0.0
 11
186.8676593494194
 21
111.0093847379874
 31
0.0
  0
LINE
  5
6BAC
  8
1外形線
 10
232.11048454324299
 20
25.009384737987489
 30
0.0
 11
232.61511867802159
 21
55.570722149658991
 31
0.0
  0
LINE
  5
6BAD
  8
1外形線
 10
210.61048454324299
 20
55.00938473798746
 30
0.0
 11
210.61048454324299
 21
25.009384737987681
 31
0.0
  0
LINE
  5
6BAE
  8
1外形線
 10
230.61048454324299
 20
97.118291159313586
 30
0.0
 11
230.6104845432431
 21
25.60938473798771
 31
0.0
  0
LINE
  5
6BAF
  8
1外形線
 10
226.94381787657639
 20
93.683866706794248
 30
0.0
 11
226.9438178765765
 21
25.60938473798771
 31
0.0
  0
CIRCLE
  5
6BB0
  8
1外形線
 10
220.61048454324299
 20
35.009384737987709
 30
0.0
 40
2.25
  0
LINE
  5
6BB1
  8
1外形線
 10
232.11048454324299
 20
25.009384737987709
 30
0.0
 11
210.61048454324299
 21
25.009384737987709
 31
0.0
  0
LINE
  5
6BB2
  8
1外形線
 10
232.11048454324299
 20
25.009384737987709
 30
0.0
 11
230.11021190992011
 21
25.009384737987741
 31
0.0
  0
LINE
  5
6BB3
  8
1外形線
 10
230.6104845432431
 20
25.60938473798771
 30
0.0
 11
226.9438178765765
 21
25.60938473798771
 31
0.0
  0
ARC
  5
6BB4
  8
1外形線
 10
266.61048454324299
 20
55.00938473798746
 30
0.0
 40
55.399999999999999
 50
130.5279939215508
 51
135.72560790196309
  0
CIRCLE
  5
6BB5
  8
1外形線
 10
266.61048454324299
 20
101.0093847379874
 30
0.0
 40
2.25
  0
LINE
  5
6BB6
  8
1外形線
 10
322.61048454324299
 20
55.009384737987489
 30
0.0
 11
322.61048454324299
 21
25.009384737987709
 31
0.0
  0
LINE
  5
6BB7
  8
1外形線
 10
301.11048454324299
 20
25.009384737987489
 30
0.0
 11
300.60585040846439
 21
55.570722149658991
 31
0.0
  0
LINE
  5
6BB8
  8
1外形線
 10
306.27715120990968
 20
93.683866706794248
 30
0.0
 11
306.2771512099095
 21
25.60938473798771
 31
0.0
  0
LINE
  5
6BB9
  8
1外形線
 10
302.61048454324299
 20
97.118291159313586
 30
0.0
 11
302.61048454324288
 21
25.60938473798771
 31
0.0
  0
LINE
  5
6BBA
  8
1外形線
 10
301.11048454324299
 20
25.009384737987709
 30
0.0
 11
322.61048454324299
 21
25.009384737987709
 31
0.0
  0
LINE
  5
6BBB
  8
1外形線
 10
303.11075717656598
 20
25.00938473798751
 30
0.0
 11
301.11048454324299
 21
25.009384737987709
 31
0.0
  0
LINE
  5
6BBC
  8
1外形線
 10
302.61048454324288
 20
25.60938473798771
 30
0.0
 11
306.2771512099095
 21
25.60938473798771
 31
0.0
  0
CIRCLE
  5
6BBD
  8
1外形線
 10
312.61048454324299
 20
35.009384737987709
 30
0.0
 40
2.25
  0
ARC
  5
6BBE
  8
1外形線
 10
266.61048454324299
 20
55.00938473798746
 30
0.0
 40
55.399999999999999
 50
44.274392098036898
 51
49.472006078449112
  0
ENDSEC
  0
EOF
