  0
SECTION
  2
HEADER
  9
$ACADVER
  1
AC1009
  9
$INSBASE
 10
0.0
 20
0.0
 30
0.0
  9
$EXTMIN
 10
24.99622914499696
 20
-25.750029856048059
 30
-0.0015258207003583
  9
$EXTMAX
 10
615.43703137683963
 20
408.08463664145091
 30
0.0000000349246037
  9
$LIMMIN
 10
0.0
 20
0.0
  9
$LIMMAX
 10
420.0
 20
297.0
  9
$ORTHOMODE
 70
     0
  9
$REGENMODE
 70
     1
  9
$FILLMODE
 70
     1
  9
$QTEXTMODE
 70
     0
  9
$MIRRTEXT
 70
     1
  9
$DRAGMODE
 70
     2
  9
$LTSCALE
 40
1.0
  9
$OSMODE
 70
    37
  9
$ATTMODE
 70
     1
  9
$TEXTSIZE
 40
2.5
  9
$TRACEWID
 40
1.0
  9
$TEXTSTYLE
  7
STANDARD
  9
$CLAYER
  8
0
  9
$CELTYPE
  6
BYLAYER
  9
$CECOLOR
 62
   256
  9
$DIMSCALE
 40
1.0
  9
$DIMASZ
 40
2.5
  9
$DIMEXO
 40
0.625
  9
$DIMDLI
 40
3.75
  9
$DIMRND
 40
0.0
  9
$DIMDLE
 40
0.0
  9
$DIMEXE
 40
1.25
  9
$DIMTP
 40
0.0
  9
$DIMTM
 40
0.0
  9
$DIMTXT
 40
2.5
  9
$DIMCEN
 40
2.5
  9
$DIMTSZ
 40
0.0
  9
$DIMTOL
 70
     0
  9
$DIMLIM
 70
     0
  9
$DIMTIH
 70
     0
  9
$DIMTOH
 70
     0
  9
$DIMSE1
 70
     0
  9
$DIMSE2
 70
     0
  9
$DIMTAD
 70
     1
  9
$DIMZIN
 70
     8
  9
$DIMBLK
  1

  9
$DIMASO
 70
     1
  9
$DIMSHO
 70
     1
  9
$DIMPOST
  1

  9
$DIMAPOST
  1

  9
$DIMALT
 70
     0
  9
$DIMALTD
 70
     3
  9
$DIMALTF
 40
0.03937007874016
  9
$DIMLFAC
 40
1.0
  9
$DIMTOFL
 70
     1
  9
$DIMTVP
 40
0.0
  9
$DIMTIX
 70
     0
  9
$DIMSOXD
 70
     0
  9
$DIMSAH
 70
     0
  9
$DIMBLK1
  1

  9
$DIMBLK2
  1

  9
$DIMSTYLE
  2
ISO-25
  9
$DIMCLRD
 70
     0
  9
$DIMCLRE
 70
     0
  9
$DIMCLRT
 70
     0
  9
$DIMTFAC
 40
1.0
  9
$DIMGAP
 40
0.625
  9
$LUNITS
 70
     2
  9
$LUPREC
 70
     4
  9
$SKETCHINC
 40
1.0
  9
$FILLETRAD
 40
10.0
  9
$AUNITS
 70
     0
  9
$AUPREC
 70
     0
  9
$MENU
  1
.
  9
$ELEVATION
 40
0.0
  9
$PELEVATION
 40
0.0
  9
$THICKNESS
 40
0.0
  9
$LIMCHECK
 70
     0
  9
$BLIPMODE
 70
     0
  9
$CHAMFERA
 40
10.0
  9
$CHAMFERB
 40
10.0
  9
$SKPOLY
 70
     0
  9
$TDCREATE
 40
2452048.587873715
  9
$TDUPDATE
 40
2452048.6028004969
  9
$TDINDWG
 40
0.0149286458
  9
$TDUSRTIMER
 40
0.0149286458
  9
$USRTIMER
 70
     1
  9
$ANGBASE
 50
0.0
  9
$ANGDIR
 70
     0
  9
$PDMODE
 70
     0
  9
$PDSIZE
 40
0.0
  9
$PLINEWID
 40
0.0
  9
$COORDS
 70
     1
  9
$SPLFRAME
 70
     0
  9
$SPLINETYPE
 70
     6
  9
$SPLINESEGS
 70
     8
  9
$ATTDIA
 70
     0
  9
$ATTREQ
 70
     1
  9
$HANDLING
 70
-16383
  9
$HANDSEED
  5
5104
  9
$SURFTAB1
 70
     6
  9
$SURFTAB2
 70
     6
  9
$SURFTYPE
 70
     6
  9
$SURFU
 70
     6
  9
$SURFV
 70
     6
  9
$UCSNAME
  2

  9
$UCSORG
 10
0.0
 20
0.0
 30
0.0
  9
$UCSXDIR
 10
1.0
 20
0.0
 30
0.0
  9
$UCSYDIR
 10
0.0
 20
1.0
 30
0.0
  9
$PUCSNAME
  2

  9
$PUCSORG
 10
0.0
 20
0.0
 30
0.0
  9
$PUCSXDIR
 10
1.0
 20
0.0
 30
0.0
  9
$PUCSYDIR
 10
0.0
 20
1.0
 30
0.0
  9
$USERI1
 70
     0
  9
$USERI2
 70
     0
  9
$USERI3
 70
     0
  9
$USERI4
 70
     0
  9
$USERI5
 70
     0
  9
$USERR1
 40
0.0
  9
$USERR2
 40
0.0
  9
$USERR3
 40
0.0
  9
$USERR4
 40
0.0
  9
$USERR5
 40
0.0
  9
$WORLDVIEW
 70
     1
  9
$SHADEDGE
 70
     3
  9
$SHADEDIF
 70
    70
  9
$TILEMODE
 70
     1
  9
$MAXACTVP
 70
    64
  9
$PLIMCHECK
 70
     0
  9
$PEXTMIN
 10
1.0000000000000000E+020
 20
1.0000000000000000E+020
 30
1.0000000000000000E+020
  9
$PEXTMAX
 10
-1.0000000000000000E+020
 20
-1.0000000000000000E+020
 30
-1.0000000000000000E+020
  9
$PLIMMIN
 10
0.0
 20
0.0
  9
$PLIMMAX
 10
420.0
 20
297.0
  9
$UNITMODE
 70
     0
  9
$VISRETAIN
 70
     1
  9
$PLINEGEN
 70
     0
  9
$PSLTSCALE
 70
     1
  0
ENDSEC
  0
SECTION
  2
TABLES
  0
TABLE
  2
VPORT
 70
    29
  0
VPORT
  2
*ACTIVE
 70
     0
 10
0.0
 20
0.0
 11
1.0
 21
1.0
 12
243.19809294536361
 22
20.724196922940902
 13
0.0
 23
0.0
 14
10.0
 24
10.0
 15
10.0
 25
10.0
 16
0.0
 26
0.0
 36
1.0
 17
0.0
 27
0.0
 37
0.0
 40
1136.324782680095
 41
0.8452830188679245
 42
50.0
 43
0.0
 44
0.0
 50
0.0
 51
0.0
 71
     0
 72
   100
 73
     1
 74
     3
 75
     0
 76
     0
 77
     0
 78
     0
  0
ENDTAB
  0
TABLE
  2
LTYPE
 70
     1
  0
LTYPE
  2
CONTINUOUS
 70
     0
  3
Solid line
 72
    65
 73
     0
 40
0.0
  0
ENDTAB
  0
TABLE
  2
LAYER
 70
     2
  0
LAYER
  2
0
 70
     0
 62
     7
  6
CONTINUOUS
  0
LAYER
  2
1外形線
 70
     0
 62
     3
  6
CONTINUOUS
  0
ENDTAB
  0
TABLE
  2
STYLE
 70
     2
  0
STYLE
  2
STANDARD
 70
     0
 40
0.0
 41
1.0
 50
0.0
 71
     0
 42
2.5
  3
txt
  4

  0
STYLE
  2
KANJI
 70
     0
 40
0.0
 41
1.0
 50
0.0
 71
     0
 42
10.0
  3
simplex
  4
bigfont
  0
ENDTAB
  0
TABLE
  2
VIEW
 70
     0
  0
ENDTAB
  0
TABLE
  2
UCS
 70
     0
  0
ENDTAB
  0
TABLE
  2
APPID
 70
     1
  0
APPID
  2
ACAD
 70
     0
  0
ENDTAB
  0
TABLE
  2
DIMSTYLE
 70
     2
  0
DIMSTYLE
  2
ISO-25
 70
     0
  3

  4

  5

  6

  7

 40
1.0
 41
2.5
 42
0.625
 43
3.75
 44
1.25
 45
0.0
 46
0.0
 47
0.0
 48
0.0
140
2.5
141
2.5
142
0.0
143
0.03937007874016
144
1.0
145
0.0
146
1.0
147
0.625
 71
     0
 72
     0
 73
     0
 74
     0
 75
     0
 76
     0
 77
     1
 78
     8
170
     0
171
     3
172
     1
173
     0
174
     0
175
     0
176
     0
177
     0
178
     0
  0
DIMSTYLE
  2
STANDARD
 70
     0
  3

  4

  5

  6
1
  7
1
 40
1.0
 41
1.0
 42
1.0
 43
6.0
 44
1.0
 45
0.0
 46
0.0
 47
0.0
 48
0.0
140
2.5
141
0.0
142
0.0
143
25.399999999999999
144
1.0
145
0.0
146
1.0
147
0.5
 71
     0
 72
     0
 73
     0
 74
     0
 75
     0
 76
     0
 77
     1
 78
     8
170
     0
171
     2
172
     1
173
     1
174
     0
175
     0
176
     0
177
     0
178
     0
  0
ENDTAB
  0
ENDSEC
  0
SECTION
  2
BLOCKS
  0
BLOCK
  8
0
  2
$MODEL_SPACE
 70
     0
 10
0.0
 20
0.0
 30
0.0
  3
$MODEL_SPACE
  1

  0
ENDBLK
  5
21
  8
0
  0
BLOCK
 67
     1
  8
0
  2
$PAPER_SPACE
 70
     0
 10
0.0
 20
0.0
 30
0.0
  3
$PAPER_SPACE
  1

  0
ENDBLK
  5
1D
 67
     1
  8
0
  0
BLOCK
  8
0
  2
1
 70
     0
 10
0.0
 20
0.0
 30
0.0
  3
1
  1

  0
SOLID
  5
2C
  8
0
  6
BYBLOCK
 62
     0
 10
-1.811110924292052
 20
0.4852857095671653
 30
0.0
 11
-1.811110924292052
 21
-0.4852857095673642
 31
0.0
 12
0.0
 22
0.0
 32
0.0
 13
0.0
 23
0.0
 33
0.0
  0
ENDBLK
  5
2E
  8
0
  0
ENDSEC
  0
SECTION
  2
ENTITIES
  0
LINE
  5
50AA
  8
1外形線
 10
121.69488623714339
 20
130.9862163362935
 30
0.0
 11
46.689911081979169
 21
130.9862163362933
 31
0.0
  0
LINE
  5
50AB
  8
1外形線
 10
35.692398659561263
 20
92.486216336297844
 30
0.0
 11
132.69239865956141
 21
92.486216336290511
 31
0.0
  0
LINE
  5
50AC
  8
1外形線
 10
35.69239865956137
 20
31.284081462519449
 30
0.0
 11
84.192398659561377
 21
31.284081462519332
 31
0.0
  0
LINE
  5
50AD
  8
1外形線
 10
35.69239865956137
 20
69.284081462518543
 30
0.0
 11
84.192398659561377
 21
69.284081462518316
 31
0.0
  0
LINE
  5
50AE
  8
1外形線
 10
47.188667293189489
 20
71.284081462518543
 30
0.0
 11
84.192398659561377
 21
71.284081462518486
 31
0.0
  0
LINE
  5
50AF
  8
1外形線
 10
47.188667293187898
 20
29.284081462519449
 30
0.0
 11
84.192398659561377
 21
29.284081462519559
 31
0.0
  0
ARC
  5
50B0
  8
1外形線
 10
36.692398659561377
 20
69.37909390040636
 30
0.0
 40
1.0
 50
95.710593137500993
 51
180.0
  0
ARC
  5
50B1
  8
1外形線
 10
36.692398659561377
 20
31.189069024631628
 30
0.0
 40
1.0
 50
180.0
 51
264.28940686249888
  0
ARC
  5
50B2
  8
1外形線
 10
36.69239865956132
 20
58.784081462519389
 30
0.0
 40
1.0
 50
89.999999999999588
 51
180.0
  0
ARC
  5
50B3
  8
1外形線
 10
36.692398659561199
 20
41.784081462519389
 30
0.0
 40
1.0
 50
180.0
 51
269.9999999999996
  0
LINE
  5
50B4
  8
1外形線
 10
35.69239865956137
 20
31.189069024631628
 30
0.0
 11
35.69239865956137
 21
69.37909390040636
 31
0.0
  0
LINE
  5
50B5
  8
1外形線
 10
52.192398659561199
 20
67.984081462519896
 30
0.0
 11
67.192398659561206
 21
67.984081462519782
 31
0.0
  0
LINE
  5
50B6
  8
1外形線
 10
52.192398659560972
 20
32.584081462518839
 30
0.0
 11
67.192398659561036
 21
32.584081462518661
 31
0.0
  0
LINE
  5
50B7
  8
1外形線
 10
50.692398659560979
 20
31.284081462518881
 30
0.0
 11
50.69239865956132
 21
50.284081462519232
 31
0.0
  0
LINE
  5
50B8
  8
1外形線
 10
50.69239865956115
 20
40.784081462518991
 30
0.0
 11
36.692398659561142
 21
40.784081462518941
 31
0.0
  0
LINE
  5
50B9
  8
1外形線
 10
44.203555722557319
 20
29.432965756219801
 30
0.0
 11
36.592894940540297
 21
30.194031834421821
 31
0.0
  0
ARC
  5
50BA
  8
1外形線
 10
47.188667293187898
 20
59.284081462519453
 30
0.0
 40
30.0
 50
264.28940686249888
 51
270.0
  0
LINE
  5
50BB
  8
1外形線
 10
52.192398659560972
 20
31.28408146251882
 30
0.0
 11
52.192398659560972
 21
32.584081462518839
 31
0.0
  0
LINE
  5
50BC
  8
1外形線
 10
50.692398659561263
 20
59.784081462518941
 30
0.0
 11
36.692398659561263
 21
59.784081462518941
 31
0.0
  0
LINE
  5
50BD
  8
1外形線
 10
44.203555722558917
 20
71.135197168818195
 30
0.0
 11
36.592894940540297
 21
70.374131090616402
 31
0.0
  0
ARC
  5
50BE
  8
1外形線
 10
47.188667293189489
 20
41.284081462518543
 30
0.0
 40
30.0
 50
90.0
 51
95.710593137500993
  0
LINE
  5
50BF
  8
1外形線
 10
50.692398659561199
 20
69.284081462519794
 30
0.0
 11
50.69239865956132
 21
50.284081462519232
 31
0.0
  0
LINE
  5
50C0
  8
1外形線
 10
52.192398659561199
 20
69.284081462519794
 30
0.0
 11
52.192398659561199
 21
67.984081462519896
 31
0.0
  0
LINE
  5
50C1
  8
1外形線
 10
67.192398659560965
 20
31.28408146251871
 30
0.0
 11
67.192398659561036
 21
32.584081462518661
 31
0.0
  0
LINE
  5
50C2
  8
1外形線
 10
67.192398659561206
 20
69.284081462519737
 30
0.0
 11
67.192398659561206
 21
67.984081462519782
 31
0.0
  0
ARC
  5
50C3
  8
1外形線
 10
36.692398659561263
 20
129.08122877418111
 30
0.0
 40
1.0
 50
95.710593137499799
 51
180.0
  0
LINE
  5
50C4
  8
1外形線
 10
35.692398659561263
 20
129.08122877418111
 30
0.0
 11
35.692398659561263
 21
92.486216336297844
 31
0.0
  0
LINE
  5
50C5
  8
1外形線
 10
44.699836701559207
 20
130.8869601404929
 30
0.0
 11
36.592894940540297
 21
130.0762659643911
 31
0.0
  0
ARC
  5
50C6
  8
1外形線
 10
46.689911081979282
 20
110.9862163362933
 30
0.0
 40
20.0
 50
90.0
 51
95.710593137499799
  0
LINE
  5
50C7
  8
1外形線
 10
124.18124159656379
 20
71.135197168818195
 30
0.0
 11
131.79190237858239
 21
70.374131090616402
 31
0.0
  0
LINE
  5
50C8
  8
1外形線
 10
124.1812415965654
 20
29.432965756219801
 30
0.0
 11
131.79190237858239
 21
30.194031834421821
 31
0.0
  0
LINE
  5
50C9
  8
1外形線
 10
132.69239865956129
 20
69.284081462518543
 30
0.0
 11
84.192398659561377
 21
69.284081462518316
 31
0.0
  0
LINE
  5
50CA
  8
1外形線
 10
132.69239865956129
 20
31.284081462519449
 30
0.0
 11
84.192398659561377
 21
31.284081462519332
 31
0.0
  0
LINE
  5
50CB
  8
1外形線
 10
117.6923986595615
 20
59.784081462518827
 30
0.0
 11
131.69239865956149
 21
59.784081462518706
 31
0.0
  0
LINE
  5
50CC
  8
1外形線
 10
117.6923986595615
 20
40.784081462518827
 30
0.0
 11
131.69239865956149
 21
40.784081462518706
 31
0.0
  0
LINE
  5
50CD
  8
1外形線
 10
121.1961300259332
 20
71.284081462518543
 30
0.0
 11
84.192398659561377
 21
71.284081462518486
 31
0.0
  0
LINE
  5
50CE
  8
1外形線
 10
121.19613002593481
 20
29.284081462519449
 30
0.0
 11
84.192398659561377
 21
29.284081462519559
 31
0.0
  0
LINE
  5
50CF
  8
1外形線
 10
116.1923986595616
 20
67.984081462519725
 30
0.0
 11
101.1923986595615
 21
67.984081462519725
 31
0.0
  0
LINE
  5
50D0
  8
1外形線
 10
116.1923986595616
 20
32.584081462518661
 30
0.0
 11
101.1923986595616
 21
32.584081462518611
 31
0.0
  0
CIRCLE
  5
50D1
  8
1外形線
 10
84.192398659561377
 20
50.284081462518998
 30
0.0
 40
2.1000000000000001
  0
LINE
  5
50D2
  8
1外形線
 10
101.1923986595616
 20
31.28408146251866
 30
0.0
 11
101.1923986595616
 21
32.584081462518611
 31
0.0
  0
LINE
  5
50D3
  8
1外形線
 10
101.1923986595616
 20
69.284081462519666
 30
0.0
 11
101.1923986595615
 21
67.984081462519725
 31
0.0
  0
LINE
  5
50D4
  8
1外形線
 10
117.6923986595616
 20
31.28408146251871
 30
0.0
 11
117.69239865956141
 21
50.284081462519048
 31
0.0
  0
LINE
  5
50D5
  8
1外形線
 10
116.1923986595616
 20
31.28408146251871
 30
0.0
 11
116.1923986595616
 21
32.584081462518661
 31
0.0
  0
ARC
  5
50D6
  8
1外形線
 10
121.19613002593481
 20
59.284081462519453
 30
0.0
 40
30.0
 50
270.0
 51
275.71059313750101
  0
LINE
  5
50D7
  8
1外形線
 10
117.6923986595616
 20
69.284081462519623
 30
0.0
 11
117.69239865956141
 21
50.284081462519048
 31
0.0
  0
LINE
  5
50D8
  8
1外形線
 10
116.1923986595616
 20
69.284081462519623
 30
0.0
 11
116.1923986595616
 21
67.984081462519725
 31
0.0
  0
ARC
  5
50D9
  8
1外形線
 10
121.1961300259332
 20
41.284081462518543
 30
0.0
 40
30.0
 50
84.289406862499007
 51
90.0
  0
LINE
  5
50DA
  8
1外形線
 10
132.69239865956129
 20
31.189069024631628
 30
0.0
 11
132.69239865956129
 21
69.37909390040636
 31
0.0
  0
ARC
  5
50DB
  8
1外形線
 10
131.69239865956129
 20
31.189069024631628
 30
0.0
 40
1.0
 50
275.71059313750061
 51
0.0
  0
ARC
  5
50DC
  8
1外形線
 10
131.69239865956149
 20
41.784081462519168
 30
0.0
 40
1.0
 50
270.0
 51
0.0
  0
ARC
  5
50DD
  8
1外形線
 10
131.69239865956149
 20
58.784081462519168
 30
0.0
 40
1.0
 50
0.0
 51
90.000000000000398
  0
ARC
  5
50DE
  8
1外形線
 10
131.69239865956129
 20
69.37909390040636
 30
0.0
 40
1.0
 50
0.0
 51
84.289406862499007
  0
ARC
  5
50DF
  8
1外形線
 10
175.4091221710529
 20
109.9862163363058
 30
0.0
 40
21.0
 50
90.0
 51
180.0
  0
ARC
  5
50E0
  8
1外形線
 10
175.4091221710529
 20
109.9862163363058
 30
0.0
 40
19.0
 50
90.0
 51
180.0
  0
LINE
  5
50E1
  8
1外形線
 10
196.4091221710529
 20
92.486216336303684
 30
0.0
 11
154.40912217105279
 21
92.486216336301254
 31
0.0
  0
LINE
  5
50E2
  8
1外形線
 10
184.9091221710533
 20
94.986216336303073
 30
0.0
 11
165.9091221710533
 21
94.986216336303073
 31
0.0
  0
LINE
  5
50E3
  8
1外形線
 10
175.4091221710529
 20
96.986216336303073
 30
0.0
 11
167.4091221710533
 21
96.986216336303073
 31
0.0
  0
LINE
  5
50E4
  8
1外形線
 10
123.6849606175635
 20
130.8869601404929
 30
0.0
 11
131.79190237858239
 21
130.0762659643911
 31
0.0
  0
ARC
  5
50E5
  8
1外形線
 10
121.69488623714339
 20
110.9862163362933
 30
0.0
 40
20.0
 50
84.289406862500215
 51
90.0
  0
LINE
  5
50E6
  8
1外形線
 10
132.69239865956141
 20
129.0812287741854
 30
0.0
 11
132.69239865956141
 21
92.486216336297844
 31
0.0
  0
LINE
  5
50E7
  8
1外形線
 10
132.69239865956141
 20
129.08122877418111
 30
0.0
 11
132.69239865956141
 21
92.486216336297844
 31
0.0
  0
LINE
  5
50E8
  8
1外形線
 10
154.40912217105279
 20
109.9862163363026
 30
0.0
 11
154.40912217105279
 21
92.486216336297844
 31
0.0
  0
LINE
  5
50E9
  8
1外形線
 10
156.40912217105279
 20
109.9862163363026
 30
0.0
 11
156.40912217105279
 21
92.486216336302618
 31
0.0
  0
LINE
  5
50EA
  8
1外形線
 10
159.9091221710529
 20
98.486216336303073
 30
0.0
 11
159.9091221710529
 21
100.7748914708979
 31
0.0
  0
LINE
  5
50EB
  8
1外形線
 10
167.4091221710533
 20
98.486216336303073
 30
0.0
 11
159.9091221710529
 21
98.486216336303073
 31
0.0
  0
LINE
  5
50EC
  8
1外形線
 10
167.4091221710533
 20
98.486216336303016
 30
0.0
 11
167.4091221710533
 21
96.986216336303073
 31
0.0
  0
LINE
  5
50ED
  8
1外形線
 10
165.9091221710533
 20
98.486216336302959
 30
0.0
 11
165.9091221710533
 21
94.986216336303073
 31
0.0
  0
ARC
  5
50EE
  8
1外形線
 10
158.9091221710529
 20
100.7748914708979
 30
0.0
 40
1.0
 50
0.0
 51
120.0000000000004
  0
LINE
  5
50EF
  8
1外形線
 10
156.40912217105279
 20
100.486216336303
 30
0.0
 11
158.40912217105279
 21
101.6409168746823
 31
0.0
  0
ARC
  5
50F0
  8
1外形線
 10
131.69239865956141
 20
129.08122877418111
 30
0.0
 40
1.0
 50
0.0
 51
84.289406862500215
  0
ARC
  5
50F1
  8
1外形線
 10
175.4091221710529
 20
109.9862163363058
 30
0.0
 40
19.0
 50
0.0
 51
90.0
  0
ARC
  5
50F2
  8
1外形線
 10
175.4091221710529
 20
109.9862163363058
 30
0.0
 40
21.0
 50
0.0
 51
90.0
  0
ARC
  5
50F3
  8
1外形線
 10
191.90912217105279
 20
100.7748914708979
 30
0.0
 40
1.0
 50
59.99999999999951
 51
180.0
  0
LINE
  5
50F4
  8
1外形線
 10
190.9091221710529
 20
98.486216336303073
 30
0.0
 11
190.9091221710529
 21
100.7748914708979
 31
0.0
  0
LINE
  5
50F5
  8
1外形線
 10
183.4091221710533
 20
96.986216336303073
 30
0.0
 11
175.4091221710529
 21
96.986216336303073
 31
0.0
  0
LINE
  5
50F6
  8
1外形線
 10
190.9091221710529
 20
98.486216336303073
 30
0.0
 11
183.4091221710533
 21
98.486216336303073
 31
0.0
  0
LINE
  5
50F7
  8
1外形線
 10
184.9091221710533
 20
98.486216336303073
 30
0.0
 11
184.9091221710533
 21
94.986216336303073
 31
0.0
  0
LINE
  5
50F8
  8
1外形線
 10
183.4091221710533
 20
98.486216336303073
 30
0.0
 11
183.4091221710533
 21
96.986216336303073
 31
0.0
  0
LINE
  5
50F9
  8
1外形線
 10
194.4091221710529
 20
109.9862163363026
 30
0.0
 11
194.4091221710529
 21
92.486216336302618
 31
0.0
  0
LINE
  5
50FA
  8
1外形線
 10
196.4091221710529
 20
109.9862163363026
 30
0.0
 11
196.4091221710529
 21
92.486216336298185
 31
0.0
  0
LINE
  5
50FB
  8
1外形線
 10
194.4091221710529
 20
100.486216336303
 30
0.0
 11
192.40912217105279
 21
101.6409168746823
 31
0.0
  0
LINE
  5
50FC
  8
1外形線
 10
194.4091221710529
 20
100.486216336303
 30
0.0
 11
192.40912217105279
 21
101.6409168746823
 31
0.0
  0
ENDSEC
  0
EOF
