  0
SECTION
  2
HEADER
  9
$ACADVER
  1
AC1009
  9
$INSBASE
 10
0.0
 20
0.0
 30
0.0
  9
$EXTMIN
 10
24.99622914499696
 20
-25.750029856048059
 30
-0.0015258207003583
  9
$EXTMAX
 10
615.43703137683963
 20
408.08463664145091
 30
0.0000000349246037
  9
$LIMMIN
 10
0.0
 20
0.0
  9
$LIMMAX
 10
420.0
 20
297.0
  9
$ORTHOMODE
 70
     0
  9
$REGENMODE
 70
     1
  9
$FILLMODE
 70
     1
  9
$QTEXTMODE
 70
     0
  9
$MIRRTEXT
 70
     1
  9
$DRAGMODE
 70
     2
  9
$LTSCALE
 40
1.0
  9
$OSMODE
 70
    37
  9
$ATTMODE
 70
     1
  9
$TEXTSIZE
 40
2.5
  9
$TRACEWID
 40
1.0
  9
$TEXTSTYLE
  7
STANDARD
  9
$CLAYER
  8
0
  9
$CELTYPE
  6
BYLAYER
  9
$CECOLOR
 62
   256
  9
$DIMSCALE
 40
1.0
  9
$DIMASZ
 40
2.5
  9
$DIMEXO
 40
0.625
  9
$DIMDLI
 40
3.75
  9
$DIMRND
 40
0.0
  9
$DIMDLE
 40
0.0
  9
$DIMEXE
 40
1.25
  9
$DIMTP
 40
0.0
  9
$DIMTM
 40
0.0
  9
$DIMTXT
 40
2.5
  9
$DIMCEN
 40
2.5
  9
$DIMTSZ
 40
0.0
  9
$DIMTOL
 70
     0
  9
$DIMLIM
 70
     0
  9
$DIMTIH
 70
     0
  9
$DIMTOH
 70
     0
  9
$DIMSE1
 70
     0
  9
$DIMSE2
 70
     0
  9
$DIMTAD
 70
     1
  9
$DIMZIN
 70
     8
  9
$DIMBLK
  1

  9
$DIMASO
 70
     1
  9
$DIMSHO
 70
     1
  9
$DIMPOST
  1

  9
$DIMAPOST
  1

  9
$DIMALT
 70
     0
  9
$DIMALTD
 70
     3
  9
$DIMALTF
 40
0.03937007874016
  9
$DIMLFAC
 40
1.0
  9
$DIMTOFL
 70
     1
  9
$DIMTVP
 40
0.0
  9
$DIMTIX
 70
     0
  9
$DIMSOXD
 70
     0
  9
$DIMSAH
 70
     0
  9
$DIMBLK1
  1

  9
$DIMBLK2
  1

  9
$DIMSTYLE
  2
ISO-25
  9
$DIMCLRD
 70
     0
  9
$DIMCLRE
 70
     0
  9
$DIMCLRT
 70
     0
  9
$DIMTFAC
 40
1.0
  9
$DIMGAP
 40
0.625
  9
$LUNITS
 70
     2
  9
$LUPREC
 70
     4
  9
$SKETCHINC
 40
1.0
  9
$FILLETRAD
 40
10.0
  9
$AUNITS
 70
     0
  9
$AUPREC
 70
     0
  9
$MENU
  1
.
  9
$ELEVATION
 40
0.0
  9
$PELEVATION
 40
0.0
  9
$THICKNESS
 40
0.0
  9
$LIMCHECK
 70
     0
  9
$BLIPMODE
 70
     0
  9
$CHAMFERA
 40
10.0
  9
$CHAMFERB
 40
10.0
  9
$SKPOLY
 70
     0
  9
$TDCREATE
 40
2452048.587873715
  9
$TDUPDATE
 40
2452048.6029839809
  9
$TDINDWG
 40
0.0151122338
  9
$TDUSRTIMER
 40
0.0151122338
  9
$USRTIMER
 70
     1
  9
$ANGBASE
 50
0.0
  9
$ANGDIR
 70
     0
  9
$PDMODE
 70
     0
  9
$PDSIZE
 40
0.0
  9
$PLINEWID
 40
0.0
  9
$COORDS
 70
     1
  9
$SPLFRAME
 70
     0
  9
$SPLINETYPE
 70
     6
  9
$SPLINESEGS
 70
     8
  9
$ATTDIA
 70
     0
  9
$ATTREQ
 70
     1
  9
$HANDLING
 70
-16383
  9
$HANDSEED
  5
519F
  9
$SURFTAB1
 70
     6
  9
$SURFTAB2
 70
     6
  9
$SURFTYPE
 70
     6
  9
$SURFU
 70
     6
  9
$SURFV
 70
     6
  9
$UCSNAME
  2

  9
$UCSORG
 10
0.0
 20
0.0
 30
0.0
  9
$UCSXDIR
 10
1.0
 20
0.0
 30
0.0
  9
$UCSYDIR
 10
0.0
 20
1.0
 30
0.0
  9
$PUCSNAME
  2

  9
$PUCSORG
 10
0.0
 20
0.0
 30
0.0
  9
$PUCSXDIR
 10
1.0
 20
0.0
 30
0.0
  9
$PUCSYDIR
 10
0.0
 20
1.0
 30
0.0
  9
$USERI1
 70
     0
  9
$USERI2
 70
     0
  9
$USERI3
 70
     0
  9
$USERI4
 70
     0
  9
$USERI5
 70
     0
  9
$USERR1
 40
0.0
  9
$USERR2
 40
0.0
  9
$USERR3
 40
0.0
  9
$USERR4
 40
0.0
  9
$USERR5
 40
0.0
  9
$WORLDVIEW
 70
     1
  9
$SHADEDGE
 70
     3
  9
$SHADEDIF
 70
    70
  9
$TILEMODE
 70
     1
  9
$MAXACTVP
 70
    64
  9
$PLIMCHECK
 70
     0
  9
$PEXTMIN
 10
1.0000000000000000E+020
 20
1.0000000000000000E+020
 30
1.0000000000000000E+020
  9
$PEXTMAX
 10
-1.0000000000000000E+020
 20
-1.0000000000000000E+020
 30
-1.0000000000000000E+020
  9
$PLIMMIN
 10
0.0
 20
0.0
  9
$PLIMMAX
 10
420.0
 20
297.0
  9
$UNITMODE
 70
     0
  9
$VISRETAIN
 70
     1
  9
$PLINEGEN
 70
     0
  9
$PSLTSCALE
 70
     1
  0
ENDSEC
  0
SECTION
  2
TABLES
  0
TABLE
  2
VPORT
 70
    30
  0
VPORT
  2
*ACTIVE
 70
     0
 10
0.0
 20
0.0
 11
1.0
 21
1.0
 12
243.19809294536361
 22
20.724196922940902
 13
0.0
 23
0.0
 14
10.0
 24
10.0
 15
10.0
 25
10.0
 16
0.0
 26
0.0
 36
1.0
 17
0.0
 27
0.0
 37
0.0
 40
1136.324782680095
 41
0.8452830188679245
 42
50.0
 43
0.0
 44
0.0
 50
0.0
 51
0.0
 71
     0
 72
   100
 73
     1
 74
     3
 75
     0
 76
     0
 77
     0
 78
     0
  0
ENDTAB
  0
TABLE
  2
LTYPE
 70
     1
  0
LTYPE
  2
CONTINUOUS
 70
     0
  3
Solid line
 72
    65
 73
     0
 40
0.0
  0
ENDTAB
  0
TABLE
  2
LAYER
 70
     2
  0
LAYER
  2
0
 70
     0
 62
     7
  6
CONTINUOUS
  0
LAYER
  2
1外形線
 70
     0
 62
     3
  6
CONTINUOUS
  0
ENDTAB
  0
TABLE
  2
STYLE
 70
     2
  0
STYLE
  2
STANDARD
 70
     0
 40
0.0
 41
1.0
 50
0.0
 71
     0
 42
2.5
  3
txt
  4

  0
STYLE
  2
KANJI
 70
     0
 40
0.0
 41
1.0
 50
0.0
 71
     0
 42
10.0
  3
simplex
  4
bigfont
  0
ENDTAB
  0
TABLE
  2
VIEW
 70
     0
  0
ENDTAB
  0
TABLE
  2
UCS
 70
     0
  0
ENDTAB
  0
TABLE
  2
APPID
 70
     1
  0
APPID
  2
ACAD
 70
     0
  0
ENDTAB
  0
TABLE
  2
DIMSTYLE
 70
     2
  0
DIMSTYLE
  2
ISO-25
 70
     0
  3

  4

  5

  6

  7

 40
1.0
 41
2.5
 42
0.625
 43
3.75
 44
1.25
 45
0.0
 46
0.0
 47
0.0
 48
0.0
140
2.5
141
2.5
142
0.0
143
0.03937007874016
144
1.0
145
0.0
146
1.0
147
0.625
 71
     0
 72
     0
 73
     0
 74
     0
 75
     0
 76
     0
 77
     1
 78
     8
170
     0
171
     3
172
     1
173
     0
174
     0
175
     0
176
     0
177
     0
178
     0
  0
DIMSTYLE
  2
STANDARD
 70
     0
  3

  4

  5

  6
1
  7
1
 40
1.0
 41
1.0
 42
1.0
 43
6.0
 44
1.0
 45
0.0
 46
0.0
 47
0.0
 48
0.0
140
2.5
141
0.0
142
0.0
143
25.399999999999999
144
1.0
145
0.0
146
1.0
147
0.5
 71
     0
 72
     0
 73
     0
 74
     0
 75
     0
 76
     0
 77
     1
 78
     8
170
     0
171
     2
172
     1
173
     1
174
     0
175
     0
176
     0
177
     0
178
     0
  0
ENDTAB
  0
ENDSEC
  0
SECTION
  2
BLOCKS
  0
BLOCK
  8
0
  2
$MODEL_SPACE
 70
     0
 10
0.0
 20
0.0
 30
0.0
  3
$MODEL_SPACE
  1

  0
ENDBLK
  5
21
  8
0
  0
BLOCK
 67
     1
  8
0
  2
$PAPER_SPACE
 70
     0
 10
0.0
 20
0.0
 30
0.0
  3
$PAPER_SPACE
  1

  0
ENDBLK
  5
1D
 67
     1
  8
0
  0
BLOCK
  8
0
  2
1
 70
     0
 10
0.0
 20
0.0
 30
0.0
  3
1
  1

  0
SOLID
  5
2C
  8
0
  6
BYBLOCK
 62
     0
 10
-1.811110924292052
 20
0.4852857095671653
 30
0.0
 11
-1.811110924292052
 21
-0.4852857095673642
 31
0.0
 12
0.0
 22
0.0
 32
0.0
 13
0.0
 23
0.0
 33
0.0
  0
ENDBLK
  5
2E
  8
0
  0
ENDSEC
  0
SECTION
  2
ENTITIES
  0
LINE
  5
5150
  8
1外形線
 10
35.692398928514187
 20
73.144109794860242
 30
0.0
 11
152.69239892851439
 21
73.144109794860924
 31
0.0
  0
LINE
  5
5151
  8
1外形線
 10
46.689911350935063
 20
75.144109794860753
 30
0.0
 11
141.6948865060937
 21
75.144109794860469
 31
0.0
  0
LINE
  5
5152
  8
1外形線
 10
35.692398928514422
 20
29.144109794860238
 30
0.0
 11
152.69239892851439
 21
29.144109794859101
 31
0.0
  0
LINE
  5
5153
  8
1外形線
 10
46.689911350932327
 20
27.144109794860181
 30
0.0
 11
141.69488650609611
 21
27.144109794859439
 31
0.0
  0
CIRCLE
  5
5154
  8
1外形線
 10
94.192398928514407
 20
51.144109794860178
 30
0.0
 40
2.1000000000000001
  0
LINE
  5
5155
  8
1外形線
 10
50.692398928514422
 20
63.644109794860178
 30
0.0
 11
36.692398928514422
 21
63.644109794860299
 31
0.0
  0
LINE
  5
5156
  8
1外形線
 10
50.692398928514422
 20
38.644109794860178
 30
0.0
 11
36.692398928514422
 21
38.644109794860412
 31
0.0
  0
LINE
  5
5157
  8
1外形線
 10
35.692398928514187
 20
73.239122232747945
 30
0.0
 11
35.692398928514422
 21
29.049097356972421
 31
0.0
  0
LINE
  5
5158
  8
1外形線
 10
44.699836970512017
 20
27.243365990660379
 30
0.0
 11
36.592895209493349
 21
28.05406016676249
 31
0.0
  0
ARC
  5
5159
  8
1外形線
 10
36.692398928514422
 20
29.049097356972421
 30
0.0
 40
1.0
 50
180.0
 51
264.28940686249928
  0
ARC
  5
515A
  8
1外形線
 10
46.689911350932448
 20
47.144109794860178
 30
0.0
 40
20.0
 50
264.28940686249888
 51
269.9999999999996
  0
ARC
  5
515B
  8
1外形線
 10
36.692398928514422
 20
39.644109794859951
 30
0.0
 40
1.0
 50
180.0
 51
270.0
  0
LINE
  5
515C
  8
1外形線
 10
44.699836970514411
 20
75.044853599060446
 30
0.0
 11
36.592895209493122
 21
74.234159422957987
 31
0.0
  0
ARC
  5
515D
  8
1外形線
 10
36.692398928514422
 20
62.644109794859837
 30
0.0
 40
1.0
 50
90.0
 51
180.0
  0
ARC
  5
515E
  8
1外形線
 10
36.692398928514187
 20
73.239122232747945
 30
0.0
 40
1.0
 50
95.710593137501419
 51
180.0
  0
ARC
  5
515F
  8
1外形線
 10
46.689911350935063
 20
55.144109794860761
 30
0.0
 40
20.0
 50
90.0
 51
95.710593137501419
  0
LINE
  5
5160
  8
1外形線
 10
50.692398928514528
 20
73.14410979486064
 30
0.0
 11
50.692398928514031
 21
29.144109794860871
 31
0.0
  0
LINE
  5
5161
  8
1外形線
 10
52.192398928514301
 20
30.44410979485934
 30
0.0
 11
72.192398928514294
 21
30.444109794860701
 31
0.0
  0
LINE
  5
5162
  8
1外形線
 10
52.192398928514301
 20
29.144109794858931
 30
0.0
 11
52.192398928514301
 21
30.44410979485934
 31
0.0
  0
LINE
  5
5163
  8
1外形線
 10
72.192398928514294
 20
30.444109794860701
 30
0.0
 11
72.192398928514294
 21
29.144109794859268
 31
0.0
  0
LINE
  5
5164
  8
1外形線
 10
52.192398928514301
 20
71.844109794860685
 30
0.0
 11
72.192398928514294
 21
71.844109794860685
 31
0.0
  0
LINE
  5
5165
  8
1外形線
 10
52.192398928514301
 20
71.844109794860685
 30
0.0
 11
52.192398928514422
 21
73.144109794861095
 31
0.0
  0
LINE
  5
5166
  8
1外形線
 10
72.192398928514294
 20
71.844109794860799
 30
0.0
 11
72.192398928514422
 21
73.144109794861095
 31
0.0
  0
LINE
  5
5167
  8
1外形線
 10
136.19239892851451
 20
30.44410979485934
 30
0.0
 11
116.19239892851451
 21
30.444109794860701
 31
0.0
  0
LINE
  5
5168
  8
1外形線
 10
116.19239892851451
 20
30.444109794860701
 30
0.0
 11
116.19239892851451
 21
29.144109794859268
 31
0.0
  0
LINE
  5
5169
  8
1外形線
 10
136.19239892851451
 20
29.144109794858931
 30
0.0
 11
136.19239892851451
 21
30.44410979485934
 31
0.0
  0
LINE
  5
516A
  8
1外形線
 10
136.19239892851451
 20
71.844109794860685
 30
0.0
 11
116.19239892851451
 21
71.844109794860685
 31
0.0
  0
LINE
  5
516B
  8
1外形線
 10
116.19239892851451
 20
71.844109794860799
 30
0.0
 11
116.19239892851439
 21
73.144109794861095
 31
0.0
  0
LINE
  5
516C
  8
1外形線
 10
136.19239892851451
 20
71.844109794860685
 30
0.0
 11
136.19239892851439
 21
73.144109794861095
 31
0.0
  0
LINE
  5
516D
  8
1外形線
 10
152.69239892851439
 20
73.239122232748173
 30
0.0
 11
152.69239892851439
 21
29.049097356972648
 31
0.0
  0
LINE
  5
516E
  8
1外形線
 10
137.69239892851479
 20
73.14410979486064
 30
0.0
 11
137.69239892851431
 21
29.144109794859268
 31
0.0
  0
LINE
  5
516F
  8
1外形線
 10
143.68496088651679
 20
27.24336599066055
 30
0.0
 11
151.79190264753549
 21
28.054060166762721
 31
0.0
  0
ARC
  5
5170
  8
1外形線
 10
141.6948865060962
 20
47.144109794860348
 30
0.0
 40
20.0
 50
270.0000000000004
 51
275.71059313750101
  0
ARC
  5
5171
  8
1外形線
 10
151.69239892851439
 20
29.049097356972648
 30
0.0
 40
1.0
 50
275.71059313750061
 51
0.0
  0
LINE
  5
5172
  8
1外形線
 10
137.69239892851439
 20
38.644109794860178
 30
0.0
 11
151.69239892851439
 21
38.644109794860412
 31
0.0
  0
ARC
  5
5173
  8
1外形線
 10
151.69239892851439
 20
39.644109794859951
 30
0.0
 40
1.0
 50
270.0
 51
0.0
  0
LINE
  5
5174
  8
1外形線
 10
143.6849608865142
 20
75.044853599060616
 30
0.0
 11
151.79190264753549
 21
74.234159422958214
 31
0.0
  0
LINE
  5
5175
  8
1外形線
 10
137.69239892851439
 20
63.644109794860178
 30
0.0
 11
151.69239892851439
 21
63.644109794860299
 31
0.0
  0
ARC
  5
5176
  8
1外形線
 10
141.69488650609361
 20
55.144109794860917
 30
0.0
 40
20.0
 50
84.289406862499007
 51
90.000000000000398
  0
ARC
  5
5177
  8
1外形線
 10
151.69239892851439
 20
62.644109794859837
 30
0.0
 40
1.0
 50
0.0
 51
90.0
  0
ARC
  5
5178
  8
1外形線
 10
151.69239892851439
 20
73.239122232748173
 30
0.0
 40
1.0
 50
0.0
 51
84.289406862499007
  0
LINE
  5
5179
  8
1外形線
 10
141.19613029488741
 20
167.60021103083849
 30
0.0
 11
47.188667562141063
 21
167.6002110308383
 31
0.0
  0
LINE
  5
517A
  8
1外形線
 10
152.69239892851439
 20
123.100211030838
 30
0.0
 11
35.692398928514422
 21
123.10021103083869
 31
0.0
  0
LINE
  5
517B
  8
1外形線
 10
35.692398928514422
 20
123.10021103083869
 30
0.0
 11
35.692398928514422
 21
165.69522346873049
 31
0.0
  0
LINE
  5
517C
  8
1外形線
 10
44.20355599151128
 20
167.45132673714241
 30
0.0
 11
36.59289520949357
 21
166.6902606589407
 31
0.0
  0
ARC
  5
517D
  8
1外形線
 10
36.692398928514642
 20
165.6952234687306
 30
0.0
 40
1.0
 50
95.710593137499799
 51
180.0
  0
ARC
  5
517E
  8
1外形線
 10
47.188667562141283
 20
137.60021103084279
 30
0.0
 40
30.0
 50
90.0
 51
95.710593137499799
  0
LINE
  5
517F
  8
1外形線
 10
152.69239892851439
 20
123.10021103083869
 30
0.0
 11
152.69239892851439
 21
165.69522346873049
 31
0.0
  0
LINE
  5
5180
  8
1外形線
 10
144.18124186551751
 20
167.45132673714241
 30
0.0
 11
151.79190264753521
 21
166.6902606589407
 31
0.0
  0
ARC
  5
5181
  8
1外形線
 10
141.1961302948875
 20
137.60021103084279
 30
0.0
 40
30.0
 50
84.289406862500215
 51
90.0
  0
ARC
  5
5182
  8
1外形線
 10
151.69239892851419
 20
165.6952234687306
 30
0.0
 40
1.0
 50
0.0
 51
84.289406862500215
  0
LINE
  5
5183
  8
1外形線
 10
183.61627401959331
 20
123.10021103083859
 30
0.0
 11
231.61627401959331
 21
123.1002110308379
 31
0.0
  0
ARC
  5
5184
  8
1外形線
 10
207.61627401959331
 20
143.60021103083869
 30
0.0
 40
22.0
 50
0.0
 51
180.0
  0
ARC
  5
5185
  8
1外形線
 10
207.61627401959331
 20
143.60021103083869
 30
0.0
 40
24.0
 50
0.0
 51
180.0
  0
ARC
  5
5186
  8
1外形線
 10
227.11627401959379
 20
131.38888616543389
 30
0.0
 40
1.0
 50
60.000000000000419
 51
180.0
  0
LINE
  5
5187
  8
1外形線
 10
220.1162740195943
 20
125.6002110308381
 30
0.0
 11
195.1162740195935
 21
125.6002110308381
 31
0.0
  0
LINE
  5
5188
  8
1外形線
 10
218.6162740195943
 20
128.1002110308381
 30
0.0
 11
196.6162740195935
 21
128.1002110308381
 31
0.0
  0
LINE
  5
5189
  8
1外形線
 10
183.61627401959331
 20
123.1002110308392
 30
0.0
 11
183.61627401959331
 21
143.60021103083869
 31
0.0
  0
LINE
  5
518A
  8
1外形線
 10
185.61627401959331
 20
143.60021103083869
 30
0.0
 11
185.61627401959331
 21
123.10021103083869
 31
0.0
  0
LINE
  5
518B
  8
1外形線
 10
196.6162740195935
 20
129.10021103083801
 30
0.0
 11
189.11627401959291
 21
129.10021103083801
 31
0.0
  0
ARC
  5
518C
  8
1外形線
 10
188.11627401959291
 20
131.38888616543389
 30
0.0
 40
1.0
 50
0.0
 51
119.9999999999995
  0
LINE
  5
518D
  8
1外形線
 10
185.61627401959279
 20
131.1002110308381
 30
0.0
 11
187.61627401959291
 21
132.25491156921731
 31
0.0
  0
LINE
  5
518E
  8
1外形線
 10
189.11627401959291
 20
129.10021103083801
 30
0.0
 11
189.11627401959291
 21
131.38888616543389
 31
0.0
  0
LINE
  5
518F
  8
1外形線
 10
195.1162740195935
 20
129.1002110308381
 30
0.0
 11
195.1162740195935
 21
125.6002110308381
 31
0.0
  0
LINE
  5
5190
  8
1外形線
 10
196.6162740195935
 20
129.1002110308381
 30
0.0
 11
196.6162740195935
 21
128.1002110308381
 31
0.0
  0
LINE
  5
5191
  8
1外形線
 10
226.11627401959379
 20
129.1002110308381
 30
0.0
 11
218.6162740195943
 21
129.10021103083801
 31
0.0
  0
LINE
  5
5192
  8
1外形線
 10
220.1162740195943
 20
129.1002110308381
 30
0.0
 11
220.1162740195943
 21
125.6002110308381
 31
0.0
  0
LINE
  5
5193
  8
1外形線
 10
218.6162740195943
 20
129.10021103083801
 30
0.0
 11
218.6162740195943
 21
128.1002110308381
 31
0.0
  0
LINE
  5
5194
  8
1外形線
 10
226.11627401959379
 20
129.1002110308381
 30
0.0
 11
226.11627401959379
 21
131.38888616543389
 31
0.0
  0
LINE
  5
5195
  8
1外形線
 10
231.61627401959331
 20
123.10021103083891
 30
0.0
 11
231.61627401959331
 21
143.60021103083869
 31
0.0
  0
LINE
  5
5196
  8
1外形線
 10
229.61627401959331
 20
143.60021103083869
 30
0.0
 11
229.61627401959311
 21
123.10021103083869
 31
0.0
  0
LINE
  5
5197
  8
1外形線
 10
229.61627401959379
 20
131.1002110308381
 30
0.0
 11
227.61627401959379
 21
132.25491156921731
 31
0.0
  0
ENDSEC
  0
EOF
