  0
SECTION
  2
HEADER
  9
$ACADVER
  1
AC1009
  9
$INSBASE
 10
0.0
 20
0.0
 30
0.0
  9
$EXTMIN
 10
24.99622914499696
 20
-25.750029856048059
 30
-0.0015258207003583
  9
$EXTMAX
 10
615.43703137683963
 20
408.08463664145091
 30
0.0000000349246037
  9
$LIMMIN
 10
0.0
 20
0.0
  9
$LIMMAX
 10
420.0
 20
297.0
  9
$ORTHOMODE
 70
     0
  9
$REGENMODE
 70
     1
  9
$FILLMODE
 70
     1
  9
$QTEXTMODE
 70
     0
  9
$MIRRTEXT
 70
     1
  9
$DRAGMODE
 70
     2
  9
$LTSCALE
 40
1.0
  9
$OSMODE
 70
    37
  9
$ATTMODE
 70
     1
  9
$TEXTSIZE
 40
2.5
  9
$TRACEWID
 40
1.0
  9
$TEXTSTYLE
  7
STANDARD
  9
$CLAYER
  8
0
  9
$CELTYPE
  6
BYLAYER
  9
$CECOLOR
 62
   256
  9
$DIMSCALE
 40
1.0
  9
$DIMASZ
 40
2.5
  9
$DIMEXO
 40
0.625
  9
$DIMDLI
 40
3.75
  9
$DIMRND
 40
0.0
  9
$DIMDLE
 40
0.0
  9
$DIMEXE
 40
1.25
  9
$DIMTP
 40
0.0
  9
$DIMTM
 40
0.0
  9
$DIMTXT
 40
2.5
  9
$DIMCEN
 40
2.5
  9
$DIMTSZ
 40
0.0
  9
$DIMTOL
 70
     0
  9
$DIMLIM
 70
     0
  9
$DIMTIH
 70
     0
  9
$DIMTOH
 70
     0
  9
$DIMSE1
 70
     0
  9
$DIMSE2
 70
     0
  9
$DIMTAD
 70
     1
  9
$DIMZIN
 70
     8
  9
$DIMBLK
  1

  9
$DIMASO
 70
     1
  9
$DIMSHO
 70
     1
  9
$DIMPOST
  1

  9
$DIMAPOST
  1

  9
$DIMALT
 70
     0
  9
$DIMALTD
 70
     3
  9
$DIMALTF
 40
0.03937007874016
  9
$DIMLFAC
 40
1.0
  9
$DIMTOFL
 70
     1
  9
$DIMTVP
 40
0.0
  9
$DIMTIX
 70
     0
  9
$DIMSOXD
 70
     0
  9
$DIMSAH
 70
     0
  9
$DIMBLK1
  1

  9
$DIMBLK2
  1

  9
$DIMSTYLE
  2
ISO-25
  9
$DIMCLRD
 70
     0
  9
$DIMCLRE
 70
     0
  9
$DIMCLRT
 70
     0
  9
$DIMTFAC
 40
1.0
  9
$DIMGAP
 40
0.625
  9
$LUNITS
 70
     2
  9
$LUPREC
 70
     4
  9
$SKETCHINC
 40
1.0
  9
$FILLETRAD
 40
10.0
  9
$AUNITS
 70
     0
  9
$AUPREC
 70
     0
  9
$MENU
  1
.
  9
$ELEVATION
 40
0.0
  9
$PELEVATION
 40
0.0
  9
$THICKNESS
 40
0.0
  9
$LIMCHECK
 70
     0
  9
$BLIPMODE
 70
     0
  9
$CHAMFERA
 40
10.0
  9
$CHAMFERB
 40
10.0
  9
$SKPOLY
 70
     0
  9
$TDCREATE
 40
2452048.587873715
  9
$TDUPDATE
 40
2452048.6031885529
  9
$TDINDWG
 40
0.0153167014
  9
$TDUSRTIMER
 40
0.0153167014
  9
$USRTIMER
 70
     1
  9
$ANGBASE
 50
0.0
  9
$ANGDIR
 70
     0
  9
$PDMODE
 70
     0
  9
$PDSIZE
 40
0.0
  9
$PLINEWID
 40
0.0
  9
$COORDS
 70
     1
  9
$SPLFRAME
 70
     0
  9
$SPLINETYPE
 70
     6
  9
$SPLINESEGS
 70
     8
  9
$ATTDIA
 70
     0
  9
$ATTREQ
 70
     1
  9
$HANDLING
 70
-16383
  9
$HANDSEED
  5
523E
  9
$SURFTAB1
 70
     6
  9
$SURFTAB2
 70
     6
  9
$SURFTYPE
 70
     6
  9
$SURFU
 70
     6
  9
$SURFV
 70
     6
  9
$UCSNAME
  2

  9
$UCSORG
 10
0.0
 20
0.0
 30
0.0
  9
$UCSXDIR
 10
1.0
 20
0.0
 30
0.0
  9
$UCSYDIR
 10
0.0
 20
1.0
 30
0.0
  9
$PUCSNAME
  2

  9
$PUCSORG
 10
0.0
 20
0.0
 30
0.0
  9
$PUCSXDIR
 10
1.0
 20
0.0
 30
0.0
  9
$PUCSYDIR
 10
0.0
 20
1.0
 30
0.0
  9
$USERI1
 70
     0
  9
$USERI2
 70
     0
  9
$USERI3
 70
     0
  9
$USERI4
 70
     0
  9
$USERI5
 70
     0
  9
$USERR1
 40
0.0
  9
$USERR2
 40
0.0
  9
$USERR3
 40
0.0
  9
$USERR4
 40
0.0
  9
$USERR5
 40
0.0
  9
$WORLDVIEW
 70
     1
  9
$SHADEDGE
 70
     3
  9
$SHADEDIF
 70
    70
  9
$TILEMODE
 70
     1
  9
$MAXACTVP
 70
    64
  9
$PLIMCHECK
 70
     0
  9
$PEXTMIN
 10
1.0000000000000000E+020
 20
1.0000000000000000E+020
 30
1.0000000000000000E+020
  9
$PEXTMAX
 10
-1.0000000000000000E+020
 20
-1.0000000000000000E+020
 30
-1.0000000000000000E+020
  9
$PLIMMIN
 10
0.0
 20
0.0
  9
$PLIMMAX
 10
420.0
 20
297.0
  9
$UNITMODE
 70
     0
  9
$VISRETAIN
 70
     1
  9
$PLINEGEN
 70
     0
  9
$PSLTSCALE
 70
     1
  0
ENDSEC
  0
SECTION
  2
TABLES
  0
TABLE
  2
VPORT
 70
    31
  0
VPORT
  2
*ACTIVE
 70
     0
 10
0.0
 20
0.0
 11
1.0
 21
1.0
 12
243.19809294536361
 22
20.724196922940902
 13
0.0
 23
0.0
 14
10.0
 24
10.0
 15
10.0
 25
10.0
 16
0.0
 26
0.0
 36
1.0
 17
0.0
 27
0.0
 37
0.0
 40
1136.324782680095
 41
0.8452830188679245
 42
50.0
 43
0.0
 44
0.0
 50
0.0
 51
0.0
 71
     0
 72
   100
 73
     1
 74
     3
 75
     0
 76
     0
 77
     0
 78
     0
  0
ENDTAB
  0
TABLE
  2
LTYPE
 70
     1
  0
LTYPE
  2
CONTINUOUS
 70
     0
  3
Solid line
 72
    65
 73
     0
 40
0.0
  0
ENDTAB
  0
TABLE
  2
LAYER
 70
     2
  0
LAYER
  2
0
 70
     0
 62
     7
  6
CONTINUOUS
  0
LAYER
  2
1外形線
 70
     0
 62
     3
  6
CONTINUOUS
  0
ENDTAB
  0
TABLE
  2
STYLE
 70
     2
  0
STYLE
  2
STANDARD
 70
     0
 40
0.0
 41
1.0
 50
0.0
 71
     0
 42
2.5
  3
txt
  4

  0
STYLE
  2
KANJI
 70
     0
 40
0.0
 41
1.0
 50
0.0
 71
     0
 42
10.0
  3
simplex
  4
bigfont
  0
ENDTAB
  0
TABLE
  2
VIEW
 70
     0
  0
ENDTAB
  0
TABLE
  2
UCS
 70
     0
  0
ENDTAB
  0
TABLE
  2
APPID
 70
     1
  0
APPID
  2
ACAD
 70
     0
  0
ENDTAB
  0
TABLE
  2
DIMSTYLE
 70
     2
  0
DIMSTYLE
  2
ISO-25
 70
     0
  3

  4

  5

  6

  7

 40
1.0
 41
2.5
 42
0.625
 43
3.75
 44
1.25
 45
0.0
 46
0.0
 47
0.0
 48
0.0
140
2.5
141
2.5
142
0.0
143
0.03937007874016
144
1.0
145
0.0
146
1.0
147
0.625
 71
     0
 72
     0
 73
     0
 74
     0
 75
     0
 76
     0
 77
     1
 78
     8
170
     0
171
     3
172
     1
173
     0
174
     0
175
     0
176
     0
177
     0
178
     0
  0
DIMSTYLE
  2
STANDARD
 70
     0
  3

  4

  5

  6
1
  7
1
 40
1.0
 41
1.0
 42
1.0
 43
6.0
 44
1.0
 45
0.0
 46
0.0
 47
0.0
 48
0.0
140
2.5
141
0.0
142
0.0
143
25.399999999999999
144
1.0
145
0.0
146
1.0
147
0.5
 71
     0
 72
     0
 73
     0
 74
     0
 75
     0
 76
     0
 77
     1
 78
     8
170
     0
171
     2
172
     1
173
     1
174
     0
175
     0
176
     0
177
     0
178
     0
  0
ENDTAB
  0
ENDSEC
  0
SECTION
  2
BLOCKS
  0
BLOCK
  8
0
  2
$MODEL_SPACE
 70
     0
 10
0.0
 20
0.0
 30
0.0
  3
$MODEL_SPACE
  1

  0
ENDBLK
  5
21
  8
0
  0
BLOCK
 67
     1
  8
0
  2
$PAPER_SPACE
 70
     0
 10
0.0
 20
0.0
 30
0.0
  3
$PAPER_SPACE
  1

  0
ENDBLK
  5
1D
 67
     1
  8
0
  0
BLOCK
  8
0
  2
1
 70
     0
 10
0.0
 20
0.0
 30
0.0
  3
1
  1

  0
SOLID
  5
2C
  8
0
  6
BYBLOCK
 62
     0
 10
-1.811110924292052
 20
0.4852857095671653
 30
0.0
 11
-1.811110924292052
 21
-0.4852857095673642
 31
0.0
 12
0.0
 22
0.0
 32
0.0
 13
0.0
 23
0.0
 33
0.0
  0
ENDBLK
  5
2E
  8
0
  0
ENDSEC
  0
SECTION
  2
ENTITIES
  0
LINE
  5
51ED
  8
1外形線
 10
79.392399002766865
 20
27.16444168929695
 30
0.0
 11
51.992399002766938
 21
27.164441689296659
 31
0.0
  0
LINE
  5
51EE
  8
1外形線
 10
79.392399002766865
 20
91.564441689298917
 30
0.0
 11
51.992399002766938
 21
91.564441689299144
 31
0.0
  0
LINE
  5
51EF
  8
1外形線
 10
83.198617946723175
 20
184.23301452529429
 30
0.0
 11
48.186180058811033
 21
184.23301452529429
 31
0.0
  0
LINE
  5
51F0
  8
1外形線
 10
95.692399002767502
 20
118.23301452529449
 30
0.0
 11
35.692399002767381
 21
118.23301452529449
 31
0.0
  0
LINE
  5
51F1
  8
1外形線
 10
80.704836890678607
 20
95.864714322620699
 30
0.0
 11
50.679961114856383
 21
95.864714322620699
 31
0.0
  0
LINE
  5
51F2
  8
1外形線
 10
35.692399002767502
 20
93.864441689297976
 30
0.0
 11
95.692399002767047
 21
93.864441689297976
 31
0.0
  0
LINE
  5
51F3
  8
1外形線
 10
35.692399002767381
 20
24.864441689297959
 30
0.0
 11
95.692399002767047
 21
24.864441689297959
 31
0.0
  0
LINE
  5
51F4
  8
1外形線
 10
80.704836890678607
 20
22.86416905597525
 30
0.0
 11
50.679961114856383
 21
22.86416905597525
 31
0.0
  0
LINE
  5
51F5
  8
1外形線
 10
35.692399002767267
 20
182.32802696318191
 30
0.0
 11
35.692399002767381
 21
118.23301452529449
 31
0.0
  0
LINE
  5
51F6
  8
1外形線
 10
40.729589212756203
 20
23.360450034976338
 30
0.0
 11
36.59289528374677
 21
23.774119427877281
 31
0.0
  0
ARC
  5
51F7
  8
1外形線
 10
50.679961114856383
 20
122.8641690559752
 30
0.0
 40
100.0
 50
264.28940686250007
 51
270.0
  0
LINE
  5
51F8
  8
1外形線
 10
50.692399002766933
 20
93.76444168929811
 30
0.0
 11
50.692399002766358
 21
24.964441689297701
 31
0.0
  0
LINE
  5
51F9
  8
1外形線
 10
35.692399002767502
 20
93.95972676050863
 30
0.0
 11
35.692399002767381
 21
24.769156618087319
 31
0.0
  0
LINE
  5
51FA
  8
1外形線
 10
50.69239900276682
 20
38.364441689298303
 30
0.0
 11
36.692399002766933
 21
38.364441689298189
 31
0.0
  0
ARC
  5
51FB
  8
1外形線
 10
36.692399002767949
 20
24.769156618087319
 30
0.0
 40
1.0
 50
180.0
 51
264.28940686249888
  0
ARC
  5
51FC
  8
1外形線
 10
36.692399002766933
 20
39.364441689298637
 30
0.0
 40
1.0
 50
180.0
 51
270.0
  0
ARC
  5
51FD
  8
1外形線
 10
63.29239900276729
 20
39.364441689300911
 30
0.0
 40
2.0999999999999992
 50
90.0
 51
270.0
  0
LINE
  5
51FE
  8
1外形線
 10
51.992399002766938
 20
24.96444168929775
 30
0.0
 11
51.992399002766938
 21
27.164441689296659
 31
0.0
  0
LINE
  5
51FF
  8
1外形線
 10
63.29239900276729
 20
37.264441689300888
 30
0.0
 11
68.092399002767252
 21
37.264441689300781
 31
0.0
  0
LINE
  5
5200
  8
1外形線
 10
63.29239900276729
 20
41.464441689300827
 30
0.0
 11
68.092399002767252
 21
41.464441689300827
 31
0.0
  0
ARC
  5
5201
  8
1外形線
 10
68.092399002767252
 20
39.364441689300911
 30
0.0
 40
2.0999999999999992
 50
270.0
 51
90.0
  0
CIRCLE
  5
5202
  8
1外形線
 10
65.692399002767274
 20
59.364441689297962
 30
0.0
 40
2.1000000000000001
  0
LINE
  5
5203
  8
1外形線
 10
50.69239900276682
 20
80.364441689297564
 30
0.0
 11
36.692399002766933
 21
80.364441689297664
 31
0.0
  0
LINE
  5
5204
  8
1外形線
 10
40.729589212756203
 20
95.368433343619557
 30
0.0
 11
36.59289528374677
 21
94.954763950718657
 31
0.0
  0
ARC
  5
5205
  8
1外形線
 10
36.692399002766933
 20
79.364441689297223
 30
0.0
 40
1.0
 50
90.0
 51
180.0
  0
ARC
  5
5206
  8
1外形線
 10
36.692399002767949
 20
93.95972676050863
 30
0.0
 40
1.0
 50
95.710593137500993
 51
180.0
  0
ARC
  5
5207
  8
1外形線
 10
50.679961114856383
 20
-4.1352856773793292
 30
0.0
 40
100.0
 50
90.0
 51
95.710593137499799
  0
ARC
  5
5208
  8
1外形線
 10
63.29239900276729
 20
79.364441689297962
 30
0.0
 40
2.0999999999999992
 50
90.0
 51
270.0
  0
LINE
  5
5209
  8
1外形線
 10
51.992399002766938
 20
93.76444168929811
 30
0.0
 11
51.992399002766938
 21
91.564441689299144
 31
0.0
  0
LINE
  5
520A
  8
1外形線
 10
68.092399002767252
 20
77.264441689297939
 30
0.0
 11
63.29239900276729
 21
77.264441689297826
 31
0.0
  0
LINE
  5
520B
  8
1外形線
 10
68.092399002767252
 20
81.464441689297885
 30
0.0
 11
63.29239900276729
 21
81.464441689297885
 31
0.0
  0
ARC
  5
520C
  8
1外形線
 10
68.092399002767252
 20
79.364441689297962
 30
0.0
 40
2.0999999999999992
 50
270.0
 51
90.0
  0
LINE
  5
520D
  8
1外形線
 10
43.210994107758999
 20
183.9848740357935
 30
0.0
 11
36.592895283746202
 21
183.3230641533919
 31
0.0
  0
ARC
  5
520E
  8
1外形線
 10
36.692399002767267
 20
182.32802696318191
 30
0.0
 40
1.0
 50
95.710593137500993
 51
180.0
  0
ARC
  5
520F
  8
1外形線
 10
48.186180058811033
 20
134.23301452529429
 30
0.0
 40
50.0
 50
90.0
 51
95.710593137502244
  0
LINE
  5
5210
  8
1外形線
 10
196.44168703134531
 20
126.1167195572481
 30
0.0
 11
194.33688013491121
 21
127.5580944791069
 31
0.0
  0
LINE
  5
5211
  8
1外形線
 10
192.7718641441484
 20
124.2330145252936
 30
0.0
 11
192.7718641441484
 21
126.73301452529491
 31
0.0
  0
LINE
  5
5212
  8
1外形線
 10
127.7020412569513
 20
126.116719557248
 30
0.0
 11
129.8068481533854
 21
127.5580944791069
 31
0.0
  0
LINE
  5
5213
  8
1外形線
 10
131.3718641441483
 20
124.2330145252936
 30
0.0
 11
131.3718641441483
 21
126.73301452529491
 31
0.0
  0
LINE
  5
5214
  8
1外形線
 10
196.57186414414841
 20
118.23301452529429
 30
0.0
 11
196.06723000936981
 21
148.7943519369658
 31
0.0
  0
LINE
  5
5215
  8
1外形線
 10
198.5721367774714
 20
118.23301452529429
 30
0.0
 11
198.0669574132063
 21
148.82737178471081
 31
0.0
  0
LINE
  5
5216
  8
1外形線
 10
95.692399002767502
 20
182.32802696318191
 30
0.0
 11
95.692399002767502
 21
118.23301452529449
 31
0.0
  0
LINE
  5
5217
  8
1外形線
 10
127.57186414414841
 20
118.23301452529429
 30
0.0
 11
128.07649827892701
 21
148.7943519369658
 31
0.0
  0
LINE
  5
5218
  8
1外形線
 10
125.5715915108254
 20
118.23301452529449
 30
0.0
 11
126.0767708750904
 21
148.82737178471081
 31
0.0
  0
LINE
  5
5219
  8
1外形線
 10
181.5718641441488
 20
122.7330145252938
 30
0.0
 11
142.5718641441548
 21
122.7330145252936
 31
0.0
  0
LINE
  5
521A
  8
1外形線
 10
183.0718641441488
 20
120.7330145252936
 30
0.0
 11
141.0718641441548
 21
120.7330145252937
 31
0.0
  0
LINE
  5
521B
  8
1外形線
 10
198.5721367774714
 20
118.2330145252935
 30
0.0
 11
125.5715915108255
 21
118.23301452529449
 31
0.0
  0
LINE
  5
521C
  8
1外形線
 10
90.655208792778808
 20
23.360450034976338
 30
0.0
 11
94.791902721788233
 21
23.774119427877281
 31
0.0
  0
ARC
  5
521D
  8
1外形線
 10
80.704836890678607
 20
122.8641690559752
 30
0.0
 40
100.0
 50
270.0
 51
275.7105931374997
  0
LINE
  5
521E
  8
1外形線
 10
80.692399002766933
 20
93.76444168929811
 30
0.0
 11
80.692399002767502
 21
24.964441689297701
 31
0.0
  0
LINE
  5
521F
  8
1外形線
 10
95.692399002767502
 20
24.769156618087319
 30
0.0
 11
95.692399002767047
 21
93.95972676050863
 31
0.0
  0
ARC
  5
5220
  8
1外形線
 10
94.692399002766933
 20
39.364441689298701
 30
0.0
 40
1.0
 50
270.0
 51
0.0
  0
ARC
  5
5221
  8
1外形線
 10
94.692399002767047
 20
24.769156618087319
 30
0.0
 40
1.0
 50
275.71059313750101
 51
0.0
  0
LINE
  5
5222
  8
1外形線
 10
80.692399002767047
 20
38.364441689298353
 30
0.0
 11
94.692399002767047
 21
38.364441689298239
 31
0.0
  0
LINE
  5
5223
  8
1外形線
 10
79.392399002766865
 20
24.96444168929775
 30
0.0
 11
79.392399002766865
 21
27.16444168929695
 31
0.0
  0
ARC
  5
5224
  8
1外形線
 10
94.692399002766933
 20
79.364441689297223
 30
0.0
 40
1.0
 50
0.0
 51
90.0
  0
ARC
  5
5225
  8
1外形線
 10
94.692399002767047
 20
93.95972676050863
 30
0.0
 40
1.0
 50
0.0
 51
84.289406862499007
  0
LINE
  5
5226
  8
1外形線
 10
80.692399002767047
 20
80.364441689297564
 30
0.0
 11
94.692399002766933
 21
80.364441689297664
 31
0.0
  0
ARC
  5
5227
  8
1外形線
 10
80.704836890678607
 20
-4.1352856773793292
 30
0.0
 40
100.0
 50
84.289406862500215
 51
90.0
  0
LINE
  5
5228
  8
1外形線
 10
79.392399002766865
 20
93.76444168929811
 30
0.0
 11
79.392399002766865
 21
91.564441689298846
 31
0.0
  0
LINE
  5
5229
  8
1外形線
 10
90.655208792778808
 20
95.368433343619557
 30
0.0
 11
94.791902721788233
 21
94.954763950718657
 31
0.0
  0
LINE
  5
522A
  8
1外形線
 10
142.5718641441548
 20
124.2330145252936
 30
0.0
 11
131.3718641441483
 21
124.2330145252937
 31
0.0
  0
LINE
  5
522B
  8
1外形線
 10
141.0718641441548
 20
124.2330145252936
 30
0.0
 11
141.0718641441548
 21
120.7330145252936
 31
0.0
  0
LINE
  5
522C
  8
1外形線
 10
142.5718641441548
 20
124.2330145252935
 30
0.0
 11
142.5718641441548
 21
122.7330145252936
 31
0.0
  0
LINE
  5
522D
  8
1外形線
 10
192.7718641441482
 20
124.2330145252936
 30
0.0
 11
181.5718641441488
 21
124.2330145252935
 31
0.0
  0
LINE
  5
522E
  8
1外形線
 10
183.0718641441488
 20
124.2330145252937
 30
0.0
 11
183.0718641441488
 21
120.7330145252937
 31
0.0
  0
LINE
  5
522F
  8
1外形線
 10
181.5718641441488
 20
124.2330145252936
 30
0.0
 11
181.5718641441488
 21
122.7330145252938
 31
0.0
  0
ARC
  5
5230
  8
1外形線
 10
162.07186414414841
 20
148.23301452529421
 30
0.0
 40
34.0
 50
0.9459919373400703
 51
179.0540080626599
  0
ARC
  5
5231
  8
1外形線
 10
162.07186414414841
 20
148.23301452529421
 30
0.0
 40
36.0
 50
0.945991937339256
 51
179.0540080626607
  0
ARC
  5
5232
  8
1外形線
 10
94.692399002767274
 20
182.32802696318191
 30
0.0
 40
1.0
 50
0.0
 51
84.289406862499007
  0
ARC
  5
5233
  8
1外形線
 10
83.198617946723175
 20
134.23301452529429
 30
0.0
 40
50.0
 50
84.289406862498183
 51
90.0
  0
LINE
  5
5234
  8
1外形線
 10
88.173803897775201
 20
183.9848740357935
 30
0.0
 11
94.791902721788347
 21
183.3230641533919
 31
0.0
  0
ARC
  5
5235
  8
1外形線
 10
130.3718641441483
 20
126.73301452529491
 30
0.0
 40
1.0
 50
0.0
 51
124.4034017438418
  0
ARC
  5
5236
  8
1外形線
 10
193.7718641441484
 20
126.73301452529491
 30
0.0
 40
1.0
 50
55.596598256158131
 51
180.0
  0
ENDSEC
  0
EOF
