  0
SECTION
  2
HEADER
  9
$ACADVER
  1
AC1009
  9
$INSBASE
 10
0.0
 20
0.0
 30
0.0
  9
$EXTMIN
 10
20.717761997079091
 20
-25.750029856048059
 30
-0.0015258207003583
  9
$EXTMAX
 10
615.43703137683963
 20
408.08463664145091
 30
0.0000000349246037
  9
$LIMMIN
 10
0.0
 20
0.0
  9
$LIMMAX
 10
420.0
 20
297.0
  9
$ORTHOMODE
 70
     0
  9
$REGENMODE
 70
     1
  9
$FILLMODE
 70
     1
  9
$QTEXTMODE
 70
     0
  9
$MIRRTEXT
 70
     1
  9
$DRAGMODE
 70
     2
  9
$LTSCALE
 40
1.0
  9
$OSMODE
 70
    37
  9
$ATTMODE
 70
     1
  9
$TEXTSIZE
 40
2.5
  9
$TRACEWID
 40
1.0
  9
$TEXTSTYLE
  7
STANDARD
  9
$CLAYER
  8
0
  9
$CELTYPE
  6
BYLAYER
  9
$CECOLOR
 62
   256
  9
$DIMSCALE
 40
1.0
  9
$DIMASZ
 40
2.5
  9
$DIMEXO
 40
0.625
  9
$DIMDLI
 40
3.75
  9
$DIMRND
 40
0.0
  9
$DIMDLE
 40
0.0
  9
$DIMEXE
 40
1.25
  9
$DIMTP
 40
0.0
  9
$DIMTM
 40
0.0
  9
$DIMTXT
 40
2.5
  9
$DIMCEN
 40
2.5
  9
$DIMTSZ
 40
0.0
  9
$DIMTOL
 70
     0
  9
$DIMLIM
 70
     0
  9
$DIMTIH
 70
     0
  9
$DIMTOH
 70
     0
  9
$DIMSE1
 70
     0
  9
$DIMSE2
 70
     0
  9
$DIMTAD
 70
     1
  9
$DIMZIN
 70
     8
  9
$DIMBLK
  1

  9
$DIMASO
 70
     1
  9
$DIMSHO
 70
     1
  9
$DIMPOST
  1

  9
$DIMAPOST
  1

  9
$DIMALT
 70
     0
  9
$DIMALTD
 70
     3
  9
$DIMALTF
 40
0.03937007874016
  9
$DIMLFAC
 40
1.0
  9
$DIMTOFL
 70
     1
  9
$DIMTVP
 40
0.0
  9
$DIMTIX
 70
     0
  9
$DIMSOXD
 70
     0
  9
$DIMSAH
 70
     0
  9
$DIMBLK1
  1

  9
$DIMBLK2
  1

  9
$DIMSTYLE
  2
ISO-25
  9
$DIMCLRD
 70
     0
  9
$DIMCLRE
 70
     0
  9
$DIMCLRT
 70
     0
  9
$DIMTFAC
 40
1.0
  9
$DIMGAP
 40
0.625
  9
$LUNITS
 70
     2
  9
$LUPREC
 70
     4
  9
$SKETCHINC
 40
1.0
  9
$FILLETRAD
 40
10.0
  9
$AUNITS
 70
     0
  9
$AUPREC
 70
     0
  9
$MENU
  1
.
  9
$ELEVATION
 40
0.0
  9
$PELEVATION
 40
0.0
  9
$THICKNESS
 40
0.0
  9
$LIMCHECK
 70
     0
  9
$BLIPMODE
 70
     0
  9
$CHAMFERA
 40
10.0
  9
$CHAMFERB
 40
10.0
  9
$SKPOLY
 70
     0
  9
$TDCREATE
 40
2452048.587873715
  9
$TDUPDATE
 40
2452048.6138238772
  9
$TDINDWG
 40
0.0259527083
  9
$TDUSRTIMER
 40
0.0259527083
  9
$USRTIMER
 70
     1
  9
$ANGBASE
 50
0.0
  9
$ANGDIR
 70
     0
  9
$PDMODE
 70
     0
  9
$PDSIZE
 40
0.0
  9
$PLINEWID
 40
0.0
  9
$COORDS
 70
     1
  9
$SPLFRAME
 70
     0
  9
$SPLINETYPE
 70
     6
  9
$SPLINESEGS
 70
     8
  9
$ATTDIA
 70
     0
  9
$ATTREQ
 70
     1
  9
$HANDLING
 70
-16383
  9
$HANDSEED
  5
64E7
  9
$SURFTAB1
 70
     6
  9
$SURFTAB2
 70
     6
  9
$SURFTYPE
 70
     6
  9
$SURFU
 70
     6
  9
$SURFV
 70
     6
  9
$UCSNAME
  2

  9
$UCSORG
 10
0.0
 20
0.0
 30
0.0
  9
$UCSXDIR
 10
1.0
 20
0.0
 30
0.0
  9
$UCSYDIR
 10
0.0
 20
1.0
 30
0.0
  9
$PUCSNAME
  2

  9
$PUCSORG
 10
0.0
 20
0.0
 30
0.0
  9
$PUCSXDIR
 10
1.0
 20
0.0
 30
0.0
  9
$PUCSYDIR
 10
0.0
 20
1.0
 30
0.0
  9
$USERI1
 70
     0
  9
$USERI2
 70
     0
  9
$USERI3
 70
     0
  9
$USERI4
 70
     0
  9
$USERI5
 70
     0
  9
$USERR1
 40
0.0
  9
$USERR2
 40
0.0
  9
$USERR3
 40
0.0
  9
$USERR4
 40
0.0
  9
$USERR5
 40
0.0
  9
$WORLDVIEW
 70
     1
  9
$SHADEDGE
 70
     3
  9
$SHADEDIF
 70
    70
  9
$TILEMODE
 70
     1
  9
$MAXACTVP
 70
    64
  9
$PLIMCHECK
 70
     0
  9
$PEXTMIN
 10
1.0000000000000000E+020
 20
1.0000000000000000E+020
 30
1.0000000000000000E+020
  9
$PEXTMAX
 10
-1.0000000000000000E+020
 20
-1.0000000000000000E+020
 30
-1.0000000000000000E+020
  9
$PLIMMIN
 10
0.0
 20
0.0
  9
$PLIMMAX
 10
420.0
 20
297.0
  9
$UNITMODE
 70
     0
  9
$VISRETAIN
 70
     1
  9
$PLINEGEN
 70
     0
  9
$PSLTSCALE
 70
     1
  0
ENDSEC
  0
SECTION
  2
TABLES
  0
TABLE
  2
VPORT
 70
    47
  0
VPORT
  2
*ACTIVE
 70
     0
 10
0.0
 20
0.0
 11
1.0
 21
1.0
 12
243.19809294536361
 22
20.724196922940902
 13
0.0
 23
0.0
 14
10.0
 24
10.0
 15
10.0
 25
10.0
 16
0.0
 26
0.0
 36
1.0
 17
0.0
 27
0.0
 37
0.0
 40
1136.324782680095
 41
0.8452830188679245
 42
50.0
 43
0.0
 44
0.0
 50
0.0
 51
0.0
 71
     0
 72
   100
 73
     1
 74
     3
 75
     0
 76
     0
 77
     0
 78
     0
  0
ENDTAB
  0
TABLE
  2
LTYPE
 70
     1
  0
LTYPE
  2
CONTINUOUS
 70
     0
  3
Solid line
 72
    65
 73
     0
 40
0.0
  0
ENDTAB
  0
TABLE
  2
LAYER
 70
     3
  0
LAYER
  2
0
 70
     0
 62
     7
  6
CONTINUOUS
  0
LAYER
  2
1外形線
 70
     0
 62
     3
  6
CONTINUOUS
  0
LAYER
  2
4太線
 70
     0
 62
     6
  6
CONTINUOUS
  0
ENDTAB
  0
TABLE
  2
STYLE
 70
     2
  0
STYLE
  2
STANDARD
 70
     0
 40
0.0
 41
1.0
 50
0.0
 71
     0
 42
2.5
  3
txt
  4

  0
STYLE
  2
KANJI
 70
     0
 40
0.0
 41
1.0
 50
0.0
 71
     0
 42
10.0
  3
simplex
  4
bigfont
  0
ENDTAB
  0
TABLE
  2
VIEW
 70
     0
  0
ENDTAB
  0
TABLE
  2
UCS
 70
     0
  0
ENDTAB
  0
TABLE
  2
APPID
 70
     1
  0
APPID
  2
ACAD
 70
     0
  0
ENDTAB
  0
TABLE
  2
DIMSTYLE
 70
     2
  0
DIMSTYLE
  2
ISO-25
 70
     0
  3

  4

  5

  6

  7

 40
1.0
 41
2.5
 42
0.625
 43
3.75
 44
1.25
 45
0.0
 46
0.0
 47
0.0
 48
0.0
140
2.5
141
2.5
142
0.0
143
0.03937007874016
144
1.0
145
0.0
146
1.0
147
0.625
 71
     0
 72
     0
 73
     0
 74
     0
 75
     0
 76
     0
 77
     1
 78
     8
170
     0
171
     3
172
     1
173
     0
174
     0
175
     0
176
     0
177
     0
178
     0
  0
DIMSTYLE
  2
STANDARD
 70
     0
  3

  4

  5

  6
1
  7
1
 40
1.0
 41
1.0
 42
1.0
 43
6.0
 44
1.0
 45
0.0
 46
0.0
 47
0.0
 48
0.0
140
2.5
141
0.0
142
0.0
143
25.399999999999999
144
1.0
145
0.0
146
1.0
147
0.5
 71
     0
 72
     0
 73
     0
 74
     0
 75
     0
 76
     0
 77
     1
 78
     8
170
     0
171
     2
172
     1
173
     1
174
     0
175
     0
176
     0
177
     0
178
     0
  0
ENDTAB
  0
ENDSEC
  0
SECTION
  2
BLOCKS
  0
BLOCK
  8
0
  2
$MODEL_SPACE
 70
     0
 10
0.0
 20
0.0
 30
0.0
  3
$MODEL_SPACE
  1

  0
ENDBLK
  5
21
  8
0
  0
BLOCK
 67
     1
  8
0
  2
$PAPER_SPACE
 70
     0
 10
0.0
 20
0.0
 30
0.0
  3
$PAPER_SPACE
  1

  0
ENDBLK
  5
1D
 67
     1
  8
0
  0
BLOCK
  8
0
  2
1
 70
     0
 10
0.0
 20
0.0
 30
0.0
  3
1
  1

  0
SOLID
  5
2C
  8
0
  6
BYBLOCK
 62
     0
 10
-1.811110924292052
 20
0.4852857095671653
 30
0.0
 11
-1.811110924292052
 21
-0.4852857095673642
 31
0.0
 12
0.0
 22
0.0
 32
0.0
 13
0.0
 23
0.0
 33
0.0
  0
ENDBLK
  5
2E
  8
0
  0
ENDSEC
  0
SECTION
  2
ENTITIES
  0
LINE
  5
645C
  8
1外形線
 10
115.04483753362869
 20
150.04159102126019
 30
0.0
 11
164.437134770879
 21
150.0415910212599
 31
0.0
  0
LINE
  5
645D
  8
1外形線
 10
113.0448375336283
 20
110.0415910212598
 30
0.0
 11
198.0448375336278
 21
110.0415910212598
 31
0.0
  0
LINE
  5
645E
  8
1外形線
 10
161.4956807259658
 20
80.684082138170496
 30
0.0
 11
113.044837533628
 21
80.684082138170936
 31
0.0
  0
LINE
  5
645F
  8
1外形線
 10
115.044837533628
 20
82.68408213817105
 30
0.0
 11
161.49568072596429
 21
82.684082138170993
 31
0.0
  0
LINE
  5
6460
  8
1外形線
 10
161.49568072596591
 20
31.284082138171701
 30
0.0
 11
113.0448375336281
 21
31.284082138171179
 31
0.0
  0
LINE
  5
6461
  8
1外形線
 10
115.0448375336281
 20
29.284082138171069
 30
0.0
 11
161.49568072596441
 21
29.284082138171119
 31
0.0
  0
LINE
  5
6462
  8
1外形線
 10
132.44483753362829
 20
71.884082138171379
 30
0.0
 11
128.64483753362819
 21
71.884082138171379
 31
0.0
  0
LINE
  5
6463
  8
1外形線
 10
128.64483753362819
 20
76.084082138171425
 30
0.0
 11
132.44483753362829
 21
76.084082138171425
 31
0.0
  0
LINE
  5
6464
  8
1外形線
 10
132.44483753362829
 20
40.084082138171652
 30
0.0
 11
128.64483753362819
 21
40.084082138171652
 31
0.0
  0
LINE
  5
6465
  8
1外形線
 10
128.64483753362819
 20
35.8840821381716
 30
0.0
 11
132.44483753362829
 21
35.8840821381716
 31
0.0
  0
LINE
  5
6466
  8
1外形線
 10
115.0448375336283
 20
50.068002355070227
 30
0.0
 11
115.0448375336283
 21
61.900161921273373
 31
0.0
  0
LINE
  5
6467
  8
1外形線
 10
113.0448375336285
 20
31.284082138171129
 30
0.0
 11
113.0448375336281
 21
80.684082138170979
 31
0.0
  0
LINE
  5
6468
  8
1外形線
 10
118.0448375336284
 20
50.068002355070227
 30
0.0
 11
118.0448375336284
 21
61.900161921273423
 31
0.0
  0
LINE
  5
6469
  8
1外形線
 10
113.0448375336284
 20
50.068002355070291
 30
0.0
 11
113.0448375336283
 21
31.484082138171861
 31
0.0
  0
LINE
  5
646A
  8
1外形線
 10
115.0448375336283
 20
32.98408213817185
 30
0.0
 11
120.5448375336296
 21
32.98408213817185
 31
0.0
  0
ARC
  5
646B
  8
1外形線
 10
115.044837533628
 20
31.284082138171129
 30
0.0
 40
2.0
 50
180.0
 51
270.0000000000008
  0
LINE
  5
646C
  8
1外形線
 10
115.0448375336283
 20
32.98408213817185
 30
0.0
 11
115.0448375336283
 21
31.484082138171861
 31
0.0
  0
LINE
  5
646D
  8
1外形線
 10
120.5448375336296
 20
32.98408213817185
 30
0.0
 11
120.5448375336296
 21
31.484082138171861
 31
0.0
  0
LINE
  5
646E
  8
1外形線
 10
113.0448375336284
 20
50.068002355070291
 30
0.0
 11
118.0448375336284
 21
50.068002355070227
 31
0.0
  0
ARC
  5
646F
  8
1外形線
 10
128.64483753362819
 20
37.98408213817163
 30
0.0
 40
2.1000000000000001
 50
90.0
 51
270.0
  0
LINE
  5
6470
  8
1外形線
 10
113.0448375336284
 20
61.900161921273423
 30
0.0
 11
113.0448375336284
 21
80.484082138171857
 31
0.0
  0
LINE
  5
6471
  8
1外形線
 10
113.0448375336284
 20
61.900161921273423
 30
0.0
 11
118.0448375336284
 21
61.900161921273423
 31
0.0
  0
ARC
  5
6472
  8
1外形線
 10
128.64483753362819
 20
73.984082138171402
 30
0.0
 40
2.1000000000000001
 50
90.0
 51
270.0
  0
LINE
  5
6473
  8
1外形線
 10
115.0448375336284
 20
78.984082138171857
 30
0.0
 11
120.5448375336297
 21
78.984082138171857
 31
0.0
  0
ARC
  5
6474
  8
1外形線
 10
115.044837533628
 20
80.684082138170979
 30
0.0
 40
2.0
 50
89.999999999999204
 51
180.0
  0
LINE
  5
6475
  8
1外形線
 10
115.0448375336284
 20
78.984082138171857
 30
0.0
 11
115.0448375336284
 21
80.684082138170936
 31
0.0
  0
LINE
  5
6476
  8
1外形線
 10
120.5448375336297
 20
78.984082138171857
 30
0.0
 11
120.5448375336297
 21
80.684082138170879
 31
0.0
  0
ARC
  5
6477
  8
1外形線
 10
68.810406605089355
 20
123.54159102125971
 30
0.0
 40
26.5
 50
4.1235464180054082
 51
90.0
  0
ARC
  5
6478
  8
1外形線
 10
68.810406605089355
 20
127.04159102125899
 30
0.0
 40
18.0
 50
289.18813645372779
 51
250.81186354627209
  0
LINE
  5
6479
  8
1外形線
 10
95.510711261177164
 20
110.0415910212598
 30
0.0
 11
42.110101949001603
 21
110.0415910212598
 31
0.0
  0
ARC
  5
647A
  8
1外形線
 10
68.810406605089355
 20
123.54159102125971
 30
0.0
 40
26.5
 50
90.0
 51
175.8764535819945
  0
LINE
  5
647B
  8
1外形線
 10
44.110406605089452
 20
110.0415910212598
 30
0.0
 11
44.40714270886906
 21
127.04159102125919
 31
0.0
  0
LINE
  5
647C
  8
1外形線
 10
42.110101949001603
 20
110.0415910212598
 30
0.0
 11
42.379006732870153
 21
125.4471357714159
 31
0.0
  0
LINE
  5
647D
  8
1外形線
 10
44.40714270886906
 20
127.04159102125919
 30
0.0
 11
50.810406605089383
 21
127.04159102125909
 31
0.0
  0
LINE
  5
647E
  8
1外形線
 10
44.607142708868977
 20
127.04159102125909
 30
0.0
 11
50.810406605089362
 21
127.04159102125909
 31
0.0
  0
LINE
  5
647F
  8
1外形線
 10
78.760280976156622
 20
112.0415910212598
 30
0.0
 11
68.810406605089355
 21
112.0415910212598
 31
0.0
  0
LINE
  5
6480
  8
1外形線
 10
58.860532234022138
 20
112.0415910212598
 30
0.0
 11
68.810406605089355
 21
112.0415910212598
 31
0.0
  0
LINE
  5
6481
  8
1外形線
 10
113.0448375336283
 20
110.0415910212598
 30
0.0
 11
113.04483753362879
 21
148.0415910212603
 31
0.0
  0
LINE
  5
6482
  8
1外形線
 10
93.510406605089315
 20
110.0415910212598
 30
0.0
 11
93.213670501309707
 21
127.04159102125919
 31
0.0
  0
LINE
  5
6483
  8
1外形線
 10
95.510711261177164
 20
110.0415910212598
 30
0.0
 11
95.241806477308614
 21
125.4471357714158
 31
0.0
  0
LINE
  5
6484
  8
1外形線
 10
93.213670501309707
 20
127.04159102125919
 30
0.0
 11
86.810406605089383
 21
127.04159102125909
 31
0.0
  0
LINE
  5
6485
  8
1外形線
 10
93.013670501309718
 20
127.04159102125909
 30
0.0
 11
86.810406605089355
 21
127.04159102125909
 31
0.0
  0
ARC
  5
6486
  8
1外形線
 10
115.04483753362869
 20
148.04159102126019
 30
0.0
 40
2.0
 50
89.999999999999588
 51
180.0
  0
ARC
  5
6487
  8
1外形線
 10
183.09399434129
 20
94.984082138170891
 30
0.0
 40
20.0
 50
247.10944834375309
 51
270.0
  0
ARC
  5
6488
  8
1外形線
 10
183.09399434129011
 20
94.984082138170947
 30
0.0
 40
18.0
 50
247.10944834375351
 51
270.0000000000008
  0
ARC
  5
6489
  8
1外形線
 10
183.09399434129
 20
16.984082138171399
 30
0.0
 40
20.0
 50
89.999999999999588
 51
112.8905516562468
  0
ARC
  5
648A
  8
1外形線
 10
183.0939943412902
 20
16.984082138171338
 30
0.0
 40
18.0
 50
89.999999999999204
 51
112.8905516562468
  0
LINE
  5
648B
  8
1外形線
 10
180.54483753362791
 20
64.98408213817163
 30
0.0
 11
164.044837533628
 21
64.984082138171743
 31
0.0
  0
LINE
  5
648C
  8
1外形線
 10
164.044837533628
 20
69.984082138171743
 30
0.0
 11
180.54483753362791
 21
69.984082138171743
 31
0.0
  0
LINE
  5
648D
  8
1外形線
 10
180.54483753362791
 20
65.984082138171516
 30
0.0
 11
165.04483753362791
 21
65.984082138171516
 31
0.0
  0
LINE
  5
648E
  8
1外形線
 10
164.04483753362791
 20
41.984082138171743
 30
0.0
 11
180.54483753362791
 21
41.984082138171622
 31
0.0
  0
LINE
  5
648F
  8
1外形線
 10
180.54483753362791
 20
46.984082138171743
 30
0.0
 11
164.04483753362791
 21
46.984082138171679
 31
0.0
  0
LINE
  5
6490
  8
1外形線
 10
180.54483753362791
 20
45.984082138171857
 30
0.0
 11
165.04483753362791
 21
45.984082138171964
 31
0.0
  0
ARC
  5
6491
  8
1外形線
 10
174.4448375336278
 20
55.98408213817163
 30
0.0
 40
2.1000000000000001
 50
270.0
 51
90.0
  0
ARC
  5
6492
  8
1外形線
 10
170.64483753362779
 20
55.98408213817163
 30
0.0
 40
2.1000000000000001
 50
90.0
 51
270.0
  0
LINE
  5
6493
  8
1外形線
 10
140.00495880292431
 20
32.98408213817185
 30
0.0
 11
154.0448375336278
 21
32.9840821381718
 31
0.0
  0
LINE
  5
6494
  8
1外形線
 10
140.00495880292431
 20
32.98408213817185
 30
0.0
 11
140.00495880292431
 21
31.48408213817202
 31
0.0
  0
ARC
  5
6495
  8
1外形線
 10
132.44483753362829
 20
37.98408213817163
 30
0.0
 40
2.1000000000000001
 50
270.0
 51
90.0
  0
LINE
  5
6496
  8
1外形線
 10
176.0924976745641
 20
33.56657424357649
 30
0.0
 11
170.05306554085149
 21
31.016591787120319
 31
0.0
  0
LINE
  5
6497
  8
1外形線
 10
175.31455360048321
 20
35.409073366399291
 30
0.0
 11
169.2751214667725
 21
32.859090909943909
 31
0.0
  0
ARC
  5
6498
  8
1外形線
 10
161.49568072596571
 20
51.284082138171748
 30
0.0
 40
20.0
 50
270.0000000000004
 51
292.89055165624688
  0
ARC
  5
6499
  8
1外形線
 10
161.49568072596429
 20
51.284082138171129
 30
0.0
 40
22.0
 50
270.0
 51
292.89055165624592
  0
LINE
  5
649A
  8
1外形線
 10
154.0448375336278
 20
32.9840821381718
 30
0.0
 11
154.0448375336278
 21
31.484082138172081
 31
0.0
  0
LINE
  5
649B
  8
1外形線
 10
165.04483753362791
 20
41.984082138171743
 30
0.0
 11
165.04483753362791
 21
45.984082138171743
 31
0.0
  0
LINE
  5
649C
  8
1外形線
 10
164.04483753362791
 20
41.984082138171743
 30
0.0
 11
164.04483753362791
 21
46.984082138171679
 31
0.0
  0
LINE
  5
649D
  8
1外形線
 10
170.64483753362779
 20
53.884082138171657
 30
0.0
 11
174.4448375336278
 21
53.884082138171657
 31
0.0
  0
LINE
  5
649E
  8
1外形線
 10
140.00495880292439
 20
78.984082138171743
 30
0.0
 11
154.04483753362791
 21
78.984082138171686
 31
0.0
  0
ARC
  5
649F
  8
1外形線
 10
132.44483753362829
 20
73.984082138171402
 30
0.0
 40
2.1000000000000001
 50
270.0
 51
90.0
  0
LINE
  5
64A0
  8
1外形線
 10
140.00495880292439
 20
78.984082138171743
 30
0.0
 11
140.00495880292439
 21
80.684082138170652
 31
0.0
  0
LINE
  5
64A1
  8
1外形線
 10
175.31455360048309
 20
76.559090909942938
 30
0.0
 11
169.2751214667725
 21
79.10907336639832
 31
0.0
  0
LINE
  5
64A2
  8
1外形線
 10
164.044837533628
 20
69.984082138171743
 30
0.0
 11
164.044837533628
 21
64.984082138171743
 31
0.0
  0
LINE
  5
64A3
  8
1外形線
 10
165.044837533628
 20
69.984082138171743
 30
0.0
 11
165.044837533628
 21
65.984082138171743
 31
0.0
  0
LINE
  5
64A4
  8
1外形線
 10
174.4448375336278
 20
58.084082138171652
 30
0.0
 11
170.64483753362779
 21
58.084082138171652
 31
0.0
  0
ARC
  5
64A5
  8
1外形線
 10
161.49568072596571
 20
60.684082138170417
 30
0.0
 40
20.0
 50
67.109448343753087
 51
89.999999999999204
  0
ARC
  5
64A6
  8
1外形線
 10
161.49568072596429
 20
60.684082138171107
 30
0.0
 40
22.0
 50
67.109448343753982
 51
90.0
  0
LINE
  5
64A7
  8
1外形線
 10
154.04483753362791
 20
78.984082138171686
 30
0.0
 11
154.04483753362791
 21
80.684082138170538
 31
0.0
  0
LINE
  5
64A8
  8
1外形線
 10
176.09249767456399
 20
78.401590032765739
 30
0.0
 11
170.05306554085141
 21
80.951572489221917
 31
0.0
  0
LINE
  5
64A9
  8
1外形線
 10
198.04483753362791
 20
55.984082138171402
 30
0.0
 11
198.044837533628
 21
36.889069700283692
 31
0.0
  0
LINE
  5
64AA
  8
1外形線
 10
183.04483753362791
 20
36.984082138171402
 30
0.0
 11
183.04483753362791
 21
74.984082138170947
 31
0.0
  0
LINE
  5
64AB
  8
1外形線
 10
198.04483753362791
 20
36.984082138171338
 30
0.0
 11
183.09399434129011
 21
36.984082138171402
 31
0.0
  0
ARC
  5
64AC
  8
1外形線
 10
186.5485689000013
 20
64.984082138171274
 30
0.0
 40
30.0
 50
270.0
 51
275.71059313750061
  0
LINE
  5
64AD
  8
1外形線
 10
183.04483753362791
 20
46.484082138171971
 30
0.0
 11
197.04483753362791
 21
46.484082138172141
 31
0.0
  0
LINE
  5
64AE
  8
1外形線
 10
180.54483753362791
 20
46.984082138171743
 30
0.0
 11
180.54483753362791
 21
41.984082138171622
 31
0.0
  0
LINE
  5
64AF
  8
1外形線
 10
186.5485689000013
 20
34.984082138171281
 30
0.0
 11
183.0939943412904
 21
34.984082138171338
 31
0.0
  0
LINE
  5
64B0
  8
1外形線
 10
189.53368047063191
 20
35.13296643187163
 30
0.0
 11
197.1443412526489
 21
35.8940325100736
 31
0.0
  0
ARC
  5
64B1
  8
1外形線
 10
197.04483753362791
 20
36.889069700283642
 30
0.0
 40
1.0
 50
275.71059313750101
 51
0.0
  0
ARC
  5
64B2
  8
1外形線
 10
197.04483753362791
 20
47.484082138171679
 30
0.0
 40
1.0
 50
269.9999999999996
 51
0.0
  0
ARC
  5
64B3
  8
1外形線
 10
186.5485689000013
 20
46.984082138170947
 30
0.0
 40
30.0
 50
84.289406862499007
 51
90.0
  0
LINE
  5
64B4
  8
1外形線
 10
198.04483753362791
 20
74.984082138170947
 30
0.0
 11
183.09399434129
 21
74.984082138170891
 31
0.0
  0
LINE
  5
64B5
  8
1外形線
 10
183.04483753362791
 20
65.484082138171402
 30
0.0
 11
197.04483753362791
 21
65.484082138171175
 31
0.0
  0
LINE
  5
64B6
  8
1外形線
 10
180.54483753362791
 20
64.98408213817163
 30
0.0
 11
180.544837533628
 21
69.984082138171743
 31
0.0
  0
LINE
  5
64B7
  8
1外形線
 10
198.04483753362791
 20
55.98408213817094
 30
0.0
 11
198.04483753362791
 21
75.079094576058651
 31
0.0
  0
ARC
  5
64B8
  8
1外形線
 10
197.04483753362791
 20
64.48408213817163
 30
0.0
 40
1.0
 50
0.0
 51
90.0
  0
LINE
  5
64B9
  8
1外形線
 10
189.53368047063191
 20
76.835197844470599
 30
0.0
 11
197.1443412526489
 21
76.074131766268692
 31
0.0
  0
ARC
  5
64BA
  8
1外形線
 10
197.04483753362791
 20
75.079094576058651
 30
0.0
 40
1.0
 50
0.0
 51
84.289406862499007
  0
LINE
  5
64BB
  8
1外形線
 10
186.5485689000013
 20
76.984082138170947
 30
0.0
 11
183.0939943412904
 21
76.984082138170947
 31
0.0
  0
LINE
  5
64BC
  8
1外形線
 10
214.73053849792981
 20
110.0415910212598
 30
0.0
 11
268.1311478101054
 21
110.04159102125919
 31
0.0
  0
ARC
  5
64BD
  8
1外形線
 10
241.43084315401759
 20
127.54159102125941
 30
0.0
 40
19.0
 50
0.0
 51
180.0
  0
ARC
  5
64BE
  8
1外形線
 10
241.43084315401791
 20
123.54159102125951
 30
0.0
 40
26.5
 50
89.999999999998366
 51
175.87645358199131
  0
ARC
  5
64BF
  8
1外形線
 10
241.43084315401759
 20
127.54159102125941
 30
0.0
 40
21.0
 50
0.0
 51
180.0
  0
ARC
  5
64C0
  8
1外形線
 10
224.43084315401771
 20
113.0415910212605
 30
0.0
 40
1.0
 50
270.0
 51
0.0
  0
LINE
  5
64C1
  8
1外形線
 10
178.16477282702891
 20
148.65168379713469
 30
0.0
 11
166.86662834452551
 21
149.90703318407949
 31
0.0
  0
ARC
  5
64C2
  8
1外形線
 10
164.43713477087891
 20
128.0415910212599
 30
0.0
 40
22.0
 50
83.659808254090024
 51
89.999999999999588
  0
LINE
  5
64C3
  8
1外形線
 10
198.044837533628
 20
146.63660345914761
 30
0.0
 11
198.0448375336278
 21
110.0415910212598
 31
0.0
  0
LINE
  5
64C4
  8
1外形線
 10
214.73053849792981
 20
110.0415910212598
 30
0.0
 11
214.9994432817987
 21
125.4471357714162
 31
0.0
  0
LINE
  5
64C5
  8
1外形線
 10
220.430843154017
 20
110.04159102125941
 30
0.0
 11
220.43084315401711
 21
127.54159102125941
 31
0.0
  0
LINE
  5
64C6
  8
1外形線
 10
222.430843154017
 20
110.04159102125941
 30
0.0
 11
222.43084315401711
 21
127.54159102125941
 31
0.0
  0
LINE
  5
64C7
  8
1外形線
 10
222.430843154017
 20
112.0415910212605
 30
0.0
 11
224.43084315401771
 21
112.0415910212604
 31
0.0
  0
ARC
  5
64C8
  8
1外形線
 10
186.54856890000119
 20
118.5415910212598
 30
0.0
 40
30.0
 50
84.289406862500215
 51
89.999999999999588
  0
LINE
  5
64C9
  8
1外形線
 10
180.15254029637609
 20
148.5415910212599
 30
0.0
 11
186.54856890000119
 21
148.54159102125979
 31
0.0
  0
ARC
  5
64CA
  8
1外形線
 10
180.1525402963762
 20
166.5415910212599
 30
0.0
 40
18.0
 50
263.65980825409002
 51
269.9999999999996
  0
LINE
  5
64CB
  8
1外形線
 10
189.5336804706312
 20
148.39270672755941
 30
0.0
 11
197.1443412526489
 21
147.63164064935759
 31
0.0
  0
ARC
  5
64CC
  8
1外形線
 10
197.044837533628
 20
146.63660345914761
 30
0.0
 40
1.0
 50
0.0
 51
84.289406862500215
  0
ARC
  5
64CD
  8
1外形線
 10
241.43084315401791
 20
123.54159102125951
 30
0.0
 40
26.5
 50
4.1235464180054082
 51
89.999999999998366
  0
LINE
  5
64CE
  8
1外形線
 10
250.93084315401799
 20
112.5415910212605
 30
0.0
 11
231.93084315401799
 21
112.5415910212605
 31
0.0
  0
LINE
  5
64CF
  8
1外形線
 10
249.43084315401799
 20
114.5415910212605
 30
0.0
 11
241.43084315401759
 21
114.5415910212605
 31
0.0
  0
LINE
  5
64D0
  8
1外形線
 10
241.43084315401759
 20
114.5415910212605
 30
0.0
 11
233.43084315401799
 21
114.5415910212605
 31
0.0
  0
LINE
  5
64D1
  8
1外形線
 10
233.43084315401799
 20
116.0415910212605
 30
0.0
 11
226.43084315401771
 21
116.0415910212605
 31
0.0
  0
ARC
  5
64D2
  8
1外形線
 10
226.43084315401771
 20
115.0415910212605
 30
0.0
 40
1.0
 50
90.0
 51
179.9999999999967
  0
LINE
  5
64D3
  8
1外形線
 10
225.43084315401771
 20
115.0415910212606
 30
0.0
 11
225.43084315401771
 21
113.0415910212605
 31
0.0
  0
LINE
  5
64D4
  8
1外形線
 10
231.93084315401799
 20
116.0415910212605
 30
0.0
 11
231.93084315401799
 21
112.5415910212605
 31
0.0
  0
LINE
  5
64D5
  8
1外形線
 10
233.43084315401799
 20
116.0415910212605
 30
0.0
 11
233.43084315401799
 21
114.5415910212605
 31
0.0
  0
LINE
  5
64D6
  8
1外形線
 10
260.43084315401762
 20
110.04159102125941
 30
0.0
 11
260.43084315401762
 21
127.54159102125941
 31
0.0
  0
LINE
  5
64D7
  8
1外形線
 10
262.43084315401768
 20
110.04159102125941
 30
0.0
 11
262.43084315401768
 21
127.54159102125941
 31
0.0
  0
LINE
  5
64D8
  8
1外形線
 10
268.1311478101054
 20
110.04159102125919
 30
0.0
 11
267.86224302623731
 21
125.44713577141481
 31
0.0
  0
LINE
  5
64D9
  8
1外形線
 10
260.43084315401762
 20
112.0415910212605
 30
0.0
 11
258.43084315401751
 21
112.0415910212604
 31
0.0
  0
LINE
  5
64DA
  8
1外形線
 10
256.43084315401751
 20
116.0415910212605
 30
0.0
 11
249.43084315401799
 21
116.0415910212605
 31
0.0
  0
LINE
  5
64DB
  8
1外形線
 10
249.43084315401799
 20
116.0415910212605
 30
0.0
 11
249.43084315401799
 21
114.5415910212605
 31
0.0
  0
LINE
  5
64DC
  8
1外形線
 10
250.93084315401799
 20
116.0415910212605
 30
0.0
 11
250.93084315401799
 21
112.5415910212605
 31
0.0
  0
ARC
  5
64DD
  8
1外形線
 10
258.43084315401751
 20
113.0415910212604
 30
0.0
 40
1.0
 50
180.0
 51
270.0
  0
ARC
  5
64DE
  8
1外形線
 10
256.43084315401751
 20
115.0415910212605
 30
0.0
 40
1.0
 50
0.0
 51
90.0
  0
LINE
  5
64DF
  8
1外形線
 10
257.4308431540174
 20
115.0415910212605
 30
0.0
 11
257.4308431540174
 21
113.0415910212604
 31
0.0
  0
ENDSEC
  0
EOF
