  0
SECTION
  2
HEADER
  9
$ACADVER
  1
AC1009
  9
$INSBASE
 10
0.0
 20
0.0
 30
0.0
  9
$EXTMIN
 10
20.717761997079091
 20
-25.750029856048059
 30
-0.0015258207003583
  9
$EXTMAX
 10
615.43703137683963
 20
408.08463664145091
 30
0.0000000349246037
  9
$LIMMIN
 10
0.0
 20
0.0
  9
$LIMMAX
 10
420.0
 20
297.0
  9
$ORTHOMODE
 70
     0
  9
$REGENMODE
 70
     1
  9
$FILLMODE
 70
     1
  9
$QTEXTMODE
 70
     0
  9
$MIRRTEXT
 70
     1
  9
$DRAGMODE
 70
     2
  9
$LTSCALE
 40
1.0
  9
$OSMODE
 70
    37
  9
$ATTMODE
 70
     1
  9
$TEXTSIZE
 40
2.5
  9
$TRACEWID
 40
1.0
  9
$TEXTSTYLE
  7
STANDARD
  9
$CLAYER
  8
0
  9
$CELTYPE
  6
BYLAYER
  9
$CECOLOR
 62
   256
  9
$DIMSCALE
 40
1.0
  9
$DIMASZ
 40
2.5
  9
$DIMEXO
 40
0.625
  9
$DIMDLI
 40
3.75
  9
$DIMRND
 40
0.0
  9
$DIMDLE
 40
0.0
  9
$DIMEXE
 40
1.25
  9
$DIMTP
 40
0.0
  9
$DIMTM
 40
0.0
  9
$DIMTXT
 40
2.5
  9
$DIMCEN
 40
2.5
  9
$DIMTSZ
 40
0.0
  9
$DIMTOL
 70
     0
  9
$DIMLIM
 70
     0
  9
$DIMTIH
 70
     0
  9
$DIMTOH
 70
     0
  9
$DIMSE1
 70
     0
  9
$DIMSE2
 70
     0
  9
$DIMTAD
 70
     1
  9
$DIMZIN
 70
     8
  9
$DIMBLK
  1

  9
$DIMASO
 70
     1
  9
$DIMSHO
 70
     1
  9
$DIMPOST
  1

  9
$DIMAPOST
  1

  9
$DIMALT
 70
     0
  9
$DIMALTD
 70
     3
  9
$DIMALTF
 40
0.03937007874016
  9
$DIMLFAC
 40
1.0
  9
$DIMTOFL
 70
     1
  9
$DIMTVP
 40
0.0
  9
$DIMTIX
 70
     0
  9
$DIMSOXD
 70
     0
  9
$DIMSAH
 70
     0
  9
$DIMBLK1
  1

  9
$DIMBLK2
  1

  9
$DIMSTYLE
  2
ISO-25
  9
$DIMCLRD
 70
     0
  9
$DIMCLRE
 70
     0
  9
$DIMCLRT
 70
     0
  9
$DIMTFAC
 40
1.0
  9
$DIMGAP
 40
0.625
  9
$LUNITS
 70
     2
  9
$LUPREC
 70
     4
  9
$SKETCHINC
 40
1.0
  9
$FILLETRAD
 40
10.0
  9
$AUNITS
 70
     0
  9
$AUPREC
 70
     0
  9
$MENU
  1
.
  9
$ELEVATION
 40
0.0
  9
$PELEVATION
 40
0.0
  9
$THICKNESS
 40
0.0
  9
$LIMCHECK
 70
     0
  9
$BLIPMODE
 70
     0
  9
$CHAMFERA
 40
10.0
  9
$CHAMFERB
 40
10.0
  9
$SKPOLY
 70
     0
  9
$TDCREATE
 40
2452048.587873715
  9
$TDUPDATE
 40
2452048.614083854
  9
$TDINDWG
 40
0.026212338
  9
$TDUSRTIMER
 40
0.026212338
  9
$USRTIMER
 70
     1
  9
$ANGBASE
 50
0.0
  9
$ANGDIR
 70
     0
  9
$PDMODE
 70
     0
  9
$PDSIZE
 40
0.0
  9
$PLINEWID
 40
0.0
  9
$COORDS
 70
     1
  9
$SPLFRAME
 70
     0
  9
$SPLINETYPE
 70
     6
  9
$SPLINESEGS
 70
     8
  9
$ATTDIA
 70
     0
  9
$ATTREQ
 70
     1
  9
$HANDLING
 70
-16383
  9
$HANDSEED
  5
65EA
  9
$SURFTAB1
 70
     6
  9
$SURFTAB2
 70
     6
  9
$SURFTYPE
 70
     6
  9
$SURFU
 70
     6
  9
$SURFV
 70
     6
  9
$UCSNAME
  2

  9
$UCSORG
 10
0.0
 20
0.0
 30
0.0
  9
$UCSXDIR
 10
1.0
 20
0.0
 30
0.0
  9
$UCSYDIR
 10
0.0
 20
1.0
 30
0.0
  9
$PUCSNAME
  2

  9
$PUCSORG
 10
0.0
 20
0.0
 30
0.0
  9
$PUCSXDIR
 10
1.0
 20
0.0
 30
0.0
  9
$PUCSYDIR
 10
0.0
 20
1.0
 30
0.0
  9
$USERI1
 70
     0
  9
$USERI2
 70
     0
  9
$USERI3
 70
     0
  9
$USERI4
 70
     0
  9
$USERI5
 70
     0
  9
$USERR1
 40
0.0
  9
$USERR2
 40
0.0
  9
$USERR3
 40
0.0
  9
$USERR4
 40
0.0
  9
$USERR5
 40
0.0
  9
$WORLDVIEW
 70
     1
  9
$SHADEDGE
 70
     3
  9
$SHADEDIF
 70
    70
  9
$TILEMODE
 70
     1
  9
$MAXACTVP
 70
    64
  9
$PLIMCHECK
 70
     0
  9
$PEXTMIN
 10
1.0000000000000000E+020
 20
1.0000000000000000E+020
 30
1.0000000000000000E+020
  9
$PEXTMAX
 10
-1.0000000000000000E+020
 20
-1.0000000000000000E+020
 30
-1.0000000000000000E+020
  9
$PLIMMIN
 10
0.0
 20
0.0
  9
$PLIMMAX
 10
420.0
 20
297.0
  9
$UNITMODE
 70
     0
  9
$VISRETAIN
 70
     1
  9
$PLINEGEN
 70
     0
  9
$PSLTSCALE
 70
     1
  0
ENDSEC
  0
SECTION
  2
TABLES
  0
TABLE
  2
VPORT
 70
    48
  0
VPORT
  2
*ACTIVE
 70
     0
 10
0.0
 20
0.0
 11
1.0
 21
1.0
 12
243.19809294536361
 22
20.724196922940902
 13
0.0
 23
0.0
 14
10.0
 24
10.0
 15
10.0
 25
10.0
 16
0.0
 26
0.0
 36
1.0
 17
0.0
 27
0.0
 37
0.0
 40
1136.324782680095
 41
0.8452830188679245
 42
50.0
 43
0.0
 44
0.0
 50
0.0
 51
0.0
 71
     0
 72
   100
 73
     1
 74
     3
 75
     0
 76
     0
 77
     0
 78
     0
  0
ENDTAB
  0
TABLE
  2
LTYPE
 70
     1
  0
LTYPE
  2
CONTINUOUS
 70
     0
  3
Solid line
 72
    65
 73
     0
 40
0.0
  0
ENDTAB
  0
TABLE
  2
LAYER
 70
     3
  0
LAYER
  2
0
 70
     0
 62
     7
  6
CONTINUOUS
  0
LAYER
  2
1外形線
 70
     0
 62
     3
  6
CONTINUOUS
  0
LAYER
  2
4太線
 70
     0
 62
     6
  6
CONTINUOUS
  0
ENDTAB
  0
TABLE
  2
STYLE
 70
     2
  0
STYLE
  2
STANDARD
 70
     0
 40
0.0
 41
1.0
 50
0.0
 71
     0
 42
2.5
  3
txt
  4

  0
STYLE
  2
KANJI
 70
     0
 40
0.0
 41
1.0
 50
0.0
 71
     0
 42
10.0
  3
simplex
  4
bigfont
  0
ENDTAB
  0
TABLE
  2
VIEW
 70
     0
  0
ENDTAB
  0
TABLE
  2
UCS
 70
     0
  0
ENDTAB
  0
TABLE
  2
APPID
 70
     1
  0
APPID
  2
ACAD
 70
     0
  0
ENDTAB
  0
TABLE
  2
DIMSTYLE
 70
     2
  0
DIMSTYLE
  2
ISO-25
 70
     0
  3

  4

  5

  6

  7

 40
1.0
 41
2.5
 42
0.625
 43
3.75
 44
1.25
 45
0.0
 46
0.0
 47
0.0
 48
0.0
140
2.5
141
2.5
142
0.0
143
0.03937007874016
144
1.0
145
0.0
146
1.0
147
0.625
 71
     0
 72
     0
 73
     0
 74
     0
 75
     0
 76
     0
 77
     1
 78
     8
170
     0
171
     3
172
     1
173
     0
174
     0
175
     0
176
     0
177
     0
178
     0
  0
DIMSTYLE
  2
STANDARD
 70
     0
  3

  4

  5

  6
1
  7
1
 40
1.0
 41
1.0
 42
1.0
 43
6.0
 44
1.0
 45
0.0
 46
0.0
 47
0.0
 48
0.0
140
2.5
141
0.0
142
0.0
143
25.399999999999999
144
1.0
145
0.0
146
1.0
147
0.5
 71
     0
 72
     0
 73
     0
 74
     0
 75
     0
 76
     0
 77
     1
 78
     8
170
     0
171
     2
172
     1
173
     1
174
     0
175
     0
176
     0
177
     0
178
     0
  0
ENDTAB
  0
ENDSEC
  0
SECTION
  2
BLOCKS
  0
BLOCK
  8
0
  2
$MODEL_SPACE
 70
     0
 10
0.0
 20
0.0
 30
0.0
  3
$MODEL_SPACE
  1

  0
ENDBLK
  5
21
  8
0
  0
BLOCK
 67
     1
  8
0
  2
$PAPER_SPACE
 70
     0
 10
0.0
 20
0.0
 30
0.0
  3
$PAPER_SPACE
  1

  0
ENDBLK
  5
1D
 67
     1
  8
0
  0
BLOCK
  8
0
  2
1
 70
     0
 10
0.0
 20
0.0
 30
0.0
  3
1
  1

  0
SOLID
  5
2C
  8
0
  6
BYBLOCK
 62
     0
 10
-1.811110924292052
 20
0.4852857095671653
 30
0.0
 11
-1.811110924292052
 21
-0.4852857095673642
 31
0.0
 12
0.0
 22
0.0
 32
0.0
 13
0.0
 23
0.0
 33
0.0
  0
ENDBLK
  5
2E
  8
0
  0
ENDSEC
  0
SECTION
  2
ENTITIES
  0
LINE
  5
6567
  8
1外形線
 10
174.18662176236541
 20
84.544110174940997
 30
0.0
 11
108.7357785700279
 21
84.544110174941224
 31
0.0
  0
LINE
  5
6568
  8
1外形線
 10
109.7357785700279
 20
86.544110174940784
 30
0.0
 11
174.1866217623658
 21
86.544110174940556
 31
0.0
  0
LINE
  5
6569
  8
1外形線
 10
174.18662176236541
 20
29.144110174941769
 30
0.0
 11
108.7357785700279
 21
29.144110174941542
 31
0.0
  0
LINE
  5
656A
  8
1外形線
 10
109.7357785700279
 20
27.144110174941879
 30
0.0
 11
174.1866217623658
 21
27.14411017494211
 31
0.0
  0
LINE
  5
656B
  8
1外形線
 10
127.63577857002809
 20
79.944110174941216
 30
0.0
 11
123.8357785700282
 21
79.944110174941216
 31
0.0
  0
LINE
  5
656C
  8
1外形線
 10
123.8357785700282
 20
75.74411017494117
 30
0.0
 11
127.63577857002809
 21
75.74411017494117
 31
0.0
  0
LINE
  5
656D
  8
1外形線
 10
123.8357785700282
 20
33.744110174941277
 30
0.0
 11
127.63577857002809
 21
33.744110174941277
 31
0.0
  0
LINE
  5
656E
  8
1外形線
 10
127.63577857002809
 20
37.944110174941329
 30
0.0
 11
123.8357785700282
 21
37.944110174941329
 31
0.0
  0
LINE
  5
656F
  8
1外形線
 10
108.7357785700281
 20
56.844110174941591
 30
0.0
 11
108.7357785700279
 21
28.144110174941879
 31
0.0
  0
LINE
  5
6570
  8
1外形線
 10
108.7357785700282
 20
85.544110174940784
 30
0.0
 11
108.7357785700281
 21
29.34411017494136
 31
0.0
  0
LINE
  5
6571
  8
1外形線
 10
108.7357785700282
 20
56.844110174941193
 30
0.0
 11
108.7357785700281
 21
29.34411017494125
 31
0.0
  0
LINE
  5
6572
  8
1外形線
 10
110.7357785700282
 20
30.844110174941079
 30
0.0
 11
110.7357785700281
 21
29.144110174941542
 31
0.0
  0
LINE
  5
6573
  8
1外形線
 10
116.2357785700281
 20
30.844110174941189
 30
0.0
 11
116.2357785700282
 21
29.144110174941599
 31
0.0
  0
ARC
  5
6574
  8
1外形線
 10
109.7357785700279
 20
28.144110174941879
 30
0.0
 40
1.0
 50
180.0
 51
270.0
  0
LINE
  5
6575
  8
1外形線
 10
116.2357785700281
 20
30.844110174941189
 30
0.0
 11
110.7357785700282
 21
30.844110174941129
 31
0.0
  0
ARC
  5
6576
  8
1外形線
 10
123.8357785700282
 20
35.844110174941299
 30
0.0
 40
2.1000000000000001
 50
90.0
 51
270.0
  0
LINE
  5
6577
  8
1外形線
 10
116.2357785700281
 20
82.844110174941406
 30
0.0
 11
110.7357785700282
 21
82.844110174941406
 31
0.0
  0
LINE
  5
6578
  8
1外形線
 10
110.7357785700282
 20
82.844110174941534
 30
0.0
 11
110.7357785700281
 21
84.544110174941125
 31
0.0
  0
ARC
  5
6579
  8
1外形線
 10
109.7357785700279
 20
85.544110174940784
 30
0.0
 40
1.0
 50
90.0
 51
180.0
  0
LINE
  5
657A
  8
1外形線
 10
116.2357785700281
 20
82.844110174941406
 30
0.0
 11
116.2357785700282
 21
84.544110174941224
 31
0.0
  0
ARC
  5
657B
  8
1外形線
 10
123.8357785700282
 20
77.844110174941193
 30
0.0
 40
2.1000000000000001
 50
90.0
 51
270.0
  0
LINE
  5
657C
  8
1外形線
 10
164.73577857002971
 20
30.844110174941299
 30
0.0
 11
137.73577857002761
 21
30.844110174941189
 31
0.0
  0
LINE
  5
657D
  8
1外形線
 10
137.73577857002761
 20
29.144110174941648
 30
0.0
 11
137.73577857002761
 21
30.844110174941189
 31
0.0
  0
ARC
  5
657E
  8
1外形線
 10
127.63577857002809
 20
35.844110174941299
 30
0.0
 40
2.1000000000000001
 50
270.0
 51
90.0
  0
LINE
  5
657F
  8
1外形線
 10
164.73577857002979
 20
29.144110174941769
 30
0.0
 11
164.73577857002971
 21
30.844110174941299
 31
0.0
  0
LINE
  5
6580
  8
1外形線
 10
164.73577857002971
 20
82.844110174941207
 30
0.0
 11
137.73577857002761
 21
82.844110174941207
 31
0.0
  0
ARC
  5
6581
  8
1外形線
 10
127.63577857002809
 20
77.844110174941193
 30
0.0
 40
2.1000000000000001
 50
270.0
 51
90.0
  0
LINE
  5
6582
  8
1外形線
 10
137.73577857002761
 20
82.844110174941207
 30
0.0
 11
137.73577857002761
 21
84.544110174941125
 31
0.0
  0
LINE
  5
6583
  8
1外形線
 10
164.73577857002971
 20
82.844110174941207
 30
0.0
 11
164.73577857002971
 21
84.544110174940897
 31
0.0
  0
LINE
  5
6584
  8
1外形線
 10
195.7357785700278
 20
78.844110174941306
 30
0.0
 11
195.73577857002761
 21
34.844110174941363
 31
0.0
  0
LINE
  5
6585
  8
1外形線
 10
210.73577857002769
 20
34.74909773705366
 30
0.0
 11
210.73577857002769
 21
78.93912261282901
 31
0.0
  0
ARC
  5
6586
  8
1外形線
 10
195.78493537768961
 20
14.84411017494147
 30
0.0
 40
18.0
 50
90.0
 51
112.8905516562449
  0
ARC
  5
6587
  8
1外形線
 10
195.78493537768969
 20
14.84411017494136
 30
0.0
 40
20.0
 50
90.0
 51
112.8905516562463
  0
ARC
  5
6588
  8
1外形線
 10
174.18662176236529
 20
49.144110174941773
 30
0.0
 40
20.0
 50
270.0
 51
292.89055165624632
  0
LINE
  5
6589
  8
1外形線
 10
188.78343871096379
 20
31.426602280346678
 30
0.0
 11
182.74400657725309
 21
28.8766198238913
 31
0.0
  0
ARC
  5
658A
  8
1外形線
 10
174.1866217623656
 20
49.144110174942107
 30
0.0
 40
22.0
 50
270.0
 51
292.89055165624632
  0
LINE
  5
658B
  8
1外形線
 10
193.73577857002769
 20
44.844110174941243
 30
0.0
 11
171.73577857002769
 21
44.844110174941243
 31
0.0
  0
LINE
  5
658C
  8
1外形線
 10
193.73577857002769
 20
43.844110174941299
 30
0.0
 11
172.73577857002769
 21
43.844110174941299
 31
0.0
  0
LINE
  5
658D
  8
1外形線
 10
193.73577857002769
 20
39.844110174941363
 30
0.0
 11
171.73577857002769
 21
39.844110174941299
 31
0.0
  0
LINE
  5
658E
  8
1外形線
 10
188.0054946368829
 20
33.269101403169252
 30
0.0
 11
181.96606250317211
 21
30.71911894671387
 31
0.0
  0
LINE
  5
658F
  8
1外形線
 10
171.73577857002769
 20
39.844110174941299
 30
0.0
 11
171.73577857002769
 21
44.844110174941306
 31
0.0
  0
LINE
  5
6590
  8
1外形線
 10
172.73577857002769
 20
39.844110174941299
 30
0.0
 11
172.73577857002769
 21
43.844110174941299
 31
0.0
  0
LINE
  5
6591
  8
1外形線
 10
193.73577857002769
 20
44.844110174941306
 30
0.0
 11
193.73577857002769
 21
39.844110174941363
 31
0.0
  0
LINE
  5
6592
  8
1外形線
 10
195.73577857002769
 20
44.344110174941527
 30
0.0
 11
209.73577857002769
 21
44.344110174941648
 31
0.0
  0
LINE
  5
6593
  8
1外形線
 10
210.73577857002769
 20
34.844110174941363
 30
0.0
 11
195.78493537768969
 21
34.844110174941363
 31
0.0
  0
LINE
  5
6594
  8
1外形線
 10
202.2246215070316
 20
32.992994468641712
 30
0.0
 11
209.83528228904859
 21
33.754060546843611
 31
0.0
  0
ARC
  5
6595
  8
1外形線
 10
199.23950993640099
 20
62.844110174941363
 30
0.0
 40
30.0
 50
270.0
 51
275.71059313750061
  0
LINE
  5
6596
  8
1外形線
 10
199.23950993640099
 20
32.844110174941363
 30
0.0
 11
195.78493537768961
 21
32.84411017494147
 31
0.0
  0
ARC
  5
6597
  8
1外形線
 10
209.73577857002769
 20
34.74909773705366
 30
0.0
 40
1.0
 50
275.71059313750061
 51
0.0
  0
ARC
  5
6598
  8
1外形線
 10
209.73577857002769
 20
45.344110174941193
 30
0.0
 40
1.0
 50
270.0
 51
0.0
  0
ARC
  5
6599
  8
1外形線
 10
195.78493537768961
 20
98.844110174941193
 30
0.0
 40
18.0
 50
247.10944834375499
 51
270.0
  0
ARC
  5
659A
  8
1外形線
 10
195.78493537768969
 20
98.844110174941434
 30
0.0
 40
20.0
 50
247.1094483437536
 51
270.0
  0
LINE
  5
659B
  8
1外形線
 10
172.73577857002769
 20
73.844110174941306
 30
0.0
 11
172.73577857002769
 21
69.844110174941306
 31
0.0
  0
LINE
  5
659C
  8
1外形線
 10
193.73577857002769
 20
68.844110174941306
 30
0.0
 11
193.73577857002769
 21
73.84411017494125
 31
0.0
  0
LINE
  5
659D
  8
1外形線
 10
171.73577857002769
 20
73.844110174941306
 30
0.0
 11
171.73577857002769
 21
68.844110174941306
 31
0.0
  0
LINE
  5
659E
  8
1外形線
 10
193.73577857002769
 20
69.844110174941306
 30
0.0
 11
172.73577857002769
 21
69.844110174941306
 31
0.0
  0
LINE
  5
659F
  8
1外形線
 10
180.83577857002771
 20
54.744110174941341
 30
0.0
 11
184.6357785700277
 21
54.744110174941341
 31
0.0
  0
LINE
  5
65A0
  8
1外形線
 10
184.6357785700277
 20
58.944110174941329
 30
0.0
 11
180.83577857002771
 21
58.944110174941329
 31
0.0
  0
LINE
  5
65A1
  8
1外形線
 10
193.73577857002769
 20
68.844110174941363
 30
0.0
 11
171.73577857002769
 21
68.844110174941363
 31
0.0
  0
ARC
  5
65A2
  8
1外形線
 10
180.83577857002771
 20
56.844110174941306
 30
0.0
 40
2.1000000000000001
 50
90.0
 51
270.0
  0
ARC
  5
65A3
  8
1外形線
 10
184.6357785700277
 20
56.844110174941306
 30
0.0
 40
2.1000000000000001
 50
270.0
 51
90.0
  0
LINE
  5
65A4
  8
1外形線
 10
188.0054946368829
 20
80.419118946713425
 30
0.0
 11
181.96606250317211
 21
82.969101403168807
 31
0.0
  0
LINE
  5
65A5
  8
1外形線
 10
188.78343871096379
 20
82.261618069535984
 30
0.0
 11
182.74400657725309
 21
84.811600525991366
 31
0.0
  0
LINE
  5
65A6
  8
1外形線
 10
193.73577857002769
 20
73.84411017494125
 30
0.0
 11
171.73577857002769
 21
73.844110174941306
 31
0.0
  0
ARC
  5
65A7
  8
1外形線
 10
174.18662176236529
 20
64.544110174940954
 30
0.0
 40
20.0
 50
67.109448343753613
 51
90.0
  0
ARC
  5
65A8
  8
1外形線
 10
174.1866217623656
 20
64.544110174940613
 30
0.0
 40
22.0
 50
67.109448343753613
 51
90.0
  0
LINE
  5
65A9
  8
1外形線
 10
195.73577857002769
 20
69.344110174941079
 30
0.0
 11
209.73577857002769
 21
69.344110174940965
 31
0.0
  0
ARC
  5
65AA
  8
1外形線
 10
209.73577857002769
 20
68.34411017494142
 30
0.0
 40
1.0
 50
0.0
 51
90.0
  0
LINE
  5
65AB
  8
1外形線
 10
202.2246215070316
 20
80.695225881241058
 30
0.0
 11
209.83528228904859
 21
79.934159803039051
 31
0.0
  0
LINE
  5
65AC
  8
1外形線
 10
210.73577857002769
 20
78.84411017494142
 30
0.0
 11
195.78493537768969
 21
78.84411017494142
 31
0.0
  0
ARC
  5
65AD
  8
1外形線
 10
199.23950993640099
 20
50.84411017494137
 30
0.0
 40
30.0
 50
84.289406862499419
 51
90.0
  0
LINE
  5
65AE
  8
1外形線
 10
199.23950993640099
 20
80.84411017494142
 30
0.0
 11
195.78493537768961
 21
80.844110174941193
 31
0.0
  0
ARC
  5
65AF
  8
1外形線
 10
209.73577857002769
 20
78.93912261282901
 30
0.0
 40
1.0
 50
0.0
 51
84.289406862499419
  0
LINE
  5
65B0
  8
1外形線
 10
108.7357785700282
 20
112.5199401954049
 30
0.0
 11
210.73577857002749
 21
112.5199401954048
 31
0.0
  0
LINE
  5
65B1
  8
1外形線
 10
110.7357785700281
 20
158.51994019540481
 30
0.0
 11
177.12807580727909
 21
158.5199401954049
 31
0.0
  0
CIRCLE
  5
65B2
  8
1外形線
 10
61.114237215672567
 20
133.51994019540399
 30
0.0
 40
18.0
  0
LINE
  5
65B3
  8
1外形線
 10
90.814541871760241
 20
112.5199401954046
 30
0.0
 11
31.413932559585021
 21
112.5199401954046
 31
0.0
  0
ARC
  5
65B4
  8
1外形線
 10
61.114237215672567
 20
129.01994019540481
 30
0.0
 40
29.5
 50
5.5307124014258013
 51
174.46928759857411
  0
LINE
  5
65B5
  8
1外形線
 10
31.75156918739151
 20
131.86312964758071
 30
0.0
 11
31.413932559584961
 21
112.5199401954045
 31
0.0
  0
LINE
  5
65B6
  8
1外形線
 10
33.78079357916544
 20
133.51994019540419
 30
0.0
 11
33.414237215672749
 21
112.5199401954046
 31
0.0
  0
LINE
  5
65B7
  8
1外形線
 10
33.78079357916544
 20
133.51994019540419
 30
0.0
 11
43.114237215672567
 21
133.5199401954041
 31
0.0
  0
LINE
  5
65B8
  8
1外形線
 10
108.7357785700282
 20
112.5199401954049
 30
0.0
 11
108.7357785700281
 21
156.51994019540481
 31
0.0
  0
LINE
  5
65B9
  8
1外形線
 10
90.476905243953524
 20
131.86312964758071
 30
0.0
 11
90.814541871760184
 21
112.5199401954045
 31
0.0
  0
LINE
  5
65BA
  8
1外形線
 10
88.447680852179687
 20
133.51994019540419
 30
0.0
 11
88.814237215672392
 21
112.5199401954046
 31
0.0
  0
LINE
  5
65BB
  8
1外形線
 10
88.447680852179687
 20
133.51994019540419
 30
0.0
 11
79.114237215672574
 21
133.5199401954041
 31
0.0
  0
LINE
  5
65BC
  8
1外形線
 10
108.7357785700282
 20
133.51994019540419
 30
0.0
 11
108.7357785700282
 21
112.5199401954049
 31
0.0
  0
ARC
  5
65BD
  8
1外形線
 10
110.7357785700281
 20
156.51994019540481
 30
0.0
 40
2.0
 50
90.0
 51
180.0
  0
LINE
  5
65BE
  8
1外形線
 10
210.73577857002749
 20
155.1149526332926
 30
0.0
 11
210.73577857002749
 21
112.5199401954049
 31
0.0
  0
LINE
  5
65BF
  8
1外形線
 10
192.84348133277601
 20
157.01994019540481
 30
0.0
 11
199.23950993640091
 21
157.01994019540481
 31
0.0
  0
LINE
  5
65C0
  8
1外形線
 10
190.8557138634288
 20
157.13003297127969
 30
0.0
 11
179.557569380926
 21
158.38538235822449
 31
0.0
  0
ARC
  5
65C1
  8
1外形線
 10
177.12807580727909
 20
136.5199401954049
 30
0.0
 40
22.0
 50
83.659808254089825
 51
90.0
  0
ARC
  5
65C2
  8
1外形線
 10
192.84348133277601
 20
175.01994019540481
 30
0.0
 40
18.0
 50
263.65980825409002
 51
270.0
  0
LINE
  5
65C3
  8
1外形線
 10
202.22462150703089
 20
156.87105590170441
 30
0.0
 11
209.83528228904851
 21
156.1099898235027
 31
0.0
  0
ARC
  5
65C4
  8
1外形線
 10
199.23950993640091
 20
127.0199401954048
 30
0.0
 40
30.0
 50
84.289406862499419
 51
90.0
  0
ARC
  5
65C5
  8
1外形線
 10
209.73577857002761
 20
155.1149526332926
 30
0.0
 40
1.0
 50
0.0
 51
84.289406862501053
  0
LINE
  5
65C6
  8
1外形線
 10
225.78148025944509
 20
112.5199401954049
 30
0.0
 11
285.18208957162028
 21
112.5199401954048
 31
0.0
  0
ARC
  5
65C7
  8
1外形線
 10
255.48178491553259
 20
133.0199401954047
 30
0.0
 40
23.999999999999879
 50
0.0
 51
180.0
  0
ARC
  5
65C8
  8
1外形線
 10
255.48178491553259
 20
133.0199401954047
 30
0.0
 40
21.999999999999879
 50
0.0
 51
180.0
  0
ARC
  5
65C9
  8
1外形線
 10
255.48178491553259
 20
129.01994019540351
 30
0.0
 40
29.5
 50
5.5307124014258013
 51
90.0
  0
LINE
  5
65CA
  8
1外形線
 10
267.98178491553301
 20
115.01994019540579
 30
0.0
 11
255.4817849155325
 21
115.01994019540579
 31
0.0
  0
LINE
  5
65CB
  8
1外形線
 10
273.48178491553239
 20
118.51994019540579
 30
0.0
 11
266.48178491553301
 21
118.51994019540579
 31
0.0
  0
ARC
  5
65CC
  8
1外形線
 10
255.48178491553259
 20
129.01994019540351
 30
0.0
 40
29.5
 50
90.0
 51
174.46928759857411
  0
LINE
  5
65CD
  8
1外形線
 10
237.48178491553259
 20
118.51994019540579
 30
0.0
 11
244.4817849155321
 21
118.51994019540579
 31
0.0
  0
LINE
  5
65CE
  8
1外形線
 10
231.48178491553259
 20
112.5199401954049
 30
0.0
 11
231.48178491553259
 21
133.01994019540459
 31
0.0
  0
LINE
  5
65CF
  8
1外形線
 10
233.48178491553259
 20
112.5199401954049
 30
0.0
 11
233.48178491553259
 21
133.0199401954047
 31
0.0
  0
LINE
  5
65D0
  8
1外形線
 10
226.11911688725161
 20
131.86312964757951
 30
0.0
 11
225.781480259445
 21
112.51994019540329
 31
0.0
  0
LINE
  5
65D1
  8
1外形線
 10
236.48178491553259
 20
117.51994019540579
 30
0.0
 11
236.48178491553259
 21
115.5199401954057
 31
0.0
  0
ARC
  5
65D2
  8
1外形線
 10
235.48178491553259
 20
115.5199401954057
 30
0.0
 40
1.0
 50
269.99999999999829
 51
0.0
  0
LINE
  5
65D3
  8
1外形線
 10
233.4817849155325
 20
114.5199401954057
 30
0.0
 11
235.48178491553259
 21
114.5199401954057
 31
0.0
  0
ARC
  5
65D4
  8
1外形線
 10
237.48178491553259
 20
117.51994019540579
 30
0.0
 40
1.0
 50
90.0
 51
180.0
  0
LINE
  5
65D5
  8
1外形線
 10
266.48178491553301
 20
118.51994019540579
 30
0.0
 11
266.48178491553301
 21
117.01994019540579
 31
0.0
  0
LINE
  5
65D6
  8
1外形線
 10
242.9817849155321
 20
118.51994019540579
 30
0.0
 11
242.9817849155321
 21
115.01994019540579
 31
0.0
  0
LINE
  5
65D7
  8
1外形線
 10
244.4817849155321
 20
118.51994019540579
 30
0.0
 11
244.4817849155321
 21
117.01994019540579
 31
0.0
  0
LINE
  5
65D8
  8
1外形線
 10
242.9817849155321
 20
115.01994019540579
 30
0.0
 11
255.4817849155325
 21
115.01994019540579
 31
0.0
  0
LINE
  5
65D9
  8
1外形線
 10
244.4817849155321
 20
117.01994019540579
 30
0.0
 11
255.4817849155325
 21
117.01994019540579
 31
0.0
  0
LINE
  5
65DA
  8
1外形線
 10
266.48178491553301
 20
117.01994019540579
 30
0.0
 11
255.4817849155325
 21
117.01994019540579
 31
0.0
  0
LINE
  5
65DB
  8
1外形線
 10
279.48178491553261
 20
112.5199401954049
 30
0.0
 11
279.48178491553261
 21
133.0199401954047
 31
0.0
  0
LINE
  5
65DC
  8
1外形線
 10
277.48178491553261
 20
112.5199401954049
 30
0.0
 11
277.48178491553261
 21
133.0199401954047
 31
0.0
  0
LINE
  5
65DD
  8
1外形線
 10
284.84445294381362
 20
131.86312964757951
 30
0.0
 11
285.18208957162028
 21
112.51994019540329
 31
0.0
  0
LINE
  5
65DE
  8
1外形線
 10
274.48178491553239
 20
117.51994019540579
 30
0.0
 11
274.48178491553239
 21
115.5199401954057
 31
0.0
  0
LINE
  5
65DF
  8
1外形線
 10
267.98178491553301
 20
118.51994019540579
 30
0.0
 11
267.98178491553301
 21
115.01994019540579
 31
0.0
  0
ARC
  5
65E0
  8
1外形線
 10
275.48178491553239
 20
115.5199401954057
 30
0.0
 40
1.0
 50
180.0
 51
270.00000000000159
  0
LINE
  5
65E1
  8
1外形線
 10
277.48178491553261
 20
114.5199401954057
 30
0.0
 11
275.48178491553239
 21
114.5199401954057
 31
0.0
  0
ARC
  5
65E2
  8
1外形線
 10
273.48178491553239
 20
117.51994019540579
 30
0.0
 40
1.0
 50
0.0
 51
90.0
  0
ENDSEC
  0
EOF
