  0
SECTION
  2
HEADER
  9
$ACADVER
  1
AC1009
  9
$INSBASE
 10
0.0
 20
0.0
 30
0.0
  9
$EXTMIN
 10
45.058252013225569
 20
50.882079880255958
 30
0.0
  9
$EXTMAX
 10
328.62129615286818
 20
146.7962934426323
 30
0.0
  9
$LIMMIN
 10
0.0
 20
0.0
  9
$LIMMAX
 10
420.0
 20
297.0
  9
$ORTHOMODE
 70
     0
  9
$REGENMODE
 70
     1
  9
$FILLMODE
 70
     1
  9
$QTEXTMODE
 70
     0
  9
$MIRRTEXT
 70
     1
  9
$DRAGMODE
 70
     2
  9
$LTSCALE
 40
1.0
  9
$OSMODE
 70
    37
  9
$ATTMODE
 70
     1
  9
$TEXTSIZE
 40
2.5
  9
$TRACEWID
 40
1.0
  9
$TEXTSTYLE
  7
STANDARD
  9
$CLAYER
  8
0
  9
$CELTYPE
  6
BYLAYER
  9
$CECOLOR
 62
   256
  9
$DIMSCALE
 40
1.0
  9
$DIMASZ
 40
2.5
  9
$DIMEXO
 40
0.625
  9
$DIMDLI
 40
3.75
  9
$DIMRND
 40
0.0
  9
$DIMDLE
 40
0.0
  9
$DIMEXE
 40
1.25
  9
$DIMTP
 40
0.0
  9
$DIMTM
 40
0.0
  9
$DIMTXT
 40
2.5
  9
$DIMCEN
 40
2.5
  9
$DIMTSZ
 40
0.0
  9
$DIMTOL
 70
     0
  9
$DIMLIM
 70
     0
  9
$DIMTIH
 70
     0
  9
$DIMTOH
 70
     0
  9
$DIMSE1
 70
     0
  9
$DIMSE2
 70
     0
  9
$DIMTAD
 70
     1
  9
$DIMZIN
 70
     8
  9
$DIMBLK
  1

  9
$DIMASO
 70
     1
  9
$DIMSHO
 70
     1
  9
$DIMPOST
  1

  9
$DIMAPOST
  1

  9
$DIMALT
 70
     0
  9
$DIMALTD
 70
     3
  9
$DIMALTF
 40
0.03937007874016
  9
$DIMLFAC
 40
1.0
  9
$DIMTOFL
 70
     1
  9
$DIMTVP
 40
0.0
  9
$DIMTIX
 70
     0
  9
$DIMSOXD
 70
     0
  9
$DIMSAH
 70
     0
  9
$DIMBLK1
  1

  9
$DIMBLK2
  1

  9
$DIMSTYLE
  2
ISO-25
  9
$DIMCLRD
 70
     0
  9
$DIMCLRE
 70
     0
  9
$DIMCLRT
 70
     0
  9
$DIMTFAC
 40
1.0
  9
$DIMGAP
 40
0.625
  9
$LUNITS
 70
     2
  9
$LUPREC
 70
     4
  9
$SKETCHINC
 40
1.0
  9
$FILLETRAD
 40
10.0
  9
$AUNITS
 70
     0
  9
$AUPREC
 70
     0
  9
$MENU
  1
.
  9
$ELEVATION
 40
0.0
  9
$PELEVATION
 40
0.0
  9
$THICKNESS
 40
0.0
  9
$LIMCHECK
 70
     0
  9
$BLIPMODE
 70
     0
  9
$CHAMFERA
 40
10.0
  9
$CHAMFERB
 40
10.0
  9
$SKPOLY
 70
     0
  9
$TDCREATE
 40
2452451.593229895
  9
$TDUPDATE
 40
2452451.5934042241
  9
$TDINDWG
 40
0.0001746759
  9
$TDUSRTIMER
 40
0.0001746759
  9
$USRTIMER
 70
     1
  9
$ANGBASE
 50
0.0
  9
$ANGDIR
 70
     0
  9
$PDMODE
 70
     0
  9
$PDSIZE
 40
0.0
  9
$PLINEWID
 40
0.0
  9
$COORDS
 70
     1
  9
$SPLFRAME
 70
     0
  9
$SPLINETYPE
 70
     6
  9
$SPLINESEGS
 70
     8
  9
$ATTDIA
 70
     0
  9
$ATTREQ
 70
     1
  9
$HANDLING
 70
-16383
  9
$HANDSEED
  5
94
  9
$SURFTAB1
 70
     6
  9
$SURFTAB2
 70
     6
  9
$SURFTYPE
 70
     6
  9
$SURFU
 70
     6
  9
$SURFV
 70
     6
  9
$UCSNAME
  2

  9
$UCSORG
 10
0.0
 20
0.0
 30
0.0
  9
$UCSXDIR
 10
1.0
 20
0.0
 30
0.0
  9
$UCSYDIR
 10
0.0
 20
1.0
 30
0.0
  9
$PUCSNAME
  2

  9
$PUCSORG
 10
0.0
 20
0.0
 30
0.0
  9
$PUCSXDIR
 10
1.0
 20
0.0
 30
0.0
  9
$PUCSYDIR
 10
0.0
 20
1.0
 30
0.0
  9
$USERI1
 70
     0
  9
$USERI2
 70
     0
  9
$USERI3
 70
     0
  9
$USERI4
 70
     0
  9
$USERI5
 70
     0
  9
$USERR1
 40
0.0
  9
$USERR2
 40
0.0
  9
$USERR3
 40
0.0
  9
$USERR4
 40
0.0
  9
$USERR5
 40
0.0
  9
$WORLDVIEW
 70
     1
  9
$SHADEDGE
 70
     3
  9
$SHADEDIF
 70
    70
  9
$TILEMODE
 70
     1
  9
$MAXACTVP
 70
    64
  9
$PLIMCHECK
 70
     0
  9
$PEXTMIN
 10
1.0000000000000000E+020
 20
1.0000000000000000E+020
 30
1.0000000000000000E+020
  9
$PEXTMAX
 10
-1.0000000000000000E+020
 20
-1.0000000000000000E+020
 30
-1.0000000000000000E+020
  9
$PLIMMIN
 10
0.0
 20
0.0
  9
$PLIMMAX
 10
420.0
 20
297.0
  9
$UNITMODE
 70
     0
  9
$VISRETAIN
 70
     1
  9
$PLINEGEN
 70
     0
  9
$PSLTSCALE
 70
     1
  0
ENDSEC
  0
SECTION
  2
TABLES
  0
TABLE
  2
VPORT
 70
     3
  0
VPORT
  2
*ACTIVE
 70
     0
 10
0.0
 20
0.0
 11
1.0
 21
1.0
 12
209.99999999999989
 22
159.7959183673469
 13
0.0
 23
0.0
 14
10.0
 24
10.0
 15
10.0
 25
10.0
 16
0.0
 26
0.0
 36
1.0
 17
0.0
 27
0.0
 37
0.0
 40
319.5918367346938
 41
1.3141762452107271
 42
50.0
 43
0.0
 44
0.0
 50
0.0
 51
0.0
 71
     0
 72
   100
 73
     1
 74
     3
 75
     0
 76
     0
 77
     0
 78
     0
  0
ENDTAB
  0
TABLE
  2
LTYPE
 70
     1
  0
LTYPE
  2
CONTINUOUS
 70
     0
  3
Solid line
 72
    65
 73
     0
 40
0.0
  0
ENDTAB
  0
TABLE
  2
LAYER
 70
     2
  0
LAYER
  2
0
 70
     0
 62
     7
  6
CONTINUOUS
  0
LAYER
  2
1外形線
 70
     0
 62
     3
  6
CONTINUOUS
  0
ENDTAB
  0
TABLE
  2
STYLE
 70
     2
  0
STYLE
  2
STANDARD
 70
     0
 40
0.0
 41
1.0
 50
0.0
 71
     0
 42
2.5
  3
txt
  4

  0
STYLE
  2
KANJI
 70
     0
 40
0.0
 41
1.0
 50
0.0
 71
     0
 42
8.0
  3
simplex
  4
bigfont
  0
ENDTAB
  0
TABLE
  2
VIEW
 70
     0
  0
ENDTAB
  0
TABLE
  2
UCS
 70
     0
  0
ENDTAB
  0
TABLE
  2
APPID
 70
     1
  0
APPID
  2
ACAD
 70
     0
  0
ENDTAB
  0
TABLE
  2
DIMSTYLE
 70
     2
  0
DIMSTYLE
  2
ISO-25
 70
     0
  3

  4

  5

  6

  7

 40
1.0
 41
2.5
 42
0.625
 43
3.75
 44
1.25
 45
0.0
 46
0.0
 47
0.0
 48
0.0
140
2.5
141
2.5
142
0.0
143
0.03937007874016
144
1.0
145
0.0
146
1.0
147
0.625
 71
     0
 72
     0
 73
     0
 74
     0
 75
     0
 76
     0
 77
     1
 78
     8
170
     0
171
     3
172
     1
173
     0
174
     0
175
     0
176
     0
177
     0
178
     0
  0
DIMSTYLE
  2
STANDARD
 70
     0
  3

  4

  5

  6
1
  7
1
 40
1.0
 41
1.0
 42
1.0
 43
6.0
 44
1.0
 45
0.0
 46
0.0
 47
0.0
 48
0.0
140
2.5
141
0.0
142
0.0
143
25.399999999999999
144
1.0
145
0.0
146
1.0
147
0.5
 71
     0
 72
     0
 73
     0
 74
     0
 75
     0
 76
     0
 77
     1
 78
     8
170
     0
171
     2
172
     1
173
     1
174
     0
175
     0
176
     0
177
     0
178
     0
  0
ENDTAB
  0
ENDSEC
  0
SECTION
  2
BLOCKS
  0
BLOCK
  8
0
  2
$MODEL_SPACE
 70
     0
 10
0.0
 20
0.0
 30
0.0
  3
$MODEL_SPACE
  1

  0
ENDBLK
  5
21
  8
0
  0
BLOCK
 67
     1
  8
0
  2
$PAPER_SPACE
 70
     0
 10
0.0
 20
0.0
 30
0.0
  3
$PAPER_SPACE
  1

  0
ENDBLK
  5
1D
 67
     1
  8
0
  0
BLOCK
  8
0
  2
1
 70
     0
 10
0.0
 20
0.0
 30
0.0
  3
1
  1

  0
SOLID
  5
2C
  8
0
  6
BYBLOCK
 62
     0
 10
-1.811110924292052
 20
0.4852857095671653
 30
0.0
 11
-1.811110924292052
 21
-0.4852857095673642
 31
0.0
 12
0.0
 22
0.0
 32
0.0
 13
0.0
 23
0.0
 33
0.0
  0
ENDBLK
  5
2E
  8
0
  0
ENDSEC
  0
SECTION
  2
ENTITIES
  0
ARC
  5
62
  8
1外形線
 10
287.12129615286818
 20
69.882079880256413
 30
0.0
 40
19.000000000000451
 50
359.99999999999829
 51
180.0
  0
ARC
  5
63
  8
1外形線
 10
287.12129615286801
 20
106.08764909683239
 30
0.0
 40
19.000000000000451
 50
359.99999999999829
 51
180.0
  0
ARC
  5
64
  8
1外形線
 62
     3
 10
287.12129615286818
 20
104.8820798802593
 30
0.0
 40
41.5
 50
0.0
 51
180.00000000000239
  0
LINE
  5
65
  8
1外形線
 10
262.05022834100379
 20
53.382079880261472
 30
0.0
 11
262.05022834100288
 21
136.68917906853559
 31
0.0
  0
LINE
  5
66
  8
1外形線
 10
266.12129615285892
 20
139.51226902209919
 30
0.0
 11
266.12129615286818
 21
53.382079880261472
 31
0.0
  0
ARC
  5
67
  8
1外形線
 62
     3
 10
86.558252013228071
 20
104.8820798802589
 30
0.0
 40
21.0
 50
359.99999999999829
 51
179.99999999999829
  0
LINE
  5
68
  8
1外形線
 62
     3
 10
158.5472021169131
 20
90.175733856383616
 30
0.0
 11
214.83521591504001
 21
125.2947719280056
 31
0.0
  0
LINE
  5
69
  8
1外形線
 62
     3
 10
215.77654004962369
 20
144.38207988025931
 30
0.0
 11
215.77654004962369
 21
52.382079880261472
 31
0.0
  0
LINE
  5
6A
  8
1外形線
 10
218.0765400496233
 20
52.382079880261472
 30
0.0
 11
218.07654004962299
 21
146.38207988025931
 31
0.0
  0
ARC
  5
6B
  8
1外形線
 62
     3
 10
86.558252013227843
 20
104.8820798802593
 30
0.0
 40
41.5
 50
0.0
 51
180.00000000000199
  0
LINE
  5
6C
  8
1外形線
 62
     3
 10
105.5582520132273
 20
52.382079880261578
 30
0.0
 11
128.05825201322779
 21
52.382079880260108
 31
0.0
  0
ARC
  5
6D
  8
1外形線
 62
     3
 10
86.558252013227843
 20
69.882079880256924
 30
0.0
 40
19.0
 50
0.0
 51
180.0
  0
ARC
  5
6E
  8
1外形線
 62
     3
 10
86.558252013227843
 20
69.882079880256924
 30
0.0
 40
20.0
 50
0.0
 51
180.0
  0
LINE
  5
6F
  8
1外形線
 62
     3
 10
45.058252013227381
 20
52.382079880264989
 30
0.0
 11
45.058252013225569
 21
104.88207988025771
 31
0.0
  0
LINE
  5
70
  8
1外形線
 62
     3
 10
65.55825201322898
 20
104.8820798802595
 30
0.0
 11
65.558252013227388
 21
52.382079880258402
 31
0.0
  0
LINE
  5
71
  8
1外形線
 62
     3
 10
45.058252013227381
 20
52.382079880261472
 30
0.0
 11
67.558252013227388
 21
52.382079880261472
 31
0.0
  0
LINE
  5
72
  8
1外形線
 62
     3
 10
67.558252013227388
 20
69.882079880256924
 30
0.0
 11
67.558252013227388
 21
52.382079880262829
 31
0.0
  0
LINE
  5
73
  8
1外形線
 62
     3
 10
66.558252013227388
 20
69.882079880256924
 30
0.0
 11
66.558252013227388
 21
52.382079880262829
 31
0.0
  0
LINE
  5
74
  8
1外形線
 62
     3
 10
107.55825201322889
 20
104.8820798802583
 30
0.0
 11
107.5582520132273
 21
52.382079880258061
 31
0.0
  0
LINE
  5
75
  8
1外形線
 62
     3
 10
105.5582520132278
 20
69.882079880256924
 30
0.0
 11
105.5582520132273
 21
52.382079880262829
 31
0.0
  0
LINE
  5
76
  8
1外形線
 62
     3
 10
106.5582520132278
 20
69.882079880256896
 30
0.0
 11
106.5582520132273
 21
52.382079880262808
 31
0.0
  0
LINE
  5
77
  8
1外形線
 10
158.0765400496235
 20
52.382079880261472
 30
0.0
 11
218.0765400496233
 21
52.382079880261472
 31
0.0
  0
LINE
  5
78
  8
1外形線
 62
     3
 10
158.0765400496212
 20
89.327322780904097
 30
0.0
 11
158.0765400496237
 21
52.382079880261472
 31
0.0
  0
LINE
  5
79
  8
1外形線
 62
     3
 10
128.05825201322779
 20
52.382079880267383
 30
0.0
 11
128.05825201322779
 21
104.8820798802593
 31
0.0
  0
ARC
  5
7A
  8
1外形線
 62
     3
 10
159.0765400496212
 20
89.327322780904154
 30
0.0
 40
1.0
 50
121.96073251613031
 51
180.00000000000321
  0
LINE
  5
7B
  8
1外形線
 62
     3
 10
245.6212961528677
 20
52.382079880261472
 30
0.0
 11
268.12129615286773
 21
52.382079880261472
 31
0.0
  0
LINE
  5
7C
  8
1外形線
 62
     3
 10
245.6212961528677
 20
52.382079880264989
 30
0.0
 11
245.62129615286551
 21
104.88207988025751
 31
0.0
  0
CIRCLE
  5
7D
  8
1外形線
 10
255.62129615286861
 20
62.38207988025988
 30
0.0
 40
2.1000000000000001
  0
LINE
  5
7E
  8
1外形線
 62
     3
 10
268.12129615286801
 20
106.08764909683239
 30
0.0
 11
268.12129615286773
 21
52.382079880262829
 31
0.0
  0
LINE
  5
7F
  8
1外形線
 62
     3
 10
262.05022834100311
 20
53.382079880261472
 30
0.0
 11
266.12129615286818
 21
53.382079880261472
 31
0.0
  0
ARC
  5
80
  8
1外形線
 62
     3
 10
213.7765400496238
 20
126.9915940789646
 30
0.0
 40
2.0
 50
301.96073251613041
 51
0.0
  0
LINE
  5
81
  8
1外形線
 62
     3
 10
218.0765400496233
 20
146.38207988025931
 30
0.0
 11
217.77654004962369
 21
146.38207988025931
 31
0.0
  0
ARC
  5
82
  8
1外形線
 62
     3
 10
217.77654004962369
 20
144.38207988025931
 30
0.0
 40
2.0
 50
90.000000000001222
 51
179.9999999999996
  0
ARC
  5
83
  8
1外形線
 62
     3
 10
287.12129615286818
 20
104.8820798802593
 30
0.0
 40
40.499999999999993
 50
121.2329290155285
 51
128.24597002050439
  0
CIRCLE
  5
84
  8
1外形線
 10
287.12129615286841
 20
136.38207988025931
 30
0.0
 40
2.1000000000000001
  0
LINE
  5
85
  8
1外形線
 10
308.12129615287682
 20
139.51226902209959
 30
0.0
 11
308.1212961528671
 21
53.382079880261472
 31
0.0
  0
LINE
  5
86
  8
1外形線
 10
312.19236396473241
 20
53.382079880261472
 30
0.0
 11
312.19236396473241
 21
136.68917906853639
 31
0.0
  0
LINE
  5
87
  8
1外形線
 62
     3
 10
328.62129615286818
 20
52.382079880267383
 30
0.0
 11
328.62129615286818
 21
104.8820798802593
 31
0.0
  0
LINE
  5
88
  8
1外形線
 62
     3
 10
306.12129615286977
 20
106.0876490968317
 30
0.0
 11
306.12129615286773
 21
52.382079880262829
 31
0.0
  0
CIRCLE
  5
89
  8
1外形線
 10
318.62129615286909
 20
62.382079880267611
 30
0.0
 40
2.1000000000000001
  0
LINE
  5
8A
  8
1外形線
 62
     3
 10
306.12129615286773
 20
52.382079880261578
 30
0.0
 11
328.62129615286818
 21
52.382079880260108
 31
0.0
  0
LINE
  5
8B
  8
1外形線
 62
     3
 10
312.19236396473241
 20
53.382079880261472
 30
0.0
 11
308.12129615286727
 21
53.382079880261472
 31
0.0
  0
ARC
  5
8C
  8
1外形線
 62
     3
 10
287.12129615286818
 20
104.8820798802593
 30
0.0
 40
40.499999999999993
 50
51.754029979497233
 51
58.767070984472412
  0
ENDSEC
  0
EOF
