  0
SECTION
  2
HEADER
  9
$ACADVER
  1
AC1009
  9
$INSBASE
 10
0.0
 20
0.0
 30
0.0
  9
$EXTMIN
 10
36.902912078211777
 20
42.19101469260778
 30
0.0
  9
$EXTMAX
 10
328.79342304072242
 20
142.60522825498271
 30
0.0
  9
$LIMMIN
 10
0.0
 20
0.0
  9
$LIMMAX
 10
420.0
 20
297.0
  9
$ORTHOMODE
 70
     0
  9
$REGENMODE
 70
     1
  9
$FILLMODE
 70
     1
  9
$QTEXTMODE
 70
     0
  9
$MIRRTEXT
 70
     1
  9
$DRAGMODE
 70
     2
  9
$LTSCALE
 40
1.0
  9
$OSMODE
 70
    37
  9
$ATTMODE
 70
     1
  9
$TEXTSIZE
 40
2.5
  9
$TRACEWID
 40
1.0
  9
$TEXTSTYLE
  7
STANDARD
  9
$CLAYER
  8
0
  9
$CELTYPE
  6
BYLAYER
  9
$CECOLOR
 62
   256
  9
$DIMSCALE
 40
1.0
  9
$DIMASZ
 40
2.5
  9
$DIMEXO
 40
0.625
  9
$DIMDLI
 40
3.75
  9
$DIMRND
 40
0.0
  9
$DIMDLE
 40
0.0
  9
$DIMEXE
 40
1.25
  9
$DIMTP
 40
0.0
  9
$DIMTM
 40
0.0
  9
$DIMTXT
 40
2.5
  9
$DIMCEN
 40
2.5
  9
$DIMTSZ
 40
0.0
  9
$DIMTOL
 70
     0
  9
$DIMLIM
 70
     0
  9
$DIMTIH
 70
     0
  9
$DIMTOH
 70
     0
  9
$DIMSE1
 70
     0
  9
$DIMSE2
 70
     0
  9
$DIMTAD
 70
     1
  9
$DIMZIN
 70
     8
  9
$DIMBLK
  1

  9
$DIMASO
 70
     1
  9
$DIMSHO
 70
     1
  9
$DIMPOST
  1

  9
$DIMAPOST
  1

  9
$DIMALT
 70
     0
  9
$DIMALTD
 70
     3
  9
$DIMALTF
 40
0.03937007874016
  9
$DIMLFAC
 40
1.0
  9
$DIMTOFL
 70
     1
  9
$DIMTVP
 40
0.0
  9
$DIMTIX
 70
     0
  9
$DIMSOXD
 70
     0
  9
$DIMSAH
 70
     0
  9
$DIMBLK1
  1

  9
$DIMBLK2
  1

  9
$DIMSTYLE
  2
ISO-25
  9
$DIMCLRD
 70
     0
  9
$DIMCLRE
 70
     0
  9
$DIMCLRT
 70
     0
  9
$DIMTFAC
 40
1.0
  9
$DIMGAP
 40
0.625
  9
$LUNITS
 70
     2
  9
$LUPREC
 70
     4
  9
$SKETCHINC
 40
1.0
  9
$FILLETRAD
 40
10.0
  9
$AUNITS
 70
     0
  9
$AUPREC
 70
     0
  9
$MENU
  1
.
  9
$ELEVATION
 40
0.0
  9
$PELEVATION
 40
0.0
  9
$THICKNESS
 40
0.0
  9
$LIMCHECK
 70
     0
  9
$BLIPMODE
 70
     0
  9
$CHAMFERA
 40
10.0
  9
$CHAMFERB
 40
10.0
  9
$SKPOLY
 70
     0
  9
$TDCREATE
 40
2452451.5935807521
  9
$TDUPDATE
 40
2452451.5937168282
  9
$TDINDWG
 40
0.0001363079
  9
$TDUSRTIMER
 40
0.0001361921
  9
$USRTIMER
 70
     1
  9
$ANGBASE
 50
0.0
  9
$ANGDIR
 70
     0
  9
$PDMODE
 70
     0
  9
$PDSIZE
 40
0.0
  9
$PLINEWID
 40
0.0
  9
$COORDS
 70
     1
  9
$SPLFRAME
 70
     0
  9
$SPLINETYPE
 70
     6
  9
$SPLINESEGS
 70
     8
  9
$ATTDIA
 70
     0
  9
$ATTREQ
 70
     1
  9
$HANDLING
 70
-16383
  9
$HANDSEED
  5
92
  9
$SURFTAB1
 70
     6
  9
$SURFTAB2
 70
     6
  9
$SURFTYPE
 70
     6
  9
$SURFU
 70
     6
  9
$SURFV
 70
     6
  9
$UCSNAME
  2

  9
$UCSORG
 10
0.0
 20
0.0
 30
0.0
  9
$UCSXDIR
 10
1.0
 20
0.0
 30
0.0
  9
$UCSYDIR
 10
0.0
 20
1.0
 30
0.0
  9
$PUCSNAME
  2

  9
$PUCSORG
 10
0.0
 20
0.0
 30
0.0
  9
$PUCSXDIR
 10
1.0
 20
0.0
 30
0.0
  9
$PUCSYDIR
 10
0.0
 20
1.0
 30
0.0
  9
$USERI1
 70
     0
  9
$USERI2
 70
     0
  9
$USERI3
 70
     0
  9
$USERI4
 70
     0
  9
$USERI5
 70
     0
  9
$USERR1
 40
0.0
  9
$USERR2
 40
0.0
  9
$USERR3
 40
0.0
  9
$USERR4
 40
0.0
  9
$USERR5
 40
0.0
  9
$WORLDVIEW
 70
     1
  9
$SHADEDGE
 70
     3
  9
$SHADEDIF
 70
    70
  9
$TILEMODE
 70
     1
  9
$MAXACTVP
 70
    64
  9
$PLIMCHECK
 70
     0
  9
$PEXTMIN
 10
1.0000000000000000E+020
 20
1.0000000000000000E+020
 30
1.0000000000000000E+020
  9
$PEXTMAX
 10
-1.0000000000000000E+020
 20
-1.0000000000000000E+020
 30
-1.0000000000000000E+020
  9
$PLIMMIN
 10
0.0
 20
0.0
  9
$PLIMMAX
 10
420.0
 20
297.0
  9
$UNITMODE
 70
     0
  9
$VISRETAIN
 70
     1
  9
$PLINEGEN
 70
     0
  9
$PSLTSCALE
 70
     1
  0
ENDSEC
  0
SECTION
  2
TABLES
  0
TABLE
  2
VPORT
 70
     3
  0
VPORT
  2
*ACTIVE
 70
     0
 10
0.0
 20
0.0
 11
1.0
 21
1.0
 12
209.99999999999989
 22
159.7959183673469
 13
0.0
 23
0.0
 14
10.0
 24
10.0
 15
10.0
 25
10.0
 16
0.0
 26
0.0
 36
1.0
 17
0.0
 27
0.0
 37
0.0
 40
319.5918367346938
 41
1.3141762452107271
 42
50.0
 43
0.0
 44
0.0
 50
0.0
 51
0.0
 71
     0
 72
   100
 73
     1
 74
     3
 75
     0
 76
     0
 77
     0
 78
     0
  0
ENDTAB
  0
TABLE
  2
LTYPE
 70
     1
  0
LTYPE
  2
CONTINUOUS
 70
     0
  3
Solid line
 72
    65
 73
     0
 40
0.0
  0
ENDTAB
  0
TABLE
  2
LAYER
 70
     2
  0
LAYER
  2
0
 70
     0
 62
     7
  6
CONTINUOUS
  0
LAYER
  2
1外形線
 70
     0
 62
     3
  6
CONTINUOUS
  0
ENDTAB
  0
TABLE
  2
STYLE
 70
     2
  0
STYLE
  2
STANDARD
 70
     0
 40
0.0
 41
1.0
 50
0.0
 71
     0
 42
2.5
  3
txt
  4

  0
STYLE
  2
KANJI
 70
     0
 40
0.0
 41
1.0
 50
0.0
 71
     0
 42
8.0
  3
simplex
  4
bigfont
  0
ENDTAB
  0
TABLE
  2
VIEW
 70
     0
  0
ENDTAB
  0
TABLE
  2
UCS
 70
     0
  0
ENDTAB
  0
TABLE
  2
APPID
 70
     1
  0
APPID
  2
ACAD
 70
     0
  0
ENDTAB
  0
TABLE
  2
DIMSTYLE
 70
     2
  0
DIMSTYLE
  2
ISO-25
 70
     0
  3

  4

  5

  6

  7

 40
1.0
 41
2.5
 42
0.625
 43
3.75
 44
1.25
 45
0.0
 46
0.0
 47
0.0
 48
0.0
140
2.5
141
2.5
142
0.0
143
0.03937007874016
144
1.0
145
0.0
146
1.0
147
0.625
 71
     0
 72
     0
 73
     0
 74
     0
 75
     0
 76
     0
 77
     1
 78
     8
170
     0
171
     3
172
     1
173
     0
174
     0
175
     0
176
     0
177
     0
178
     0
  0
DIMSTYLE
  2
STANDARD
 70
     0
  3

  4

  5

  6
1
  7
1
 40
1.0
 41
1.0
 42
1.0
 43
6.0
 44
1.0
 45
0.0
 46
0.0
 47
0.0
 48
0.0
140
2.5
141
0.0
142
0.0
143
25.399999999999999
144
1.0
145
0.0
146
1.0
147
0.5
 71
     0
 72
     0
 73
     0
 74
     0
 75
     0
 76
     0
 77
     1
 78
     8
170
     0
171
     2
172
     1
173
     1
174
     0
175
     0
176
     0
177
     0
178
     0
  0
ENDTAB
  0
ENDSEC
  0
SECTION
  2
BLOCKS
  0
BLOCK
  8
0
  2
$MODEL_SPACE
 70
     0
 10
0.0
 20
0.0
 30
0.0
  3
$MODEL_SPACE
  1

  0
ENDBLK
  5
21
  8
0
  0
BLOCK
 67
     1
  8
0
  2
$PAPER_SPACE
 70
     0
 10
0.0
 20
0.0
 30
0.0
  3
$PAPER_SPACE
  1

  0
ENDBLK
  5
1D
 67
     1
  8
0
  0
BLOCK
  8
0
  2
1
 70
     0
 10
0.0
 20
0.0
 30
0.0
  3
1
  1

  0
SOLID
  5
2C
  8
0
  6
BYBLOCK
 62
     0
 10
-1.811110924292052
 20
0.4852857095671653
 30
0.0
 11
-1.811110924292052
 21
-0.4852857095673642
 31
0.0
 12
0.0
 22
0.0
 32
0.0
 13
0.0
 23
0.0
 33
0.0
  0
ENDBLK
  5
2E
  8
0
  0
ENDSEC
  0
SECTION
  2
ENTITIES
  0
ARC
  5
61
  8
1外形線
 62
     3
 10
284.29342304072247
 20
62.691014692607887
 30
0.0
 40
22.0
 50
0.0
 51
180.0
  0
ARC
  5
62
  8
1外形線
 62
     3
 10
284.29342304072247
 20
98.896583909184486
 30
0.0
 40
22.0
 50
0.0
 51
180.0
  0
ARC
  5
63
  8
1外形線
  6
CONTINUOUS
 62
     3
 10
284.29342304072247
 20
97.691014692608235
 30
0.0
 40
44.499999999999879
 50
0.0
 51
180.0
  0
ARC
  5
64
  8
1外形線
  6
CONTINUOUS
 62
     3
 10
81.402912078212239
 20
97.691014692608235
 30
0.0
 40
44.499999999999879
 50
0.0
 51
180.0
  0
LINE
  5
65
  8
1外形線
  6
CONTINUOUS
 62
     3
 10
125.9029120782122
 20
42.191014692608121
 30
0.0
 11
103.4029120782122
 21
42.191014692608007
 31
0.0
  0
ARC
  5
66
  8
1外形線
 62
     3
 10
81.402912078212239
 20
98.191014692609826
 30
0.0
 40
24.0
 50
0.0
 51
180.0
  0
ARC
  5
67
  8
1外形線
 62
     3
 10
81.402912078212239
 20
62.691014692607887
 30
0.0
 40
23.00000000000011
 50
0.0
 51
180.0
  0
ARC
  5
68
  8
1外形線
 62
     3
 10
81.402912078212239
 20
62.691014692607887
 30
0.0
 40
22.0
 50
0.0
 51
180.0
  0
LINE
  5
69
  8
1外形線
 62
     3
 10
36.902912078212687
 20
42.19101469260778
 30
0.0
 11
36.902912078211777
 21
97.691014692607681
 31
0.0
  0
LINE
  5
6A
  8
1外形線
 62
     3
 10
57.402912078212239
 20
98.191014692609826
 30
0.0
 11
57.402912078212239
 21
42.191014692607887
 31
0.0
  0
LINE
  5
6B
  8
1外形線
  6
CONTINUOUS
 62
     3
 10
59.402912078212239
 20
42.191014692607887
 30
0.0
 11
36.902912078212687
 21
42.19101469260778
 31
0.0
  0
LINE
  5
6C
  8
1外形線
 62
     3
 10
58.402912078212232
 20
62.691014692607887
 30
0.0
 11
58.402912078212232
 21
42.191014692607887
 31
0.0
  0
LINE
  5
6D
  8
1外形線
 62
     3
 10
59.402912078212239
 20
62.691014692607887
 30
0.0
 11
59.402912078212239
 21
42.191014692607887
 31
0.0
  0
LINE
  5
6E
  8
1外形線
 62
     3
 10
105.4029120782122
 20
98.191014692609826
 30
0.0
 11
105.4029120782122
 21
42.191014692607887
 31
0.0
  0
LINE
  5
6F
  8
1外形線
 62
     3
 10
104.4029120782122
 20
62.691014692607887
 30
0.0
 11
104.4029120782122
 21
42.191014692607887
 31
0.0
  0
LINE
  5
70
  8
1外形線
 62
     3
 10
103.4029120782122
 20
62.691014692607887
 30
0.0
 11
103.4029120782122
 21
42.191014692607887
 31
0.0
  0
LINE
  5
71
  8
1外形線
 10
212.79621743721731
 20
42.191014692610729
 30
0.0
 11
212.79621743721279
 21
142.19101469260971
 31
0.0
  0
LINE
  5
72
  8
1外形線
 62
     3
 10
210.29621743721319
 20
140.19101469260971
 30
0.0
 11
210.2962174372114
 21
42.191014692610729
 31
0.0
  0
LINE
  5
73
  8
1外形線
 10
256.22235522885779
 20
43.191014692608057
 30
0.0
 11
256.22235522885762
 21
130.9214999719668
 31
0.0
  0
LINE
  5
74
  8
1外形線
 10
260.29342304071321
 20
133.9711745599453
 30
0.0
 11
260.2934230407231
 21
43.191014692608029
 31
0.0
  0
LINE
  5
75
  8
1外形線
 62
     3
 10
212.79621743721279
 20
42.191014692610729
 30
0.0
 11
152.79621743721319
 21
42.191014692610729
 31
0.0
  0
LINE
  5
76
  8
1外形線
 62
     3
 10
153.26555616047969
 20
85.984861545435876
 30
0.0
 11
210.29621743721279
 21
121.6910146926095
 31
0.0
  0
LINE
  5
77
  8
1外形線
 62
     3
 10
125.9029120782122
 20
42.191014692608121
 30
0.0
 11
125.9029120782122
 21
97.691014692608235
 31
0.0
  0
LINE
  5
78
  8
1外形線
 62
     3
 10
152.79621743721279
 20
85.137277561764733
 30
0.0
 11
152.79621743721319
 21
42.191014692610729
 31
0.0
  0
ARC
  5
79
  8
1外形線
 62
     3
 10
153.79621743721279
 20
85.137277561764733
 30
0.0
 40
1.0
 50
122.0501455267222
 51
180.0
  0
LINE
  5
7A
  8
1外形線
  6
CONTINUOUS
 62
     3
 10
262.29342304072242
 20
42.191014692607887
 30
0.0
 11
239.7934230407229
 21
42.19101469260778
 31
0.0
  0
LINE
  5
7B
  8
1外形線
 62
     3
 10
239.7934230407229
 20
42.19101469260778
 30
0.0
 11
239.79342304072219
 21
97.691014692607681
 31
0.0
  0
LINE
  5
7C
  8
1外形線
 62
     3
 10
262.29342304072242
 20
98.896583909184486
 30
0.0
 11
262.29342304072242
 21
42.191014692607887
 31
0.0
  0
CIRCLE
  5
7D
  8
1外形線
 10
249.7934230407206
 20
52.191014692608341
 30
0.0
 40
2.1000000000000001
  0
LINE
  5
7E
  8
1外形線
  6
CONTINUOUS
 62
     3
 10
256.22235522885779
 20
43.191014692608057
 30
0.0
 11
260.2934230407231
 21
43.191014692608029
 31
0.0
  0
ARC
  5
7F
  8
1外形線
 62
     3
 10
212.29621743721319
 20
140.19101469260971
 30
0.0
 40
2.0
 50
90.000000000001222
 51
180.0
  0
LINE
  5
80
  8
1外形線
 62
     3
 10
212.79621743721279
 20
142.19101469260971
 30
0.0
 11
212.29621743721319
 21
142.19101469260971
 31
0.0
  0
ARC
  5
81
  8
1外形線
  6
CONTINUOUS
 62
     3
 10
284.29342304072247
 20
97.691014692608235
 30
0.0
 40
43.499999999999879
 50
123.4853766230068
 51
130.18906496721951
  0
CIRCLE
  5
82
  8
1外形線
 10
284.29342304072247
 20
132.19101469260809
 30
0.0
 40
2.1000000000000001
  0
LINE
  5
83
  8
1外形線
 10
312.3644908525871
 20
43.191014692608057
 30
0.0
 11
312.36449085258732
 21
130.9214999719668
 31
0.0
  0
LINE
  5
84
  8
1外形線
 10
308.29342304073168
 20
133.9711745599453
 30
0.0
 11
308.29342304072179
 21
43.191014692608029
 31
0.0
  0
LINE
  5
85
  8
1外形線
 62
     3
 10
328.79342304072242
 20
42.191014692608121
 30
0.0
 11
328.79342304072242
 21
97.691014692608235
 31
0.0
  0
LINE
  5
86
  8
1外形線
 62
     3
 10
306.29342304072242
 20
98.896583909184486
 30
0.0
 11
306.29342304072242
 21
42.191014692607887
 31
0.0
  0
LINE
  5
87
  8
1外形線
  6
CONTINUOUS
 62
     3
 10
328.79342304072242
 20
42.191014692608121
 30
0.0
 11
306.29342304072242
 21
42.191014692608007
 31
0.0
  0
LINE
  5
88
  8
1外形線
  6
CONTINUOUS
 62
     3
 10
312.3644908525871
 20
43.191014692608057
 30
0.0
 11
308.29342304072179
 21
43.191014692608029
 31
0.0
  0
CIRCLE
  5
89
  8
1外形線
 10
318.79342304072338
 20
52.191014692608341
 30
0.0
 40
2.1000000000000001
  0
ARC
  5
8A
  8
1外形線
  6
CONTINUOUS
 62
     3
 10
284.29342304072247
 20
97.691014692608235
 30
0.0
 40
43.499999999999879
 50
49.810935032780421
 51
56.514623376993093
  0
ENDSEC
  0
EOF
