  0
SECTION
  2
HEADER
  9
$ACADVER
  1
AC1009
  9
$INSBASE
 10
0.0
 20
0.0
 30
0.0
  9
$EXTMIN
 10
24.99622914499696
 20
-25.750029856048059
 30
-0.0015258207003583
  9
$EXTMAX
 10
615.43703137683963
 20
408.08463664145091
 30
0.0000000349246037
  9
$LIMMIN
 10
0.0
 20
0.0
  9
$LIMMAX
 10
420.0
 20
297.0
  9
$ORTHOMODE
 70
     0
  9
$REGENMODE
 70
     1
  9
$FILLMODE
 70
     1
  9
$QTEXTMODE
 70
     0
  9
$MIRRTEXT
 70
     1
  9
$DRAGMODE
 70
     2
  9
$LTSCALE
 40
1.0
  9
$OSMODE
 70
    37
  9
$ATTMODE
 70
     1
  9
$TEXTSIZE
 40
2.5
  9
$TRACEWID
 40
1.0
  9
$TEXTSTYLE
  7
STANDARD
  9
$CLAYER
  8
0
  9
$CELTYPE
  6
BYLAYER
  9
$CECOLOR
 62
   256
  9
$DIMSCALE
 40
1.0
  9
$DIMASZ
 40
2.5
  9
$DIMEXO
 40
0.625
  9
$DIMDLI
 40
3.75
  9
$DIMRND
 40
0.0
  9
$DIMDLE
 40
0.0
  9
$DIMEXE
 40
1.25
  9
$DIMTP
 40
0.0
  9
$DIMTM
 40
0.0
  9
$DIMTXT
 40
2.5
  9
$DIMCEN
 40
2.5
  9
$DIMTSZ
 40
0.0
  9
$DIMTOL
 70
     0
  9
$DIMLIM
 70
     0
  9
$DIMTIH
 70
     0
  9
$DIMTOH
 70
     0
  9
$DIMSE1
 70
     0
  9
$DIMSE2
 70
     0
  9
$DIMTAD
 70
     1
  9
$DIMZIN
 70
     8
  9
$DIMBLK
  1

  9
$DIMASO
 70
     1
  9
$DIMSHO
 70
     1
  9
$DIMPOST
  1

  9
$DIMAPOST
  1

  9
$DIMALT
 70
     0
  9
$DIMALTD
 70
     3
  9
$DIMALTF
 40
0.03937007874016
  9
$DIMLFAC
 40
1.0
  9
$DIMTOFL
 70
     1
  9
$DIMTVP
 40
0.0
  9
$DIMTIX
 70
     0
  9
$DIMSOXD
 70
     0
  9
$DIMSAH
 70
     0
  9
$DIMBLK1
  1

  9
$DIMBLK2
  1

  9
$DIMSTYLE
  2
ISO-25
  9
$DIMCLRD
 70
     0
  9
$DIMCLRE
 70
     0
  9
$DIMCLRT
 70
     0
  9
$DIMTFAC
 40
1.0
  9
$DIMGAP
 40
0.625
  9
$LUNITS
 70
     2
  9
$LUPREC
 70
     4
  9
$SKETCHINC
 40
1.0
  9
$FILLETRAD
 40
10.0
  9
$AUNITS
 70
     0
  9
$AUPREC
 70
     0
  9
$MENU
  1
.
  9
$ELEVATION
 40
0.0
  9
$PELEVATION
 40
0.0
  9
$THICKNESS
 40
0.0
  9
$LIMCHECK
 70
     0
  9
$BLIPMODE
 70
     0
  9
$CHAMFERA
 40
10.0
  9
$CHAMFERB
 40
10.0
  9
$SKPOLY
 70
     0
  9
$TDCREATE
 40
2452048.587873715
  9
$TDUPDATE
 40
2452048.6035109018
  9
$TDINDWG
 40
0.0156391551
  9
$TDUSRTIMER
 40
0.0156391551
  9
$USRTIMER
 70
     1
  9
$ANGBASE
 50
0.0
  9
$ANGDIR
 70
     0
  9
$PDMODE
 70
     0
  9
$PDSIZE
 40
0.0
  9
$PLINEWID
 40
0.0
  9
$COORDS
 70
     1
  9
$SPLFRAME
 70
     0
  9
$SPLINETYPE
 70
     6
  9
$SPLINESEGS
 70
     8
  9
$ATTDIA
 70
     0
  9
$ATTREQ
 70
     1
  9
$HANDLING
 70
-16383
  9
$HANDSEED
  5
52FF
  9
$SURFTAB1
 70
     6
  9
$SURFTAB2
 70
     6
  9
$SURFTYPE
 70
     6
  9
$SURFU
 70
     6
  9
$SURFV
 70
     6
  9
$UCSNAME
  2

  9
$UCSORG
 10
0.0
 20
0.0
 30
0.0
  9
$UCSXDIR
 10
1.0
 20
0.0
 30
0.0
  9
$UCSYDIR
 10
0.0
 20
1.0
 30
0.0
  9
$PUCSNAME
  2

  9
$PUCSORG
 10
0.0
 20
0.0
 30
0.0
  9
$PUCSXDIR
 10
1.0
 20
0.0
 30
0.0
  9
$PUCSYDIR
 10
0.0
 20
1.0
 30
0.0
  9
$USERI1
 70
     0
  9
$USERI2
 70
     0
  9
$USERI3
 70
     0
  9
$USERI4
 70
     0
  9
$USERI5
 70
     0
  9
$USERR1
 40
0.0
  9
$USERR2
 40
0.0
  9
$USERR3
 40
0.0
  9
$USERR4
 40
0.0
  9
$USERR5
 40
0.0
  9
$WORLDVIEW
 70
     1
  9
$SHADEDGE
 70
     3
  9
$SHADEDIF
 70
    70
  9
$TILEMODE
 70
     1
  9
$MAXACTVP
 70
    64
  9
$PLIMCHECK
 70
     0
  9
$PEXTMIN
 10
1.0000000000000000E+020
 20
1.0000000000000000E+020
 30
1.0000000000000000E+020
  9
$PEXTMAX
 10
-1.0000000000000000E+020
 20
-1.0000000000000000E+020
 30
-1.0000000000000000E+020
  9
$PLIMMIN
 10
0.0
 20
0.0
  9
$PLIMMAX
 10
420.0
 20
297.0
  9
$UNITMODE
 70
     0
  9
$VISRETAIN
 70
     1
  9
$PLINEGEN
 70
     0
  9
$PSLTSCALE
 70
     1
  0
ENDSEC
  0
SECTION
  2
TABLES
  0
TABLE
  2
VPORT
 70
    32
  0
VPORT
  2
*ACTIVE
 70
     0
 10
0.0
 20
0.0
 11
1.0
 21
1.0
 12
243.19809294536361
 22
20.724196922940902
 13
0.0
 23
0.0
 14
10.0
 24
10.0
 15
10.0
 25
10.0
 16
0.0
 26
0.0
 36
1.0
 17
0.0
 27
0.0
 37
0.0
 40
1136.324782680095
 41
0.8452830188679245
 42
50.0
 43
0.0
 44
0.0
 50
0.0
 51
0.0
 71
     0
 72
   100
 73
     1
 74
     3
 75
     0
 76
     0
 77
     0
 78
     0
  0
ENDTAB
  0
TABLE
  2
LTYPE
 70
     1
  0
LTYPE
  2
CONTINUOUS
 70
     0
  3
Solid line
 72
    65
 73
     0
 40
0.0
  0
ENDTAB
  0
TABLE
  2
LAYER
 70
     2
  0
LAYER
  2
0
 70
     0
 62
     7
  6
CONTINUOUS
  0
LAYER
  2
1外形線
 70
     0
 62
     3
  6
CONTINUOUS
  0
ENDTAB
  0
TABLE
  2
STYLE
 70
     2
  0
STYLE
  2
STANDARD
 70
     0
 40
0.0
 41
1.0
 50
0.0
 71
     0
 42
2.5
  3
txt
  4

  0
STYLE
  2
KANJI
 70
     0
 40
0.0
 41
1.0
 50
0.0
 71
     0
 42
10.0
  3
simplex
  4
bigfont
  0
ENDTAB
  0
TABLE
  2
VIEW
 70
     0
  0
ENDTAB
  0
TABLE
  2
UCS
 70
     0
  0
ENDTAB
  0
TABLE
  2
APPID
 70
     1
  0
APPID
  2
ACAD
 70
     0
  0
ENDTAB
  0
TABLE
  2
DIMSTYLE
 70
     2
  0
DIMSTYLE
  2
ISO-25
 70
     0
  3

  4

  5

  6

  7

 40
1.0
 41
2.5
 42
0.625
 43
3.75
 44
1.25
 45
0.0
 46
0.0
 47
0.0
 48
0.0
140
2.5
141
2.5
142
0.0
143
0.03937007874016
144
1.0
145
0.0
146
1.0
147
0.625
 71
     0
 72
     0
 73
     0
 74
     0
 75
     0
 76
     0
 77
     1
 78
     8
170
     0
171
     3
172
     1
173
     0
174
     0
175
     0
176
     0
177
     0
178
     0
  0
DIMSTYLE
  2
STANDARD
 70
     0
  3

  4

  5

  6
1
  7
1
 40
1.0
 41
1.0
 42
1.0
 43
6.0
 44
1.0
 45
0.0
 46
0.0
 47
0.0
 48
0.0
140
2.5
141
0.0
142
0.0
143
25.399999999999999
144
1.0
145
0.0
146
1.0
147
0.5
 71
     0
 72
     0
 73
     0
 74
     0
 75
     0
 76
     0
 77
     1
 78
     8
170
     0
171
     2
172
     1
173
     1
174
     0
175
     0
176
     0
177
     0
178
     0
  0
ENDTAB
  0
ENDSEC
  0
SECTION
  2
BLOCKS
  0
BLOCK
  8
0
  2
$MODEL_SPACE
 70
     0
 10
0.0
 20
0.0
 30
0.0
  3
$MODEL_SPACE
  1

  0
ENDBLK
  5
21
  8
0
  0
BLOCK
 67
     1
  8
0
  2
$PAPER_SPACE
 70
     0
 10
0.0
 20
0.0
 30
0.0
  3
$PAPER_SPACE
  1

  0
ENDBLK
  5
1D
 67
     1
  8
0
  0
BLOCK
  8
0
  2
1
 70
     0
 10
0.0
 20
0.0
 30
0.0
  3
1
  1

  0
SOLID
  5
2C
  8
0
  6
BYBLOCK
 62
     0
 10
-1.811110924292052
 20
0.4852857095671653
 30
0.0
 11
-1.811110924292052
 21
-0.4852857095673642
 31
0.0
 12
0.0
 22
0.0
 32
0.0
 13
0.0
 23
0.0
 33
0.0
  0
ENDBLK
  5
2E
  8
0
  0
ENDSEC
  0
SECTION
  2
ENTITIES
  0
LINE
  5
529D
  8
1外形線
 10
113.98931048524329
 20
84.660245646468624
 30
0.0
 11
113.98931048524329
 21
48.060245646466427
 31
0.0
  0
LINE
  5
529E
  8
1外形線
 10
32.989310485243323
 20
84.660245646468624
 30
0.0
 11
32.989310485243323
 21
48.060245646466427
 31
0.0
  0
LINE
  5
529F
  8
1外形線
 10
97.014373299710215
 20
66.860245646467547
 30
0.0
 11
75.93880022802648
 21
66.860245646467547
 31
0.0
  0
LINE
  5
52A0
  8
1外形線
 10
97.014373299710215
 20
65.860245646467547
 30
0.0
 11
75.93880022802648
 21
65.860245646467547
 31
0.0
  0
ARC
  5
52A1
  8
1外形線
 10
96.639310485243314
 20
22.44425431763193
 30
0.0
 40
1.0
 50
90.000000000000625
 51
180.0
  0
LINE
  5
52A2
  8
1外形線
 10
24.996229397455291
 20
16.444254317631842
 30
0.0
 11
121.98239157303129
 21
16.444254317631948
 31
0.0
  0
LINE
  5
52A3
  8
1外形線
 10
24.996229397455291
 20
21.444254317631788
 30
0.0
 11
121.98239157303129
 21
21.444254317632069
 31
0.0
  0
LINE
  5
52A4
  8
1外形線
 10
110.4930418516164
 20
45.060245646468019
 30
0.0
 11
36.485579118870191
 21
45.06024564646799
 31
0.0
  0
LINE
  5
52A5
  8
1外形線
 10
49.964247670776331
 20
66.860245646467547
 30
0.0
 11
71.039820742460165
 21
66.860245646467547
 31
0.0
  0
LINE
  5
52A6
  8
1外形線
 10
49.964247670776331
 20
65.860245646467547
 30
0.0
 11
71.039820742460165
 21
65.860245646467547
 31
0.0
  0
LINE
  5
52A7
  8
1外形線
 10
24.996229397455402
 20
21.444254317631749
 30
0.0
 11
24.996229397455402
 21
16.44425431763187
 31
0.0
  0
LINE
  5
52A8
  8
1外形線
 10
34.989310485249227
 20
16.44425431763198
 30
0.0
 11
34.989310485249227
 21
21.444254317632101
 31
0.0
  0
LINE
  5
52A9
  8
1外形線
 10
50.339310485243338
 20
23.44425431763198
 30
0.0
 11
42.339310485243338
 21
23.444254317632101
 31
0.0
  0
ARC
  5
52AA
  8
1外形線
 10
42.339310485243338
 20
22.444254317632101
 30
0.0
 40
1.0
 50
89.999999999999389
 51
180.0
  0
LINE
  5
52AB
  8
1外形線
 10
41.339310485243338
 20
22.444254317632101
 30
0.0
 11
41.339310485243338
 21
21.444254317632041
 31
0.0
  0
ARC
  5
52AC
  8
1外形線
 10
50.339310485243338
 20
22.44425431763198
 30
0.0
 40
1.0
 50
0.0
 51
89.999999999999389
  0
LINE
  5
52AD
  8
1外形線
 10
51.339310485243352
 20
22.44425431763198
 30
0.0
 11
51.339310485243352
 21
21.444254317632041
 31
0.0
  0
LINE
  5
52AE
  8
1外形線
 10
31.989310485243319
 20
47.06024564646642
 30
0.0
 11
25.196229397450221
 21
47.06024564646642
 31
0.0
  0
LINE
  5
52AF
  8
1外形線
 10
33.500467548239612
 20
45.209129940168417
 30
0.0
 11
25.889806766222591
 21
45.97019601837021
 31
0.0
  0
ARC
  5
52B0
  8
1外形線
 10
25.98931048524355
 20
46.965233208580258
 30
0.0
 40
1.0
 50
187.54093242739501
 51
264.28940686249922
  0
ARC
  5
52B1
  8
1外形線
 10
25.196229397450221
 20
46.860245646466431
 30
0.0
 40
0.2
 50
90.0
 51
187.54093242739501
  0
ARC
  5
52B2
  8
1外形線
 10
36.485579118870191
 20
75.060245646467934
 30
0.0
 40
30.0
 50
264.28940686249888
 51
270.0
  0
ARC
  5
52B3
  8
1外形線
 10
31.989310485243319
 20
48.060245646466427
 30
0.0
 40
1.0
 50
270.0
 51
0.0
  0
LINE
  5
52B4
  8
1外形線
 10
41.339310485243338
 20
48.760245646467489
 30
0.0
 11
51.339310485243352
 21
48.760245646467517
 31
0.0
  0
LINE
  5
52B5
  8
1外形線
 10
41.339310485243338
 20
47.5602456464675
 30
0.0
 11
51.339310485243352
 21
47.560245646467529
 31
0.0
  0
LINE
  5
52B6
  8
1外形線
 10
41.339310485243118
 20
48.760245646467467
 30
0.0
 11
41.339310485243338
 21
47.560245646467529
 31
0.0
  0
LINE
  5
52B7
  8
1外形線
 10
51.339310485243352
 20
48.760245646467517
 30
0.0
 11
51.339310485243352
 21
47.560245646467557
 31
0.0
  0
CIRCLE
  5
52B8
  8
1外形線
 10
44.989310485243323
 20
66.360245646467547
 30
0.0
 40
5.0
  0
LINE
  5
52B9
  8
1外形線
 10
34.489310485243323
 20
65.860245646467547
 30
0.0
 11
40.014373299710307
 21
65.860245646467547
 31
0.0
  0
LINE
  5
52BA
  8
1外形線
 10
34.489310485243323
 20
66.86024564646732
 30
0.0
 11
40.014373299710307
 21
66.860245646467547
 31
0.0
  0
ARC
  5
52BB
  8
1外形線
 10
34.489310485243323
 20
66.360245646467945
 30
0.0
 40
0.4999999999999006
 50
90.000000000003254
 51
270.0
  0
CIRCLE
  5
52BC
  8
1外形線
 10
44.989310485243323
 20
66.360245646467547
 30
0.0
 40
3.6000000000000001
  0
CIRCLE
  5
52BD
  8
1外形線
 10
44.989310485243323
 20
66.360245646467547
 30
0.0
 40
2.1000000000000001
  0
CIRCLE
  5
52BE
  8
1外形線
 10
73.489310485243323
 20
66.360245646467547
 30
0.0
 40
2.5
  0
LINE
  5
52BF
  8
1外形線
 10
75.93880022802648
 20
66.860245646467547
 30
0.0
 11
84.039820742460847
 21
66.860245646467547
 31
0.0
  0
LINE
  5
52C0
  8
1外形線
 10
75.93880022802648
 20
65.860245646467547
 30
0.0
 11
84.039820742460847
 21
65.860245646467547
 31
0.0
  0
LINE
  5
52C1
  8
1外形線
 10
131.91914070257329
 20
21.444254317635711
 30
0.0
 11
174.51914070257271
 21
21.444254317631842
 31
0.0
  0
LINE
  5
52C2
  8
1外形線
 10
131.9191407025734
 20
16.444254317631842
 30
0.0
 11
174.5191407025724
 21
16.444254317631842
 31
0.0
  0
LINE
  5
52C3
  8
1外形線
 10
96.639310485243314
 20
23.44425431763192
 30
0.0
 11
104.6393104852431
 21
23.444254317632041
 31
0.0
  0
LINE
  5
52C4
  8
1外形線
 10
95.639310485243286
 20
22.44425431763193
 30
0.0
 11
95.639310485243286
 21
21.44425431763198
 31
0.0
  0
LINE
  5
52C5
  8
1外形線
 10
105.6393104852431
 20
22.444254317632041
 30
0.0
 11
105.6393104852431
 21
21.44425431763198
 31
0.0
  0
ARC
  5
52C6
  8
1外形線
 10
104.6393104852431
 20
22.444254317632041
 30
0.0
 40
1.0
 50
0.0
 51
90.000000000000625
  0
LINE
  5
52C7
  8
1外形線
 10
111.9893104852374
 20
16.44425431763193
 30
0.0
 11
111.9893104852374
 21
21.444254317632041
 31
0.0
  0
LINE
  5
52C8
  8
1外形線
 10
121.98239157303119
 20
21.444254317632041
 30
0.0
 11
121.98239157303119
 21
16.44425431763193
 31
0.0
  0
LINE
  5
52C9
  8
1外形線
 10
131.91914070257329
 20
16.444254317631948
 30
0.0
 11
131.91914070257329
 21
21.444254317631948
 31
0.0
  0
LINE
  5
52CA
  8
1外形線
 10
133.91914070257181
 20
21.44425431763559
 30
0.0
 11
133.91914070257181
 21
16.444254317631842
 31
0.0
  0
LINE
  5
52CB
  8
1外形線
 10
135.61914070257279
 20
23.444254317631842
 30
0.0
 11
135.61914070257259
 21
21.444254317631842
 31
0.0
  0
LINE
  5
52CC
  8
1外形線
 10
135.61914070257271
 20
23.444254317632069
 30
0.0
 11
134.41914070257289
 21
23.444254317632101
 31
0.0
  0
LINE
  5
52CD
  8
1外形線
 10
134.41914070257289
 20
23.444254317632101
 30
0.0
 11
134.41914070257249
 21
21.444254317632069
 31
0.0
  0
LINE
  5
52CE
  8
1外形線
 10
114.98931048524329
 20
47.06024564646642
 30
0.0
 11
121.78239157303641
 21
47.06024564646642
 31
0.0
  0
LINE
  5
52CF
  8
1外形線
 10
113.478153422247
 20
45.209129940168417
 30
0.0
 11
121.088814204264
 21
45.97019601837021
 31
0.0
  0
LINE
  5
52D0
  8
1外形線
 10
105.6393104852431
 20
47.5602456464675
 30
0.0
 11
95.639310485243186
 21
47.560245646467529
 31
0.0
  0
LINE
  5
52D1
  8
1外形線
 10
105.6393104852431
 20
48.760245646467489
 30
0.0
 11
95.639310485243186
 21
48.760245646467517
 31
0.0
  0
LINE
  5
52D2
  8
1外形線
 10
95.639310485243186
 20
48.760245646467517
 30
0.0
 11
95.639310485243087
 21
47.560245646467557
 31
0.0
  0
LINE
  5
52D3
  8
1外形線
 10
105.6393104852433
 20
48.760245646467467
 30
0.0
 11
105.6393104852431
 21
47.560245646467529
 31
0.0
  0
ARC
  5
52D4
  8
1外形線
 10
110.4930418516164
 20
75.060245646467934
 30
0.0
 40
30.0
 50
270.0
 51
275.71059313750101
  0
ARC
  5
52D5
  8
1外形線
 10
114.98931048524329
 20
48.060245646466427
 30
0.0
 40
1.0
 50
180.0
 51
270.0
  0
CIRCLE
  5
52D6
  8
1外形線
 10
101.98931048524329
 20
66.360245646467547
 30
0.0
 40
5.0
  0
CIRCLE
  5
52D7
  8
1外形線
 10
101.98931048524329
 20
66.360245646467547
 30
0.0
 40
3.6000000000000001
  0
CIRCLE
  5
52D8
  8
1外形線
 10
101.98931048524329
 20
66.360245646467547
 30
0.0
 40
2.1000000000000001
  0
LINE
  5
52D9
  8
1外形線
 10
112.48931048524339
 20
66.860245646467376
 30
0.0
 11
106.9642476707763
 21
66.860245646467547
 31
0.0
  0
LINE
  5
52DA
  8
1外形線
 10
112.48931048524339
 20
65.860245646467547
 30
0.0
 11
106.9642476707763
 21
65.860245646467547
 31
0.0
  0
ARC
  5
52DB
  8
1外形線
 10
112.48931048524339
 20
66.360245646467945
 30
0.0
 40
0.4999999999999006
 50
270.0
 51
89.999999999996746
  0
ARC
  5
52DC
  8
1外形線
 10
120.9893104852431
 20
46.965233208580258
 30
0.0
 40
1.0
 50
275.71059313750072
 51
352.45906757260491
  0
ARC
  5
52DD
  8
1外形線
 10
121.78239157303641
 20
46.860245646466431
 30
0.0
 40
0.2
 50
352.45906757260491
 51
90.0
  0
LINE
  5
52DE
  8
1外形線
 10
170.81914070257309
 20
23.444254317632069
 30
0.0
 11
172.01914070257311
 21
23.444254317632069
 31
0.0
  0
LINE
  5
52DF
  8
1外形線
 10
170.81914070257309
 20
23.444254317631842
 30
0.0
 11
170.81914070257329
 21
21.444254317631842
 31
0.0
  0
LINE
  5
52E0
  8
1外形線
 10
174.5191407025724
 20
16.444254317631842
 30
0.0
 11
174.51914070257271
 21
21.444254317631842
 31
0.0
  0
LINE
  5
52E1
  8
1外形線
 10
172.51914070257399
 20
21.444254317632069
 30
0.0
 11
172.51914070257399
 21
16.444254317631842
 31
0.0
  0
LINE
  5
52E2
  8
1外形線
 10
172.01914070257311
 20
23.444254317632069
 30
0.0
 11
172.0191407025732
 21
21.444254317632069
 31
0.0
  0
LINE
  5
52E3
  8
1外形線
 10
110.49304185161481
 20
87.660245646467047
 30
0.0
 11
36.485579118871783
 21
87.660245646467047
 31
0.0
  0
LINE
  5
52E4
  8
1外形線
 10
31.989310485243319
 20
85.660245646468638
 30
0.0
 11
25.196229397450221
 21
85.660245646468638
 31
0.0
  0
LINE
  5
52E5
  8
1外形線
 10
33.500467548241197
 20
87.511361352766698
 30
0.0
 11
25.889806766222591
 21
86.750295274564778
 31
0.0
  0
ARC
  5
52E6
  8
1外形線
 10
25.98931048524355
 20
85.75525808435475
 30
0.0
 40
1.0
 50
95.710593137500993
 51
172.45906757260491
  0
ARC
  5
52E7
  8
1外形線
 10
25.196229397450221
 20
85.86024564646857
 30
0.0
 40
0.2
 50
172.45906757260491
 51
270.0
  0
ARC
  5
52E8
  8
1外形線
 10
31.989310485243319
 20
84.660245646468624
 30
0.0
 40
1.0
 50
0.0
 51
90.0
  0
ARC
  5
52E9
  8
1外形線
 10
36.485579118871783
 20
57.660245646467068
 30
0.0
 40
30.0
 50
90.0
 51
95.710593137500794
  0
LINE
  5
52EA
  8
1外形線
 10
41.339310485243338
 20
85.160245646467502
 30
0.0
 11
51.339310485243352
 21
85.160245646467445
 31
0.0
  0
LINE
  5
52EB
  8
1外形線
 10
41.339310485243338
 20
83.960245646467456
 30
0.0
 11
51.339310485243352
 21
83.960245646467456
 31
0.0
  0
LINE
  5
52EC
  8
1外形線
 10
41.339310485243118
 20
83.960245646467513
 30
0.0
 11
41.339310485243338
 21
85.160245646467445
 31
0.0
  0
LINE
  5
52ED
  8
1外形線
 10
51.339310485243352
 20
83.960245646467456
 30
0.0
 11
51.339310485243352
 21
85.160245646467388
 31
0.0
  0
LINE
  5
52EE
  8
1外形線
 10
114.98931048524329
 20
85.660245646468638
 30
0.0
 11
121.78239157303641
 21
85.660245646468638
 31
0.0
  0
LINE
  5
52EF
  8
1外形線
 10
113.4781534222454
 20
87.511361352766698
 30
0.0
 11
121.088814204264
 21
86.750295274564778
 31
0.0
  0
LINE
  5
52F0
  8
1外形線
 10
105.6393104852431
 20
83.960245646467456
 30
0.0
 11
95.639310485243186
 21
83.960245646467456
 31
0.0
  0
LINE
  5
52F1
  8
1外形線
 10
105.6393104852431
 20
85.160245646467502
 30
0.0
 11
95.639310485243186
 21
85.160245646467445
 31
0.0
  0
LINE
  5
52F2
  8
1外形線
 10
95.639310485243186
 20
83.960245646467456
 30
0.0
 11
95.639310485243087
 21
85.160245646467388
 31
0.0
  0
LINE
  5
52F3
  8
1外形線
 10
105.6393104852433
 20
83.960245646467513
 30
0.0
 11
105.6393104852431
 21
85.160245646467445
 31
0.0
  0
ARC
  5
52F4
  8
1外形線
 10
114.98931048524329
 20
84.660245646468624
 30
0.0
 40
1.0
 50
90.0
 51
180.0
  0
ARC
  5
52F5
  8
1外形線
 10
110.49304185161481
 20
57.660245646467068
 30
0.0
 40
30.0
 50
84.289406862499206
 51
90.0
  0
ARC
  5
52F6
  8
1外形線
 10
120.9893104852431
 20
85.75525808435475
 30
0.0
 40
1.0
 50
7.5409324273950391
 51
84.289406862499007
  0
ARC
  5
52F7
  8
1外形線
 10
121.78239157303641
 20
85.86024564646857
 30
0.0
 40
0.2
 50
270.0
 51
7.5409324273950391
  0
ENDSEC
  0
EOF
