  0
SECTION
  2
HEADER
  9
$ACADVER
  1
AC1009
  9
$INSBASE
 10
0.0
 20
0.0
 30
0.0
  9
$EXTMIN
 10
20.717761997079091
 20
-25.750029856048059
 30
-0.0015258207003583
  9
$EXTMAX
 10
615.43703137683963
 20
408.08463664145091
 30
0.0000000349246037
  9
$LIMMIN
 10
0.0
 20
0.0
  9
$LIMMAX
 10
420.0
 20
297.0
  9
$ORTHOMODE
 70
     0
  9
$REGENMODE
 70
     1
  9
$FILLMODE
 70
     1
  9
$QTEXTMODE
 70
     0
  9
$MIRRTEXT
 70
     1
  9
$DRAGMODE
 70
     2
  9
$LTSCALE
 40
1.0
  9
$OSMODE
 70
    37
  9
$ATTMODE
 70
     1
  9
$TEXTSIZE
 40
2.5
  9
$TRACEWID
 40
1.0
  9
$TEXTSTYLE
  7
STANDARD
  9
$CLAYER
  8
0
  9
$CELTYPE
  6
BYLAYER
  9
$CECOLOR
 62
   256
  9
$DIMSCALE
 40
1.0
  9
$DIMASZ
 40
2.5
  9
$DIMEXO
 40
0.625
  9
$DIMDLI
 40
3.75
  9
$DIMRND
 40
0.0
  9
$DIMDLE
 40
0.0
  9
$DIMEXE
 40
1.25
  9
$DIMTP
 40
0.0
  9
$DIMTM
 40
0.0
  9
$DIMTXT
 40
2.5
  9
$DIMCEN
 40
2.5
  9
$DIMTSZ
 40
0.0
  9
$DIMTOL
 70
     0
  9
$DIMLIM
 70
     0
  9
$DIMTIH
 70
     0
  9
$DIMTOH
 70
     0
  9
$DIMSE1
 70
     0
  9
$DIMSE2
 70
     0
  9
$DIMTAD
 70
     1
  9
$DIMZIN
 70
     8
  9
$DIMBLK
  1

  9
$DIMASO
 70
     1
  9
$DIMSHO
 70
     1
  9
$DIMPOST
  1

  9
$DIMAPOST
  1

  9
$DIMALT
 70
     0
  9
$DIMALTD
 70
     3
  9
$DIMALTF
 40
0.03937007874016
  9
$DIMLFAC
 40
1.0
  9
$DIMTOFL
 70
     1
  9
$DIMTVP
 40
0.0
  9
$DIMTIX
 70
     0
  9
$DIMSOXD
 70
     0
  9
$DIMSAH
 70
     0
  9
$DIMBLK1
  1

  9
$DIMBLK2
  1

  9
$DIMSTYLE
  2
ISO-25
  9
$DIMCLRD
 70
     0
  9
$DIMCLRE
 70
     0
  9
$DIMCLRT
 70
     0
  9
$DIMTFAC
 40
1.0
  9
$DIMGAP
 40
0.625
  9
$LUNITS
 70
     2
  9
$LUPREC
 70
     4
  9
$SKETCHINC
 40
1.0
  9
$FILLETRAD
 40
10.0
  9
$AUNITS
 70
     0
  9
$AUPREC
 70
     0
  9
$MENU
  1
.
  9
$ELEVATION
 40
0.0
  9
$PELEVATION
 40
0.0
  9
$THICKNESS
 40
0.0
  9
$LIMCHECK
 70
     0
  9
$BLIPMODE
 70
     0
  9
$CHAMFERA
 40
10.0
  9
$CHAMFERB
 40
10.0
  9
$SKPOLY
 70
     0
  9
$TDCREATE
 40
2452048.587873715
  9
$TDUPDATE
 40
2452048.6037124651
  9
$TDINDWG
 40
0.0158407176
  9
$TDUSRTIMER
 40
0.0158407176
  9
$USRTIMER
 70
     1
  9
$ANGBASE
 50
0.0
  9
$ANGDIR
 70
     0
  9
$PDMODE
 70
     0
  9
$PDSIZE
 40
0.0
  9
$PLINEWID
 40
0.0
  9
$COORDS
 70
     1
  9
$SPLFRAME
 70
     0
  9
$SPLINETYPE
 70
     6
  9
$SPLINESEGS
 70
     8
  9
$ATTDIA
 70
     0
  9
$ATTREQ
 70
     1
  9
$HANDLING
 70
-16383
  9
$HANDSEED
  5
53BC
  9
$SURFTAB1
 70
     6
  9
$SURFTAB2
 70
     6
  9
$SURFTYPE
 70
     6
  9
$SURFU
 70
     6
  9
$SURFV
 70
     6
  9
$UCSNAME
  2

  9
$UCSORG
 10
0.0
 20
0.0
 30
0.0
  9
$UCSXDIR
 10
1.0
 20
0.0
 30
0.0
  9
$UCSYDIR
 10
0.0
 20
1.0
 30
0.0
  9
$PUCSNAME
  2

  9
$PUCSORG
 10
0.0
 20
0.0
 30
0.0
  9
$PUCSXDIR
 10
1.0
 20
0.0
 30
0.0
  9
$PUCSYDIR
 10
0.0
 20
1.0
 30
0.0
  9
$USERI1
 70
     0
  9
$USERI2
 70
     0
  9
$USERI3
 70
     0
  9
$USERI4
 70
     0
  9
$USERI5
 70
     0
  9
$USERR1
 40
0.0
  9
$USERR2
 40
0.0
  9
$USERR3
 40
0.0
  9
$USERR4
 40
0.0
  9
$USERR5
 40
0.0
  9
$WORLDVIEW
 70
     1
  9
$SHADEDGE
 70
     3
  9
$SHADEDIF
 70
    70
  9
$TILEMODE
 70
     1
  9
$MAXACTVP
 70
    64
  9
$PLIMCHECK
 70
     0
  9
$PEXTMIN
 10
1.0000000000000000E+020
 20
1.0000000000000000E+020
 30
1.0000000000000000E+020
  9
$PEXTMAX
 10
-1.0000000000000000E+020
 20
-1.0000000000000000E+020
 30
-1.0000000000000000E+020
  9
$PLIMMIN
 10
0.0
 20
0.0
  9
$PLIMMAX
 10
420.0
 20
297.0
  9
$UNITMODE
 70
     0
  9
$VISRETAIN
 70
     1
  9
$PLINEGEN
 70
     0
  9
$PSLTSCALE
 70
     1
  0
ENDSEC
  0
SECTION
  2
TABLES
  0
TABLE
  2
VPORT
 70
    33
  0
VPORT
  2
*ACTIVE
 70
     0
 10
0.0
 20
0.0
 11
1.0
 21
1.0
 12
243.19809294536361
 22
20.724196922940902
 13
0.0
 23
0.0
 14
10.0
 24
10.0
 15
10.0
 25
10.0
 16
0.0
 26
0.0
 36
1.0
 17
0.0
 27
0.0
 37
0.0
 40
1136.324782680095
 41
0.8452830188679245
 42
50.0
 43
0.0
 44
0.0
 50
0.0
 51
0.0
 71
     0
 72
   100
 73
     1
 74
     3
 75
     0
 76
     0
 77
     0
 78
     0
  0
ENDTAB
  0
TABLE
  2
LTYPE
 70
     1
  0
LTYPE
  2
CONTINUOUS
 70
     0
  3
Solid line
 72
    65
 73
     0
 40
0.0
  0
ENDTAB
  0
TABLE
  2
LAYER
 70
     2
  0
LAYER
  2
0
 70
     0
 62
     7
  6
CONTINUOUS
  0
LAYER
  2
1外形線
 70
     0
 62
     3
  6
CONTINUOUS
  0
ENDTAB
  0
TABLE
  2
STYLE
 70
     2
  0
STYLE
  2
STANDARD
 70
     0
 40
0.0
 41
1.0
 50
0.0
 71
     0
 42
2.5
  3
txt
  4

  0
STYLE
  2
KANJI
 70
     0
 40
0.0
 41
1.0
 50
0.0
 71
     0
 42
10.0
  3
simplex
  4
bigfont
  0
ENDTAB
  0
TABLE
  2
VIEW
 70
     0
  0
ENDTAB
  0
TABLE
  2
UCS
 70
     0
  0
ENDTAB
  0
TABLE
  2
APPID
 70
     1
  0
APPID
  2
ACAD
 70
     0
  0
ENDTAB
  0
TABLE
  2
DIMSTYLE
 70
     2
  0
DIMSTYLE
  2
ISO-25
 70
     0
  3

  4

  5

  6

  7

 40
1.0
 41
2.5
 42
0.625
 43
3.75
 44
1.25
 45
0.0
 46
0.0
 47
0.0
 48
0.0
140
2.5
141
2.5
142
0.0
143
0.03937007874016
144
1.0
145
0.0
146
1.0
147
0.625
 71
     0
 72
     0
 73
     0
 74
     0
 75
     0
 76
     0
 77
     1
 78
     8
170
     0
171
     3
172
     1
173
     0
174
     0
175
     0
176
     0
177
     0
178
     0
  0
DIMSTYLE
  2
STANDARD
 70
     0
  3

  4

  5

  6
1
  7
1
 40
1.0
 41
1.0
 42
1.0
 43
6.0
 44
1.0
 45
0.0
 46
0.0
 47
0.0
 48
0.0
140
2.5
141
0.0
142
0.0
143
25.399999999999999
144
1.0
145
0.0
146
1.0
147
0.5
 71
     0
 72
     0
 73
     0
 74
     0
 75
     0
 76
     0
 77
     1
 78
     8
170
     0
171
     2
172
     1
173
     1
174
     0
175
     0
176
     0
177
     0
178
     0
  0
ENDTAB
  0
ENDSEC
  0
SECTION
  2
BLOCKS
  0
BLOCK
  8
0
  2
$MODEL_SPACE
 70
     0
 10
0.0
 20
0.0
 30
0.0
  3
$MODEL_SPACE
  1

  0
ENDBLK
  5
21
  8
0
  0
BLOCK
 67
     1
  8
0
  2
$PAPER_SPACE
 70
     0
 10
0.0
 20
0.0
 30
0.0
  3
$PAPER_SPACE
  1

  0
ENDBLK
  5
1D
 67
     1
  8
0
  0
BLOCK
  8
0
  2
1
 70
     0
 10
0.0
 20
0.0
 30
0.0
  3
1
  1

  0
SOLID
  5
2C
  8
0
  6
BYBLOCK
 62
     0
 10
-1.811110924292052
 20
0.4852857095671653
 30
0.0
 11
-1.811110924292052
 21
-0.4852857095673642
 31
0.0
 12
0.0
 22
0.0
 32
0.0
 13
0.0
 23
0.0
 33
0.0
  0
ENDBLK
  5
2E
  8
0
  0
ENDSEC
  0
SECTION
  2
ENTITIES
  0
LINE
  5
535C
  8
1外形線
 10
121.510843084874
 20
92.016540392971535
 30
0.0
 11
106.5108430848741
 21
92.016540392972331
 31
0.0
  0
LINE
  5
535D
  8
1外形線
 10
121.510843084874
 20
90.816540392971547
 30
0.0
 11
106.510843084874
 21
90.816540392972342
 31
0.0
  0
LINE
  5
535E
  8
1外形線
 10
121.510843084874
 20
49.616540392972752
 30
0.0
 11
106.510843084874
 21
49.616540392971949
 31
0.0
  0
LINE
  5
535F
  8
1外形線
 10
121.510843084874
 20
48.416540392972763
 30
0.0
 11
106.5108430848741
 21
48.41654039297196
 31
0.0
  0
LINE
  5
5360
  8
1外形線
 10
81.660332827657271
 20
70.71654039297232
 30
0.0
 11
112.7359058993423
 21
70.716540392972377
 31
0.0
  0
LINE
  5
5361
  8
1外形線
 10
81.660332827657214
 20
69.71654039297232
 30
0.0
 11
112.7359058993423
 21
69.716540392972263
 31
0.0
  0
LINE
  5
5362
  8
1外形線
 10
107.5108430848739
 20
27.724196678047232
 30
0.0
 11
120.510843084874
 21
27.72419667804763
 31
0.0
  0
LINE
  5
5363
  8
1外形線
 10
32.207111718501089
 20
45.816540392972279
 30
0.0
 11
126.21457445124631
 21
45.81654039297117
 31
0.0
  0
LINE
  5
5364
  8
1外形線
 10
32.207111718501089
 20
94.616540392972468
 30
0.0
 11
126.21457445124631
 21
94.616540392973477
 31
0.0
  0
LINE
  5
5365
  8
1外形線
 10
137.7039241726666
 20
25.724196678044301
 30
0.0
 11
20.717761997079091
 21
25.724196678047772
 31
0.0
  0
LINE
  5
5366
  8
1外形線
 10
137.7039241726666
 20
20.724196678044329
 30
0.0
 11
20.717761997079091
 21
20.724196678047662
 31
0.0
  0
LINE
  5
5367
  8
1外形線
 10
28.710843084874728
 20
91.616540392972411
 30
0.0
 11
28.710843084874568
 21
48.816540392972371
 31
0.0
  0
LINE
  5
5368
  8
1外形線
 10
29.222000147870851
 20
45.965424686674361
 30
0.0
 11
21.61133936585383
 21
46.726490764876161
 31
0.0
  0
LINE
  5
5369
  8
1外形線
 10
27.710843084874568
 20
47.816540392972371
 30
0.0
 11
20.91776199708147
 21
47.816540392972371
 31
0.0
  0
ARC
  5
536A
  8
1外形線
 10
21.710843084874789
 20
47.721527955086202
 30
0.0
 40
1.0
 50
187.5409324273954
 51
264.28940686249922
  0
LINE
  5
536B
  8
1外形線
 10
20.717761997079091
 20
25.724196678044279
 30
0.0
 11
20.717761997079091
 21
20.724196678043882
 31
0.0
  0
ARC
  5
536C
  8
1外形線
 10
20.91776199708147
 20
47.616540392972382
 30
0.0
 40
0.2
 50
90.0
 51
187.54093242739501
  0
LINE
  5
536D
  8
1外形線
 10
45.685780270405637
 20
70.71654039297232
 30
0.0
 11
76.761353342090842
 21
70.71654039297232
 31
0.0
  0
LINE
  5
536E
  8
1外形線
 10
45.685780270405637
 20
69.71654039297232
 30
0.0
 11
76.761353342090899
 21
69.71654039297232
 31
0.0
  0
LINE
  5
536F
  8
1外形線
 10
50.910843084874102
 20
27.724196678047232
 30
0.0
 11
37.910843084874102
 21
27.72419667804763
 31
0.0
  0
LINE
  5
5370
  8
1外形線
 10
30.710843084900318
 20
25.7241966780445
 30
0.0
 11
30.710843084900318
 21
20.724196678044159
 31
0.0
  0
LINE
  5
5371
  8
1外形線
 10
36.910843084874102
 20
26.72419667804763
 30
0.0
 11
36.910843084873989
 21
25.72419667804763
 31
0.0
  0
ARC
  5
5372
  8
1外形線
 10
37.910843084874102
 20
26.72419667804763
 30
0.0
 40
1.0
 50
89.999999999998167
 51
179.9999999999981
  0
ARC
  5
5373
  8
1外形線
 10
32.20711171850143
 20
75.816540392973934
 30
0.0
 40
30.0
 50
264.28940686249888
 51
270.0
  0
LINE
  5
5374
  8
1外形線
 10
51.910843084874102
 20
26.724196678047171
 30
0.0
 11
51.910843084874102
 21
25.724196678047178
 31
0.0
  0
ARC
  5
5375
  8
1外形線
 10
50.910843084874102
 20
26.724196678047232
 30
0.0
 40
1.0
 50
359.99999999999829
 51
89.999999999998167
  0
CIRCLE
  5
5376
  8
1外形線
 10
40.710843084872643
 20
70.216540392972306
 30
0.0
 40
5.0
  0
LINE
  5
5377
  8
1外形線
 10
36.910843084873989
 20
48.416540392972763
 30
0.0
 11
51.910843084873989
 21
48.41654039297196
 31
0.0
  0
LINE
  5
5378
  8
1外形線
 10
36.910843084874102
 20
49.616540392972752
 30
0.0
 11
51.910843084874102
 21
49.616540392971949
 31
0.0
  0
ARC
  5
5379
  8
1外形線
 10
27.710843084874568
 20
48.816540392972371
 30
0.0
 40
1.0
 50
270.0
 51
0.0000000000002036
  0
LINE
  5
537A
  8
1外形線
 10
36.910843084874102
 20
48.416540392972713
 30
0.0
 11
36.910843084874102
 21
49.616540392972752
 31
0.0
  0
LINE
  5
537B
  8
1外形線
 10
30.210843084874568
 20
69.71654039297232
 30
0.0
 11
35.73590589933962
 21
69.71654039297232
 31
0.0
  0
LINE
  5
537C
  8
1外形線
 10
30.210843084874568
 20
70.716540392972092
 30
0.0
 11
35.73590589933962
 21
70.71654039297232
 31
0.0
  0
ARC
  5
537D
  8
1外形線
 10
30.210843084874568
 20
70.216540392972774
 30
0.0
 40
0.4999999999999006
 50
90.000000000003254
 51
270.0
  0
CIRCLE
  5
537E
  8
1外形線
 10
40.710843084872643
 20
70.216540392972306
 30
0.0
 40
2.1000000000000001
  0
CIRCLE
  5
537F
  8
1外形線
 10
40.710843084872643
 20
70.216540392972306
 30
0.0
 40
3.6000000000000001
  0
LINE
  5
5380
  8
1外形線
 10
51.910843084874102
 20
48.41654039297196
 30
0.0
 11
51.910843084874102
 21
49.616540392971949
 31
0.0
  0
LINE
  5
5381
  8
1外形線
 10
106.510843084874
 20
26.724196678047171
 30
0.0
 11
106.510843084874
 21
25.724196678047178
 31
0.0
  0
ARC
  5
5382
  8
1外形線
 10
107.510843084874
 20
26.724196678047232
 30
0.0
 40
1.0
 50
90.000000000001833
 51
180.00000000000159
  0
CIRCLE
  5
5383
  8
1外形線
 10
79.210843084874057
 20
70.216540392972433
 30
0.0
 40
2.5
  0
LINE
  5
5384
  8
1外形線
 10
106.510843084874
 20
48.41654039297196
 30
0.0
 11
106.510843084874
 21
49.616540392971949
 31
0.0
  0
LINE
  5
5385
  8
1外形線
 10
29.222000147870851
 20
94.467656099270357
 30
0.0
 11
21.61133936585383
 21
93.706590021068564
 31
0.0
  0
LINE
  5
5386
  8
1外形線
 10
27.710843084874568
 20
92.616540392972411
 30
0.0
 11
20.91776199708147
 21
92.616540392972411
 31
0.0
  0
ARC
  5
5387
  8
1外形線
 10
21.710843084874789
 20
92.711552830858508
 30
0.0
 40
1.0
 50
95.710593137500794
 51
172.45906757260451
  0
ARC
  5
5388
  8
1外形線
 10
20.91776199708147
 20
92.816540392972357
 30
0.0
 40
0.2
 50
172.45906757260491
 51
270.0
  0
LINE
  5
5389
  8
1外形線
 10
36.910843084874102
 20
90.816540392971547
 30
0.0
 11
51.910843084874102
 21
90.816540392972342
 31
0.0
  0
LINE
  5
538A
  8
1外形線
 10
36.910843084873989
 20
92.016540392971535
 30
0.0
 11
51.910843084873989
 21
92.016540392972331
 31
0.0
  0
ARC
  5
538B
  8
1外形線
 10
27.710843084874568
 20
91.616540392972411
 30
0.0
 40
1.0
 50
359.99999999999972
 51
90.0
  0
ARC
  5
538C
  8
1外形線
 10
32.20711171850143
 20
64.616540392970819
 30
0.0
 40
30.0
 50
90.0
 51
95.710593137500993
  0
LINE
  5
538D
  8
1外形線
 10
36.910843084874102
 20
92.016540392971578
 30
0.0
 11
36.910843084874102
 21
90.816540392971547
 31
0.0
  0
LINE
  5
538E
  8
1外形線
 10
51.910843084874102
 20
92.016540392972331
 30
0.0
 11
51.910843084874102
 21
90.816540392972342
 31
0.0
  0
LINE
  5
538F
  8
1外形線
 10
106.510843084874
 20
92.016540392972331
 30
0.0
 11
106.510843084874
 21
90.816540392972342
 31
0.0
  0
LINE
  5
5390
  8
1外形線
 10
129.71084308487329
 20
91.616540392972411
 30
0.0
 11
129.71084308487349
 21
48.816540392972371
 31
0.0
  0
LINE
  5
5391
  8
1外形線
 10
207.59223051872641
 20
25.72419667804456
 30
0.0
 11
158.79223051872589
 21
25.72419667804564
 31
0.0
  0
LINE
  5
5392
  8
1外形線
 10
207.5922305187261
 20
20.724196678044329
 30
0.0
 11
158.7922305187258
 21
20.724196678044329
 31
0.0
  0
ARC
  5
5393
  8
1外形線
 10
136.71084308487329
 20
47.721527955086202
 30
0.0
 40
1.0
 50
275.71059313750072
 51
352.45906757260468
  0
LINE
  5
5394
  8
1外形線
 10
129.1996860218772
 20
45.965424686674361
 30
0.0
 11
136.81034680389419
 21
46.726490764876161
 31
0.0
  0
ARC
  5
5395
  8
1外形線
 10
120.510843084874
 20
26.72419667804763
 30
0.0
 40
1.0
 50
0.0000000000016284
 51
90.000000000001833
  0
LINE
  5
5396
  8
1外形線
 10
127.71084308484539
 20
25.7241966780445
 30
0.0
 11
127.71084308484539
 21
20.724196678044159
 31
0.0
  0
LINE
  5
5397
  8
1外形線
 10
121.510843084874
 20
26.72419667804763
 30
0.0
 11
121.510843084874
 21
25.72419667804763
 31
0.0
  0
ARC
  5
5398
  8
1外形線
 10
126.21457445124661
 20
75.816540392973934
 30
0.0
 40
30.0
 50
270.0
 51
275.71059313750101
  0
LINE
  5
5399
  8
1外形線
 10
137.7039241726666
 20
25.724196678044279
 30
0.0
 11
137.7039241726666
 21
20.724196678043882
 31
0.0
  0
LINE
  5
539A
  8
1外形線
 10
130.71084308487349
 20
47.816540392972371
 30
0.0
 11
137.50392417266659
 21
47.816540392972371
 31
0.0
  0
LINE
  5
539B
  8
1外形線
 10
121.510843084874
 20
48.416540392972713
 30
0.0
 11
121.510843084874
 21
49.616540392972752
 31
0.0
  0
ARC
  5
539C
  8
1外形線
 10
130.71084308487349
 20
48.816540392972371
 30
0.0
 40
1.0
 50
179.9999999999998
 51
270.0
  0
CIRCLE
  5
539D
  8
1外形線
 10
117.71084308487541
 20
70.216540392972306
 30
0.0
 40
5.0
  0
CIRCLE
  5
539E
  8
1外形線
 10
117.71084308487541
 20
70.216540392972306
 30
0.0
 40
3.6000000000000001
  0
CIRCLE
  5
539F
  8
1外形線
 10
117.71084308487541
 20
70.216540392972306
 30
0.0
 40
2.1000000000000001
  0
LINE
  5
53A0
  8
1外形線
 10
128.21084308487349
 20
69.71654039297232
 30
0.0
 11
122.6857802704084
 21
69.71654039297232
 31
0.0
  0
LINE
  5
53A1
  8
1外形線
 10
128.21084308487349
 20
70.716540392972092
 30
0.0
 11
122.6857802704084
 21
70.71654039297232
 31
0.0
  0
ARC
  5
53A2
  8
1外形線
 10
128.21084308487349
 20
70.216540392972774
 30
0.0
 40
0.4999999999999006
 50
270.0
 51
89.999999999996746
  0
ARC
  5
53A3
  8
1外形線
 10
137.50392417266659
 20
47.616540392972382
 30
0.0
 40
0.2
 50
352.45906757260491
 51
90.0
  0
LINE
  5
53A4
  8
1外形線
 10
160.79223051872441
 20
25.72419667804558
 30
0.0
 11
160.79223051872441
 21
20.724196678044361
 31
0.0
  0
LINE
  5
53A5
  8
1外形線
 10
158.7922305187258
 20
20.724196678045921
 30
0.0
 11
158.79223051872589
 21
25.724196678045921
 31
0.0
  0
LINE
  5
53A6
  8
1外形線
 10
162.59223051872419
 20
27.72419667804467
 30
0.0
 11
161.3922305187242
 21
27.72419667804477
 31
0.0
  0
LINE
  5
53A7
  8
1外形線
 10
161.3922305187242
 20
25.724196678044731
 30
0.0
 11
161.3922305187242
 21
27.72419667804477
 31
0.0
  0
LINE
  5
53A8
  8
1外形線
 10
162.59223051872431
 20
27.72419667804456
 30
0.0
 11
162.59223051872411
 21
25.72419667804456
 31
0.0
  0
LINE
  5
53A9
  8
1外形線
 10
207.5922305187261
 20
20.72419667804456
 30
0.0
 11
207.59223051872641
 21
25.72419667804456
 31
0.0
  0
LINE
  5
53AA
  8
1外形線
 10
205.59223051872439
 20
25.724196678044621
 30
0.0
 11
205.59223051872439
 21
20.724196678044361
 31
0.0
  0
LINE
  5
53AB
  8
1外形線
 10
203.7922305187239
 20
27.72419667804467
 30
0.0
 11
204.99223051872389
 21
27.72419667804477
 31
0.0
  0
LINE
  5
53AC
  8
1外形線
 10
204.99223051872389
 20
25.724196678044731
 30
0.0
 11
204.99223051872389
 21
27.72419667804477
 31
0.0
  0
LINE
  5
53AD
  8
1外形線
 10
203.7922305187239
 20
27.72419667804456
 30
0.0
 11
203.7922305187241
 21
25.72419667804456
 31
0.0
  0
LINE
  5
53AE
  8
1外形線
 10
130.71084308487349
 20
92.616540392972411
 30
0.0
 11
137.50392417266659
 21
92.616540392972411
 31
0.0
  0
LINE
  5
53AF
  8
1外形線
 10
129.1996860218772
 20
94.467656099270357
 30
0.0
 11
136.81034680389419
 21
93.706590021068564
 31
0.0
  0
ARC
  5
53B0
  8
1外形線
 10
126.21457445124661
 20
64.616540392970819
 30
0.0
 40
30.0
 50
84.289406862499007
 51
90.0
  0
LINE
  5
53B1
  8
1外形線
 10
121.510843084874
 20
92.016540392971578
 30
0.0
 11
121.510843084874
 21
90.816540392971547
 31
0.0
  0
ARC
  5
53B2
  8
1外形線
 10
130.71084308487349
 20
91.616540392972411
 30
0.0
 40
1.0
 50
90.0
 51
180.0000000000002
  0
ARC
  5
53B3
  8
1外形線
 10
136.71084308487329
 20
92.711552830858508
 30
0.0
 40
1.0
 50
7.5409324273952389
 51
84.289406862499206
  0
ARC
  5
53B4
  8
1外形線
 10
137.50392417266659
 20
92.816540392972357
 30
0.0
 40
0.2
 50
270.0
 51
7.5409324273950391
  0
ENDSEC
  0
EOF
