  0
SECTION
  2
HEADER
  9
$ACADVER
  1
AC1009
  9
$INSBASE
 10
0.0
 20
0.0
 30
0.0
  9
$EXTMIN
 10
20.717761997079091
 20
-25.750029856048059
 30
-0.0015258207003583
  9
$EXTMAX
 10
615.43703137683963
 20
408.08463664145091
 30
0.0000000349246037
  9
$LIMMIN
 10
0.0
 20
0.0
  9
$LIMMAX
 10
420.0
 20
297.0
  9
$ORTHOMODE
 70
     0
  9
$REGENMODE
 70
     1
  9
$FILLMODE
 70
     1
  9
$QTEXTMODE
 70
     0
  9
$MIRRTEXT
 70
     1
  9
$DRAGMODE
 70
     2
  9
$LTSCALE
 40
1.0
  9
$OSMODE
 70
    37
  9
$ATTMODE
 70
     1
  9
$TEXTSIZE
 40
2.5
  9
$TRACEWID
 40
1.0
  9
$TEXTSTYLE
  7
STANDARD
  9
$CLAYER
  8
0
  9
$CELTYPE
  6
BYLAYER
  9
$CECOLOR
 62
   256
  9
$DIMSCALE
 40
1.0
  9
$DIMASZ
 40
2.5
  9
$DIMEXO
 40
0.625
  9
$DIMDLI
 40
3.75
  9
$DIMRND
 40
0.0
  9
$DIMDLE
 40
0.0
  9
$DIMEXE
 40
1.25
  9
$DIMTP
 40
0.0
  9
$DIMTM
 40
0.0
  9
$DIMTXT
 40
2.5
  9
$DIMCEN
 40
2.5
  9
$DIMTSZ
 40
0.0
  9
$DIMTOL
 70
     0
  9
$DIMLIM
 70
     0
  9
$DIMTIH
 70
     0
  9
$DIMTOH
 70
     0
  9
$DIMSE1
 70
     0
  9
$DIMSE2
 70
     0
  9
$DIMTAD
 70
     1
  9
$DIMZIN
 70
     8
  9
$DIMBLK
  1

  9
$DIMASO
 70
     1
  9
$DIMSHO
 70
     1
  9
$DIMPOST
  1

  9
$DIMAPOST
  1

  9
$DIMALT
 70
     0
  9
$DIMALTD
 70
     3
  9
$DIMALTF
 40
0.03937007874016
  9
$DIMLFAC
 40
1.0
  9
$DIMTOFL
 70
     1
  9
$DIMTVP
 40
0.0
  9
$DIMTIX
 70
     0
  9
$DIMSOXD
 70
     0
  9
$DIMSAH
 70
     0
  9
$DIMBLK1
  1

  9
$DIMBLK2
  1

  9
$DIMSTYLE
  2
ISO-25
  9
$DIMCLRD
 70
     0
  9
$DIMCLRE
 70
     0
  9
$DIMCLRT
 70
     0
  9
$DIMTFAC
 40
1.0
  9
$DIMGAP
 40
0.625
  9
$LUNITS
 70
     2
  9
$LUPREC
 70
     4
  9
$SKETCHINC
 40
1.0
  9
$FILLETRAD
 40
10.0
  9
$AUNITS
 70
     0
  9
$AUPREC
 70
     0
  9
$MENU
  1
.
  9
$ELEVATION
 40
0.0
  9
$PELEVATION
 40
0.0
  9
$THICKNESS
 40
0.0
  9
$LIMCHECK
 70
     0
  9
$BLIPMODE
 70
     0
  9
$CHAMFERA
 40
10.0
  9
$CHAMFERB
 40
10.0
  9
$SKPOLY
 70
     0
  9
$TDCREATE
 40
2452048.587873715
  9
$TDUPDATE
 40
2452048.6131153349
  9
$TDINDWG
 40
0.0252438194
  9
$TDUSRTIMER
 40
0.0252438194
  9
$USRTIMER
 70
     1
  9
$ANGBASE
 50
0.0
  9
$ANGDIR
 70
     0
  9
$PDMODE
 70
     0
  9
$PDSIZE
 40
0.0
  9
$PLINEWID
 40
0.0
  9
$COORDS
 70
     1
  9
$SPLFRAME
 70
     0
  9
$SPLINETYPE
 70
     6
  9
$SPLINESEGS
 70
     8
  9
$ATTDIA
 70
     0
  9
$ATTREQ
 70
     1
  9
$HANDLING
 70
-16383
  9
$HANDSEED
  5
6205
  9
$SURFTAB1
 70
     6
  9
$SURFTAB2
 70
     6
  9
$SURFTYPE
 70
     6
  9
$SURFU
 70
     6
  9
$SURFV
 70
     6
  9
$UCSNAME
  2

  9
$UCSORG
 10
0.0
 20
0.0
 30
0.0
  9
$UCSXDIR
 10
1.0
 20
0.0
 30
0.0
  9
$UCSYDIR
 10
0.0
 20
1.0
 30
0.0
  9
$PUCSNAME
  2

  9
$PUCSORG
 10
0.0
 20
0.0
 30
0.0
  9
$PUCSXDIR
 10
1.0
 20
0.0
 30
0.0
  9
$PUCSYDIR
 10
0.0
 20
1.0
 30
0.0
  9
$USERI1
 70
     0
  9
$USERI2
 70
     0
  9
$USERI3
 70
     0
  9
$USERI4
 70
     0
  9
$USERI5
 70
     0
  9
$USERR1
 40
0.0
  9
$USERR2
 40
0.0
  9
$USERR3
 40
0.0
  9
$USERR4
 40
0.0
  9
$USERR5
 40
0.0
  9
$WORLDVIEW
 70
     1
  9
$SHADEDGE
 70
     3
  9
$SHADEDIF
 70
    70
  9
$TILEMODE
 70
     1
  9
$MAXACTVP
 70
    64
  9
$PLIMCHECK
 70
     0
  9
$PEXTMIN
 10
1.0000000000000000E+020
 20
1.0000000000000000E+020
 30
1.0000000000000000E+020
  9
$PEXTMAX
 10
-1.0000000000000000E+020
 20
-1.0000000000000000E+020
 30
-1.0000000000000000E+020
  9
$PLIMMIN
 10
0.0
 20
0.0
  9
$PLIMMAX
 10
420.0
 20
297.0
  9
$UNITMODE
 70
     0
  9
$VISRETAIN
 70
     1
  9
$PLINEGEN
 70
     0
  9
$PSLTSCALE
 70
     1
  0
ENDSEC
  0
SECTION
  2
TABLES
  0
TABLE
  2
VPORT
 70
    45
  0
VPORT
  2
*ACTIVE
 70
     0
 10
0.0
 20
0.0
 11
1.0
 21
1.0
 12
243.19809294536361
 22
20.724196922940902
 13
0.0
 23
0.0
 14
10.0
 24
10.0
 15
10.0
 25
10.0
 16
0.0
 26
0.0
 36
1.0
 17
0.0
 27
0.0
 37
0.0
 40
1136.324782680095
 41
0.8452830188679245
 42
50.0
 43
0.0
 44
0.0
 50
0.0
 51
0.0
 71
     0
 72
   100
 73
     1
 74
     3
 75
     0
 76
     0
 77
     0
 78
     0
  0
ENDTAB
  0
TABLE
  2
LTYPE
 70
     1
  0
LTYPE
  2
CONTINUOUS
 70
     0
  3
Solid line
 72
    65
 73
     0
 40
0.0
  0
ENDTAB
  0
TABLE
  2
LAYER
 70
     3
  0
LAYER
  2
0
 70
     0
 62
     7
  6
CONTINUOUS
  0
LAYER
  2
1外形線
 70
     0
 62
     3
  6
CONTINUOUS
  0
LAYER
  2
4太線
 70
     0
 62
     6
  6
CONTINUOUS
  0
ENDTAB
  0
TABLE
  2
STYLE
 70
     2
  0
STYLE
  2
STANDARD
 70
     0
 40
0.0
 41
1.0
 50
0.0
 71
     0
 42
2.5
  3
txt
  4

  0
STYLE
  2
KANJI
 70
     0
 40
0.0
 41
1.0
 50
0.0
 71
     0
 42
10.0
  3
simplex
  4
bigfont
  0
ENDTAB
  0
TABLE
  2
VIEW
 70
     0
  0
ENDTAB
  0
TABLE
  2
UCS
 70
     0
  0
ENDTAB
  0
TABLE
  2
APPID
 70
     1
  0
APPID
  2
ACAD
 70
     0
  0
ENDTAB
  0
TABLE
  2
DIMSTYLE
 70
     2
  0
DIMSTYLE
  2
ISO-25
 70
     0
  3

  4

  5

  6

  7

 40
1.0
 41
2.5
 42
0.625
 43
3.75
 44
1.25
 45
0.0
 46
0.0
 47
0.0
 48
0.0
140
2.5
141
2.5
142
0.0
143
0.03937007874016
144
1.0
145
0.0
146
1.0
147
0.625
 71
     0
 72
     0
 73
     0
 74
     0
 75
     0
 76
     0
 77
     1
 78
     8
170
     0
171
     3
172
     1
173
     0
174
     0
175
     0
176
     0
177
     0
178
     0
  0
DIMSTYLE
  2
STANDARD
 70
     0
  3

  4

  5

  6
1
  7
1
 40
1.0
 41
1.0
 42
1.0
 43
6.0
 44
1.0
 45
0.0
 46
0.0
 47
0.0
 48
0.0
140
2.5
141
0.0
142
0.0
143
25.399999999999999
144
1.0
145
0.0
146
1.0
147
0.5
 71
     0
 72
     0
 73
     0
 74
     0
 75
     0
 76
     0
 77
     1
 78
     8
170
     0
171
     2
172
     1
173
     1
174
     0
175
     0
176
     0
177
     0
178
     0
  0
ENDTAB
  0
ENDSEC
  0
SECTION
  2
BLOCKS
  0
BLOCK
  8
0
  2
$MODEL_SPACE
 70
     0
 10
0.0
 20
0.0
 30
0.0
  3
$MODEL_SPACE
  1

  0
ENDBLK
  5
21
  8
0
  0
BLOCK
 67
     1
  8
0
  2
$PAPER_SPACE
 70
     0
 10
0.0
 20
0.0
 30
0.0
  3
$PAPER_SPACE
  1

  0
ENDBLK
  5
1D
 67
     1
  8
0
  0
BLOCK
  8
0
  2
1
 70
     0
 10
0.0
 20
0.0
 30
0.0
  3
1
  1

  0
SOLID
  5
2C
  8
0
  6
BYBLOCK
 62
     0
 10
-1.811110924292052
 20
0.4852857095671653
 30
0.0
 11
-1.811110924292052
 21
-0.4852857095673642
 31
0.0
 12
0.0
 22
0.0
 32
0.0
 13
0.0
 23
0.0
 33
0.0
  0
ENDBLK
  5
2E
  8
0
  0
ENDSEC
  0
SECTION
  2
ENTITIES
  0
LINE
  5
611F
  8
1外形線
 10
53.231897357876562
 20
84.148952117475801
 30
0.0
 11
53.231897357877017
 21
88.148952117475915
 31
0.0
  0
LINE
  5
6120
  8
1外形線
 10
54.231897357876619
 20
85.148952117475687
 30
0.0
 11
54.231897357876839
 21
87.148952117475787
 31
0.0
  0
LINE
  5
6121
  8
1外形線
 10
55.963948165445629
 20
86.148952117475915
 30
0.0
 11
54.23189735787691
 21
87.148952117475687
 31
0.0
  0
LINE
  5
6122
  8
1外形線
 10
47.963948165445402
 20
78.498952117474062
 30
0.0
 11
47.963948165445167
 21
96.748952117475824
 31
0.0
  0
LINE
  5
6123
  8
1外形線
 10
162.6959989730143
 20
84.148952117475801
 30
0.0
 11
162.6959989730139
 21
88.148952117475915
 31
0.0
  0
LINE
  5
6124
  8
1外形線
 10
161.69599897301421
 20
85.148952117475687
 30
0.0
 11
161.69599897301401
 21
87.148952117475787
 31
0.0
  0
LINE
  5
6125
  8
1外形線
 10
159.96394816544529
 20
86.148952117475915
 30
0.0
 11
161.69599897301401
 21
87.148952117475687
 31
0.0
  0
LINE
  5
6126
  8
1外形線
 10
167.96394816544549
 20
78.498952117474062
 30
0.0
 11
167.96394816544569
 21
96.748952117475824
 31
0.0
  0
LINE
  5
6127
  8
1外形線
 10
158.96394816544509
 20
122.24895211747609
 30
0.0
 11
158.96394816544671
 21
71.248952117476165
 31
0.0
  0
LINE
  5
6128
  8
1外形線
 10
195.9030791472637
 20
132.2489521174758
 30
0.0
 11
195.9030791472637
 21
61.248952117475937
 31
0.0
  0
LINE
  5
6129
  8
1外形線
 10
190.90307914726381
 20
132.2489521174758
 30
0.0
 11
190.9030791472637
 21
61.248952117475937
 31
0.0
  0
LINE
  5
612A
  8
1外形線
 10
156.23189735787619
 20
87.148952117476014
 30
0.0
 11
156.23189735787639
 21
85.148952117475915
 31
0.0
  0
LINE
  5
612B
  8
1外形線
 10
157.9639481654452
 20
86.148952117475801
 30
0.0
 11
156.23189735787611
 21
87.148952117476014
 31
0.0
  0
LINE
  5
612C
  8
1外形線
 10
149.23189735787639
 20
88.148952117476014
 30
0.0
 11
149.23189735787659
 21
81.048952117475437
 31
0.0
  0
LINE
  5
612D
  8
1外形線
 10
66.695998973014582
 20
88.148952117476014
 30
0.0
 11
66.695998973014795
 21
81.048952117475551
 31
0.0
  0
TEXT
  5
612E
  8
1外形線
 10
62.151592515148309
 20
85.148405057840819
 30
0.0
 40
2.0
  1
13
  7
KANJI
  0
LINE
  5
612F
  8
1外形線
 10
59.69599897301481
 20
87.148952117476014
 30
0.0
 11
59.695998973014582
 21
85.148952117475915
 31
0.0
  0
LINE
  5
6130
  8
1外形線
 10
57.9639481654458
 20
86.148952117475801
 30
0.0
 11
59.695998973014859
 21
87.148952117476014
 31
0.0
  0
LINE
  5
6131
  8
1外形線
 10
56.963948165446141
 20
122.2489521174758
 30
0.0
 11
56.963948165445913
 21
71.248952117475824
 31
0.0
  0
LINE
  5
6132
  8
1外形線
 10
131.96394816544679
 20
78.748952117475937
 30
0.0
 11
131.9639481654462
 21
114.7489521174757
 31
0.0
  0
LINE
  5
6133
  8
1外形線
 10
83.963948165444322
 20
78.748952117475937
 30
0.0
 11
83.96394816544489
 21
114.7489521174757
 31
0.0
  0
TEXT
  5
6134
  8
1外形線
 10
150.68749090000989
 20
85.148405057840819
 30
0.0
 40
2.0
  1
13
  7
KANJI
  0
LINE
  5
6135
  8
1外形線
 10
66.963948165445686
 20
61.248952117475817
 30
0.0
 11
148.9639481654454
 21
61.248952117475817
 31
0.0
  0
LINE
  5
6136
  8
1外形線
 10
88.363948165445777
 20
63.948952117475748
 30
0.0
 11
127.56394816544559
 21
63.948952117475748
 31
0.0
  0
LINE
  5
6137
  8
1外形線
 10
88.363948165445535
 20
65.148952117475801
 30
0.0
 11
127.56394816544559
 21
65.148952117475801
 31
0.0
  0
LINE
  5
6138
  8
1外形線
 10
87.963948165446254
 20
67.148952117475801
 30
0.0
 11
127.9639481654448
 21
67.148952117475801
 31
0.0
  0
LINE
  5
6139
  8
1外形線
 10
89.363948165445777
 20
46.983938661953403
 30
0.0
 11
126.56394816544559
 21
46.983938661953403
 31
0.0
  0
LINE
  5
613A
  8
1外形線
 10
39.970867077652201
 20
44.983938661953403
 30
0.0
 11
175.95702925323869
 21
44.983938661953403
 31
0.0
  0
LINE
  5
613B
  8
1外形線
 10
39.970867077652201
 20
39.983938661953403
 30
0.0
 11
175.95702925323869
 21
39.983938661953367
 31
0.0
  0
ARC
  5
613C
  8
1外形線
 10
77.713948165443526
 20
70.248952117475937
 30
0.0
 40
3.0
 50
270.0
 51
90.0
  0
LINE
  5
613D
  8
1外形線
 10
39.970867077652201
 20
44.983938661953403
 30
0.0
 11
39.970867077652201
 21
39.983938661953403
 31
0.0
  0
LINE
  5
613E
  8
1外形線
 10
56.963948165445913
 20
44.983938661953403
 30
0.0
 11
56.963948165445913
 21
39.983938661953403
 31
0.0
  0
LINE
  5
613F
  8
1外形線
 10
57.9639481654458
 20
83.048952117475437
 30
0.0
 11
59.695998973014859
 21
84.048952117475665
 31
0.0
  0
LINE
  5
6140
  8
1外形線
 10
57.9639481654458
 20
86.148952117475801
 30
0.0
 11
59.695998973014532
 21
85.148952117476028
 31
0.0
  0
LINE
  5
6141
  8
1外形線
 10
57.9639481654458
 20
83.048952117475437
 30
0.0
 11
59.695998973014532
 21
82.048952117475665
 31
0.0
  0
ARC
  5
6142
  8
1外形線
 10
66.963948165445913
 20
71.248952117475824
 30
0.0
 40
10.0
 50
180.0
 51
270.0
  0
LINE
  5
6143
  8
1外形線
 10
66.695998973014525
 20
81.048952117475665
 30
0.0
 11
56.96394816544597
 21
81.048952117475437
 31
0.0
  0
ARC
  5
6144
  8
1外形線
 10
46.963948165445281
 20
78.498952117474062
 30
0.0
 40
1.0
 50
270.0
 51
0.0
  0
LINE
  5
6145
  8
1外形線
 10
48.475105228443283
 20
75.647836411176002
 30
0.0
 11
40.86444444642467
 21
76.408902489378022
 31
0.0
  0
LINE
  5
6146
  8
1外形線
 10
46.963948165445402
 20
77.498952117474062
 30
0.0
 11
40.170867077652296
 21
77.498952117474062
 31
0.0
  0
ARC
  5
6147
  8
1外形線
 10
40.170867077652183
 20
77.298952117474244
 30
0.0
 40
0.2
 50
90.0
 51
187.5409324273958
  0
ARC
  5
6148
  8
1外形線
 10
40.963948165445522
 20
77.403939679588063
 30
0.0
 40
1.0
 50
187.5409324273958
 51
264.28940686249859
  0
LINE
  5
6149
  8
1外形線
 10
51.460216799073862
 20
75.498952117475881
 30
0.0
 11
53.963948165445743
 21
75.498952117475824
 31
0.0
  0
ARC
  5
614A
  8
1外形線
 10
51.460216799073748
 20
105.4989521174758
 30
0.0
 40
30.0
 50
264.28940686249888
 51
270.0
  0
ARC
  5
614B
  8
1外形線
 10
56.763948165445363
 20
74.048145455959855
 30
0.0
 40
0.2
 50
208.9550243718794
 51
0.0
  0
ARC
  5
614C
  8
1外形線
 10
53.963948165445743
 20
72.498952117475881
 30
0.0
 40
3.0
 50
28.955024371879439
 51
90.0
  0
LINE
  5
614D
  8
1外形線
 10
55.963948165445629
 20
86.148952117475915
 30
0.0
 11
54.231897357876562
 21
85.148952117475687
 31
0.0
  0
LINE
  5
614E
  8
1外形線
 10
56.963948165445863
 20
84.148952117475801
 30
0.0
 11
53.231897357876562
 21
84.148952117475801
 31
0.0
  0
ARC
  5
614F
  8
1外形線
 10
72.213948165443526
 20
70.248952117475937
 30
0.0
 40
3.0
 50
90.0
 51
270.0
  0
LINE
  5
6150
  8
1外形線
 10
72.213948165443526
 20
67.248952117475923
 30
0.0
 11
77.713948165443526
 21
67.248952117475923
 31
0.0
  0
TEXT
  5
6151
  8
1外形線
 10
61.976815462621168
 20
82.048405057840455
 30
0.0
 40
2.0
  1
20
  7
KANJI
  0
LINE
  5
6152
  8
1外形線
 10
59.69599897301481
 20
84.048952117475665
 30
0.0
 11
59.695998973014582
 21
82.048952117475551
 31
0.0
  0
LINE
  5
6153
  8
1外形線
 10
72.213948165443526
 20
73.248952117475937
 30
0.0
 11
77.713948165443526
 21
73.248952117475937
 31
0.0
  0
ARC
  5
6154
  8
1外形線
 10
89.363948165445777
 20
45.983938661953403
 30
0.0
 40
1.0
 50
90.0
 51
180.0
  0
LINE
  5
6155
  8
1外形線
 10
88.363948165445777
 20
45.983938661953403
 30
0.0
 11
88.363948165445777
 21
44.983938661953403
 31
0.0
  0
LINE
  5
6156
  8
1外形線
 10
86.963948165445004
 20
76.748952117475994
 30
0.0
 11
86.963948165445103
 21
68.148952117475801
 31
0.0
  0
LINE
  5
6157
  8
1外形線
 10
88.363948165445777
 20
63.948952117475869
 30
0.0
 11
88.363948165445535
 21
65.148952117475801
 31
0.0
  0
ARC
  5
6158
  8
1外形線
 10
87.963948165446254
 20
68.148952117475801
 30
0.0
 40
1.0
 50
180.00000000000159
 51
270.0
  0
ARC
  5
6159
  8
1外形線
 10
84.963948165444322
 20
78.748952117475937
 30
0.0
 40
1.0
 50
179.99999999999829
 51
270.0
  0
LINE
  5
615A
  8
1外形線
 10
85.963948165445004
 20
77.748952117475994
 30
0.0
 11
84.963948165444435
 21
77.748952117475937
 31
0.0
  0
ARC
  5
615B
  8
1外形線
 10
85.963948165445004
 20
76.748952117475994
 30
0.0
 40
1.0
 50
0.0000000000016284
 51
90.0
  0
ARC
  5
615C
  8
1外形線
 10
164.46767953181711
 20
105.4989521174758
 30
0.0
 40
30.0
 50
270.0
 51
275.71059313750061
  0
ARC
  5
615D
  8
1外形線
 10
126.56394816544559
 20
45.983938661953403
 30
0.0
 40
1.0
 50
0.0
 51
90.0
  0
LINE
  5
615E
  8
1外形線
 10
127.56394816544559
 20
45.983938661953403
 30
0.0
 11
127.56394816544559
 21
44.983938661953403
 31
0.0
  0
LINE
  5
615F
  8
1外形線
 10
158.9639481654452
 20
44.983938661953403
 30
0.0
 11
158.96394816544529
 21
39.983938661953403
 31
0.0
  0
ARC
  5
6160
  8
1外形線
 10
143.7139481654475
 20
70.248952117476165
 30
0.0
 40
3.0
 50
270.0
 51
90.0
  0
ARC
  5
6161
  8
1外形線
 10
138.21394816544739
 20
70.248952117476165
 30
0.0
 40
3.0
 50
90.0
 51
270.0
  0
LINE
  5
6162
  8
1外形線
 10
128.96394816544611
 20
76.748952117475994
 30
0.0
 11
128.963948165446
 21
68.148952117475801
 31
0.0
  0
ARC
  5
6163
  8
1外形線
 10
127.9639481654448
 20
68.148952117475801
 30
0.0
 40
1.0
 50
270.0
 51
359.99999999999829
  0
LINE
  5
6164
  8
1外形線
 10
127.56394816544569
 20
63.948952117475869
 30
0.0
 11
127.56394816544559
 21
65.148952117475801
 31
0.0
  0
LINE
  5
6165
  8
1外形線
 10
143.7139481654475
 20
67.248952117476165
 30
0.0
 11
138.21394816544739
 21
67.248952117476165
 31
0.0
  0
ARC
  5
6166
  8
1外形線
 10
130.96394816544679
 20
78.748952117475937
 30
0.0
 40
1.0
 50
270.0
 51
0.0000000000016284
  0
ARC
  5
6167
  8
1外形線
 10
129.96394816544611
 20
76.748952117475994
 30
0.0
 40
1.0
 50
90.0
 51
179.99999999999829
  0
LINE
  5
6168
  8
1外形線
 10
129.96394816544611
 20
77.748952117475994
 30
0.0
 11
130.96394816544671
 21
77.748952117475937
 31
0.0
  0
LINE
  5
6169
  8
1外形線
 10
143.7139481654475
 20
73.248952117476165
 30
0.0
 11
138.21394816544739
 21
73.248952117476165
 31
0.0
  0
ARC
  5
616A
  8
1外形線
 10
148.9639481654452
 20
71.248952117475824
 30
0.0
 40
10.0
 50
270.0
 51
359.99999999998852
  0
LINE
  5
616B
  8
1外形線
 10
158.9639481654452
 20
81.048952117475594
 30
0.0
 11
149.2318973578767
 21
81.048952117475437
 31
0.0
  0
TEXT
  5
616C
  8
1外形線
 10
150.51271384748279
 20
82.048405057840455
 30
0.0
 40
2.0
  1
20
  7
KANJI
  0
ARC
  5
616D
  8
1外形線
 10
161.96394816544509
 20
72.498952117475881
 30
0.0
 40
3.0
 50
90.0
 51
151.04497562812051
  0
ARC
  5
616E
  8
1外形線
 10
159.1639481654455
 20
74.048145455959855
 30
0.0
 40
0.2
 50
180.0
 51
331.04497562812048
  0
LINE
  5
616F
  8
1外形線
 10
164.467679531817
 20
75.498952117475881
 30
0.0
 11
161.96394816544509
 21
75.498952117475824
 31
0.0
  0
LINE
  5
6170
  8
1外形線
 10
158.963948165445
 20
84.148952117475801
 30
0.0
 11
162.6959989730143
 21
84.148952117475801
 31
0.0
  0
LINE
  5
6171
  8
1外形線
 10
159.96394816544529
 20
86.148952117475915
 30
0.0
 11
161.6959989730143
 21
85.148952117475687
 31
0.0
  0
LINE
  5
6172
  8
1外形線
 10
157.9639481654452
 20
86.148952117475801
 30
0.0
 11
156.23189735787651
 21
85.148952117476028
 31
0.0
  0
LINE
  5
6173
  8
1外形線
 10
157.9639481654452
 20
83.048952117475437
 30
0.0
 11
156.23189735787611
 21
84.048952117475665
 31
0.0
  0
LINE
  5
6174
  8
1外形線
 10
156.23189735787619
 20
84.048952117475665
 30
0.0
 11
156.23189735787639
 21
82.048952117475551
 31
0.0
  0
LINE
  5
6175
  8
1外形線
 10
157.9639481654452
 20
83.048952117475437
 30
0.0
 11
156.23189735787651
 21
82.048952117475665
 31
0.0
  0
LINE
  5
6176
  8
1外形線
 10
175.95702925323869
 20
44.983938661953403
 30
0.0
 11
175.95702925323869
 21
39.983938661953403
 31
0.0
  0
LINE
  5
6177
  8
1外形線
 10
167.45279110244761
 20
75.647836411176002
 30
0.0
 11
175.06345188446619
 21
76.408902489378022
 31
0.0
  0
LINE
  5
6178
  8
1外形線
 10
168.96394816544549
 20
77.498952117474062
 30
0.0
 11
175.75702925323861
 21
77.498952117474062
 31
0.0
  0
ARC
  5
6179
  8
1外形線
 10
168.9639481654456
 20
78.498952117474062
 30
0.0
 40
1.0
 50
180.0
 51
270.0
  0
ARC
  5
617A
  8
1外形線
 10
175.7570292532387
 20
77.298952117474244
 30
0.0
 40
0.2
 50
352.45906757260582
 51
90.0
  0
ARC
  5
617B
  8
1外形線
 10
174.9639481654454
 20
77.403939679588063
 30
0.0
 40
1.0
 50
275.71059313750101
 51
352.45906757260411
  0
LINE
  5
617C
  8
1外形線
 10
190.9030791472637
 20
61.248952117475937
 30
0.0
 11
195.9030791472637
 21
61.248952117475937
 31
0.0
  0
LINE
  5
617D
  8
1外形線
 10
190.9030791472635
 20
63.94895211747599
 30
0.0
 11
188.9030791472635
 21
63.94895211747599
 31
0.0
  0
LINE
  5
617E
  8
1外形線
 10
188.90307914726361
 20
65.148952117476028
 30
0.0
 11
190.9030791472637
 21
65.148952117475801
 31
0.0
  0
LINE
  5
617F
  8
1外形線
 10
188.9030791472635
 20
65.148952117475915
 30
0.0
 11
188.9030791472635
 21
63.94895211747599
 31
0.0
  0
LINE
  5
6180
  8
1外形線
 10
190.9030791472637
 20
75.498952117475881
 30
0.0
 11
195.90307914726361
 21
75.498952117475881
 31
0.0
  0
LINE
  5
6181
  8
1外形線
 10
190.9030791472637
 20
77.498952117474062
 30
0.0
 11
195.90307914726361
 21
77.498952117474062
 31
0.0
  0
LINE
  5
6182
  8
1外形線
 10
66.963948165445686
 20
132.2489521174758
 30
0.0
 11
148.9639481654452
 21
132.2489521174758
 31
0.0
  0
LINE
  5
6183
  8
1外形線
 10
88.363948165445535
 20
128.34895211747579
 30
0.0
 11
127.56394816544559
 21
128.34895211747579
 31
0.0
  0
LINE
  5
6184
  8
1外形線
 10
88.363948165445777
 20
129.54895211747589
 30
0.0
 11
127.56394816544559
 21
129.54895211747589
 31
0.0
  0
LINE
  5
6185
  8
1外形線
 10
87.963948165445103
 20
126.3489521174756
 30
0.0
 11
127.963948165446
 21
126.3489521174757
 31
0.0
  0
LINE
  5
6186
  8
1外形線
 10
114.50229658075639
 20
94.248952117475824
 30
0.0
 11
131.96394816544631
 21
94.248952117475824
 31
0.0
  0
LINE
  5
6187
  8
1外形線
 10
114.50229658075639
 20
99.248952117475824
 30
0.0
 11
131.96394816544611
 21
99.248952117475824
 31
0.0
  0
ARC
  5
6188
  8
1外形線
 10
77.713948165443526
 20
123.2489521174757
 30
0.0
 40
3.0
 50
270.0
 51
90.0
  0
LINE
  5
6189
  8
1外形線
 10
82.463948165443014
 20
96.248952117475596
 30
0.0
 11
75.463948165447505
 21
96.248952117475596
 31
0.0
  0
LINE
  5
618A
  8
1外形線
 10
82.463948165443014
 20
97.248952117477813
 30
0.0
 11
75.463948165447505
 21
97.248952117478055
 31
0.0
  0
ARC
  5
618B
  8
1外形線
 10
40.963948165445522
 20
116.0939645553635
 30
0.0
 40
1.0
 50
95.710593137501007
 51
172.45906757260411
  0
LINE
  5
618C
  8
1外形線
 10
48.475105228443283
 20
117.8500678237756
 30
0.0
 11
40.86444444642467
 21
117.0890017455736
 31
0.0
  0
LINE
  5
618D
  8
1外形線
 10
57.9639481654458
 20
110.4489521174764
 30
0.0
 11
59.695998973014532
 21
111.4489521174762
 31
0.0
  0
LINE
  5
618E
  8
1外形線
 10
66.695998973014582
 20
112.448952117476
 30
0.0
 11
56.963948165446077
 21
112.4489521174762
 31
0.0
  0
LINE
  5
618F
  8
1外形線
 10
57.9639481654458
 20
107.348952117476
 30
0.0
 11
59.695998973014859
 21
106.3489521174758
 31
0.0
  0
LINE
  5
6190
  8
1外形線
 10
57.9639481654458
 20
107.348952117476
 30
0.0
 11
59.695998973014532
 21
108.3489521174758
 31
0.0
  0
LINE
  5
6191
  8
1外形線
 10
62.463948165444322
 20
97.248952117478495
 30
0.0
 11
58.463948165447619
 21
97.248952117478723
 31
0.0
  0
LINE
  5
6192
  8
1外形線
 10
62.463948165444322
 20
96.248952117475426
 30
0.0
 11
58.463948165447619
 21
96.248952117475369
 31
0.0
  0
LINE
  5
6193
  8
1外形線
 10
66.695998973014355
 20
105.3489521174756
 30
0.0
 11
56.963948165446048
 21
105.3489521174756
 31
0.0
  0
LINE
  5
6194
  8
1外形線
 10
66.695998973014753
 20
88.148952117476014
 30
0.0
 11
56.963948165445998
 21
88.148952117476014
 31
0.0
  0
LINE
  5
6195
  8
1外形線
 10
57.9639481654458
 20
110.4489521174764
 30
0.0
 11
59.695998973014859
 21
109.4489521174762
 31
0.0
  0
LINE
  5
6196
  8
1外形線
 10
47.963948165445402
 20
114.9989521174775
 30
0.0
 11
47.963948165445167
 21
96.748952117475824
 31
0.0
  0
LINE
  5
6197
  8
1外形線
 10
56.963948165445629
 20
88.148952117475815
 30
0.0
 11
53.231897357877017
 21
88.148952117475915
 31
0.0
  0
LINE
  5
6198
  8
1外形線
 10
56.963948165444968
 20
96.748952117475824
 30
0.0
 11
47.963948165445167
 21
96.748952117475824
 31
0.0
  0
ARC
  5
6199
  8
1外形線
 10
58.463948165447619
 20
96.748952117476961
 30
0.0
 40
0.5000000000016059
 50
90.0
 51
270.0
  0
ARC
  5
619A
  8
1外形線
 10
46.963948165445281
 20
114.9989521174775
 30
0.0
 40
1.0
 50
0.0
 51
90.0
  0
LINE
  5
619B
  8
1外形線
 10
46.963948165445402
 20
115.9989521174775
 30
0.0
 11
40.170867077652296
 21
115.9989521174775
 31
0.0
  0
ARC
  5
619C
  8
1外形線
 10
40.170867077652183
 20
116.1989521174774
 30
0.0
 40
0.2
 50
172.45906757260579
 51
270.0
  0
LINE
  5
619D
  8
1外形線
 10
54.231897357876619
 20
108.3489521174759
 30
0.0
 11
54.231897357876839
 21
106.3489521174758
 31
0.0
  0
LINE
  5
619E
  8
1外形線
 10
55.963948165445629
 20
107.3489521174757
 30
0.0
 11
54.231897357876562
 21
108.3489521174759
 31
0.0
  0
LINE
  5
619F
  8
1外形線
 10
55.963948165445629
 20
107.3489521174757
 30
0.0
 11
54.23189735787691
 21
106.3489521174759
 31
0.0
  0
LINE
  5
61A0
  8
1外形線
 10
56.963948165445863
 20
109.3489521174758
 30
0.0
 11
53.231897357876562
 21
109.3489521174758
 31
0.0
  0
LINE
  5
61A1
  8
1外形線
 10
56.963948165445629
 20
105.3489521174758
 30
0.0
 11
53.231897357877017
 21
105.3489521174757
 31
0.0
  0
LINE
  5
61A2
  8
1外形線
 10
53.231897357876562
 20
109.3489521174758
 30
0.0
 11
53.231897357877017
 21
105.3489521174757
 31
0.0
  0
CIRCLE
  5
61A3
  8
1外形線
 10
68.963948165445913
 20
96.748952117475824
 30
0.0
 40
5.0
  0
CIRCLE
  5
61A4
  8
1外形線
 10
68.963948165445913
 20
96.748952117475824
 30
0.0
 40
2.1000000000000001
  0
CIRCLE
  5
61A5
  8
1外形線
 10
68.963948165445913
 20
96.748952117475824
 30
0.0
 40
3.6000000000000001
  0
ARC
  5
61A6
  8
1外形線
 10
62.463948165444322
 20
96.748952117476961
 30
0.0
 40
0.5000000000016059
 50
270.0
 51
90.0
  0
ARC
  5
61A7
  8
1外形線
 10
75.463948165447505
 20
96.748952117476961
 30
0.0
 40
0.5000000000016059
 50
90.0
 51
270.0
  0
LINE
  5
61A8
  8
1外形線
 10
66.695998973014355
 20
105.3489521174756
 30
0.0
 11
66.695998973014582
 21
112.448952117476
 31
0.0
  0
TEXT
  5
61A9
  8
1外形線
 10
62.23446922224884
 20
106.34840505784059
 30
0.0
 40
2.0
  1
13
  7
KANJI
  0
LINE
  5
61AA
  8
1外形線
 10
59.69599897301481
 20
106.3489521174758
 30
0.0
 11
59.695998973014582
 21
108.3489521174759
 31
0.0
  0
TEXT
  5
61AB
  8
1外形線
 10
62.03179944457878
 20
109.448405057841
 30
0.0
 40
2.0
  1
20
  7
KANJI
  0
LINE
  5
61AC
  8
1外形線
 10
59.69599897301481
 20
109.4489521174762
 30
0.0
 11
59.695998973014582
 21
111.4489521174763
 31
0.0
  0
ARC
  5
61AD
  8
1外形線
 10
66.963948165446141
 20
122.2489521174758
 30
0.0
 40
10.0
 50
90.0
 51
180.0
  0
LINE
  5
61AE
  8
1外形線
 10
51.460216799073862
 20
117.9989521174757
 30
0.0
 11
53.963948165445743
 21
117.9989521174758
 31
0.0
  0
ARC
  5
61AF
  8
1外形線
 10
51.460216799073748
 20
87.998952117475767
 30
0.0
 40
30.0
 50
90.0
 51
95.710593137501007
  0
ARC
  5
61B0
  8
1外形線
 10
56.763948165445363
 20
119.44975877899179
 30
0.0
 40
0.2
 50
0.0
 51
151.04497562812051
  0
ARC
  5
61B1
  8
1外形線
 10
53.963948165445743
 20
120.9989521174757
 30
0.0
 40
3.0
 50
270.0
 51
331.04497562812048
  0
ARC
  5
61B2
  8
1外形線
 10
72.213948165443526
 20
123.2489521174757
 30
0.0
 40
3.0
 50
90.0
 51
270.0
  0
LINE
  5
61B3
  8
1外形線
 10
72.213948165443526
 20
120.2489521174757
 30
0.0
 11
77.713948165443526
 21
120.2489521174757
 31
0.0
  0
LINE
  5
61B4
  8
1外形線
 10
72.213948165443526
 20
126.2489521174757
 30
0.0
 11
77.713948165443526
 21
126.2489521174757
 31
0.0
  0
LINE
  5
61B5
  8
1外形線
 10
86.963948165445004
 20
116.7489521174756
 30
0.0
 11
86.963948165445103
 21
125.3489521174757
 31
0.0
  0
ARC
  5
61B6
  8
1外形線
 10
107.9639481654454
 20
96.748952117475824
 30
0.0
 40
7.0
 50
200.9248324276368
 51
339.07516757236129
  0
ARC
  5
61B7
  8
1外形線
 10
107.9639481654454
 20
96.748952117475824
 30
0.0
 40
7.0
 50
20.924832427638481
 51
159.07516757236311
  0
LINE
  5
61B8
  8
1外形線
 10
83.963948165444776
 20
94.248952117475824
 30
0.0
 11
101.4255997501344
 21
94.248952117475824
 31
0.0
  0
LINE
  5
61B9
  8
1外形線
 10
83.963948165445004
 20
99.248952117475824
 30
0.0
 11
101.4255997501344
 21
99.248952117475824
 31
0.0
  0
ARC
  5
61BA
  8
1外形線
 10
82.463948165443014
 20
96.748952117476961
 30
0.0
 40
0.5000000000016059
 50
270.0
 51
90.0
  0
LINE
  5
61BB
  8
1外形線
 10
85.963948165445004
 20
115.7489521174756
 30
0.0
 11
84.963948165444435
 21
115.7489521174758
 31
0.0
  0
ARC
  5
61BC
  8
1外形線
 10
84.963948165444322
 20
114.7489521174757
 30
0.0
 40
1.0
 50
90.0
 51
180.00000000000159
  0
ARC
  5
61BD
  8
1外形線
 10
85.963948165445004
 20
116.7489521174756
 30
0.0
 40
1.0
 50
270.0
 51
359.99999999999829
  0
CIRCLE
  5
61BE
  8
1外形線
 10
107.9639481654454
 20
96.748952117475824
 30
0.0
 40
2.5
  0
LINE
  5
61BF
  8
1外形線
 10
88.363948165445777
 20
129.54895211747601
 30
0.0
 11
88.363948165445535
 21
128.34895211747579
 31
0.0
  0
ARC
  5
61C0
  8
1外形線
 10
87.963948165445103
 20
125.3489521174757
 30
0.0
 40
1.0
 50
90.0
 51
180.00000000000159
  0
LINE
  5
61C1
  8
1外形線
 10
158.96394816544591
 20
96.748952117475824
 30
0.0
 11
167.96394816544569
 21
96.748952117475824
 31
0.0
  0
ARC
  5
61C2
  8
1外形線
 10
164.46767953181711
 20
87.998952117475767
 30
0.0
 40
30.0
 50
84.289406862498979
 51
90.0
  0
LINE
  5
61C3
  8
1外形線
 10
128.96394816544611
 20
116.7489521174756
 30
0.0
 11
128.963948165446
 21
125.3489521174757
 31
0.0
  0
CIRCLE
  5
61C4
  8
1外形線
 10
146.9639481654452
 20
96.748952117475824
 30
0.0
 40
3.6000000000000001
  0
CIRCLE
  5
61C5
  8
1外形線
 10
146.9639481654452
 20
96.748952117475824
 30
0.0
 40
2.1000000000000001
  0
CIRCLE
  5
61C6
  8
1外形線
 10
146.9639481654452
 20
96.748952117475824
 30
0.0
 40
5.0
  0
LINE
  5
61C7
  8
1外形線
 10
140.46394816544361
 20
97.248952117476392
 30
0.0
 11
133.4639481654481
 21
97.248952117476506
 31
0.0
  0
LINE
  5
61C8
  8
1外形線
 10
140.46394816544361
 20
96.248952117475937
 30
0.0
 11
133.4639481654481
 21
96.248952117475824
 31
0.0
  0
ARC
  5
61C9
  8
1外形線
 10
133.4639481654481
 20
96.748952117475824
 30
0.0
 40
0.5000000000016059
 50
90.0
 51
270.0
  0
ARC
  5
61CA
  8
1外形線
 10
140.46394816544361
 20
96.748952117476961
 30
0.0
 40
0.5000000000016059
 50
270.0
 51
90.0
  0
ARC
  5
61CB
  8
1外形線
 10
129.96394816544611
 20
116.7489521174756
 30
0.0
 40
1.0
 50
180.00000000000159
 51
270.0
  0
LINE
  5
61CC
  8
1外形線
 10
129.96394816544611
 20
115.7489521174756
 30
0.0
 11
130.96394816544671
 21
115.7489521174757
 31
0.0
  0
ARC
  5
61CD
  8
1外形線
 10
130.96394816544679
 20
114.7489521174757
 30
0.0
 40
1.0
 50
359.99999999999829
 51
90.0
  0
LINE
  5
61CE
  8
1外形線
 10
157.4639481654437
 20
96.248952117475824
 30
0.0
 11
153.46394816544679
 21
96.248952117475881
 31
0.0
  0
LINE
  5
61CF
  8
1外形線
 10
157.4639481654437
 20
97.248952117475923
 30
0.0
 11
153.46394816544679
 21
97.248952117476108
 31
0.0
  0
LINE
  5
61D0
  8
1外形線
 10
158.96394816544529
 20
88.148952117476014
 30
0.0
 11
149.23189735787639
 21
88.148952117476014
 31
0.0
  0
ARC
  5
61D1
  8
1外形線
 10
153.46394816544679
 20
96.748952117476961
 30
0.0
 40
0.5000000000016059
 50
90.0
 51
270.0
  0
LINE
  5
61D2
  8
1外形線
 10
158.96394816544529
 20
88.148952117475815
 30
0.0
 11
162.6959989730139
 21
88.148952117475915
 31
0.0
  0
ARC
  5
61D3
  8
1外形線
 10
157.4639481654437
 20
96.748952117476961
 30
0.0
 40
0.5000000000016059
 50
270.0
 51
90.0
  0
LINE
  5
61D4
  8
1外形線
 10
158.96394816544529
 20
105.3489521174758
 30
0.0
 11
149.23189735787619
 21
105.3489521174758
 31
0.0
  0
LINE
  5
61D5
  8
1外形線
 10
158.9639481654452
 20
112.4489521174763
 30
0.0
 11
149.23189735787651
 21
112.4489521174764
 31
0.0
  0
LINE
  5
61D6
  8
1外形線
 10
149.23189735787619
 20
105.348952117476
 30
0.0
 11
149.23189735787639
 21
112.44895211747649
 31
0.0
  0
LINE
  5
61D7
  8
1外形線
 10
155.23189735787619
 20
105.3489521174758
 30
0.0
 11
149.23189735787619
 21
105.3489521174758
 31
0.0
  0
TEXT
  5
61D8
  8
1外形線
 10
150.7703676071107
 20
106.34840505784079
 30
0.0
 40
2.0
  1
13
  7
KANJI
  0
LINE
  5
61D9
  8
1外形線
 10
155.23189735787639
 20
112.4489521174763
 30
0.0
 11
149.23189735787639
 21
112.4489521174764
 31
0.0
  0
TEXT
  5
61DA
  8
1外形線
 10
150.56769782944059
 20
109.4484050578412
 30
0.0
 40
2.0
  1
20
  7
KANJI
  0
LINE
  5
61DB
  8
1外形線
 10
159.96394816544529
 20
107.3489521174757
 30
0.0
 11
161.6959989730143
 21
108.3489521174759
 31
0.0
  0
LINE
  5
61DC
  8
1外形線
 10
159.96394816544529
 20
107.3489521174757
 30
0.0
 11
161.69599897301401
 21
106.3489521174759
 31
0.0
  0
LINE
  5
61DD
  8
1外形線
 10
158.963948165445
 20
109.3489521174758
 30
0.0
 11
162.6959989730143
 21
109.3489521174758
 31
0.0
  0
LINE
  5
61DE
  8
1外形線
 10
158.96394816544529
 20
105.3489521174758
 30
0.0
 11
162.6959989730139
 21
105.3489521174757
 31
0.0
  0
LINE
  5
61DF
  8
1外形線
 10
156.23189735787619
 20
106.3489521174758
 30
0.0
 11
156.23189735787639
 21
108.3489521174759
 31
0.0
  0
LINE
  5
61E0
  8
1外形線
 10
157.9639481654452
 20
107.348952117476
 30
0.0
 11
156.23189735787651
 21
108.3489521174758
 31
0.0
  0
LINE
  5
61E1
  8
1外形線
 10
157.9639481654452
 20
107.348952117476
 30
0.0
 11
156.23189735787611
 21
106.3489521174758
 31
0.0
  0
LINE
  5
61E2
  8
1外形線
 10
161.69599897301421
 20
108.3489521174759
 30
0.0
 11
161.69599897301401
 21
106.3489521174758
 31
0.0
  0
LINE
  5
61E3
  8
1外形線
 10
162.6959989730143
 20
109.3489521174758
 30
0.0
 11
162.6959989730139
 21
105.3489521174757
 31
0.0
  0
LINE
  5
61E4
  8
1外形線
 10
157.9639481654452
 20
110.4489521174764
 30
0.0
 11
156.23189735787651
 21
111.4489521174762
 31
0.0
  0
LINE
  5
61E5
  8
1外形線
 10
156.23189735787619
 20
109.4489521174762
 30
0.0
 11
156.23189735787639
 21
111.4489521174763
 31
0.0
  0
LINE
  5
61E6
  8
1外形線
 10
157.9639481654452
 20
110.4489521174764
 30
0.0
 11
156.23189735787611
 21
109.4489521174762
 31
0.0
  0
ARC
  5
61E7
  8
1外形線
 10
143.7139481654475
 20
123.2489521174757
 30
0.0
 40
3.0
 50
270.0
 51
90.0
  0
ARC
  5
61E8
  8
1外形線
 10
127.963948165446
 20
125.3489521174757
 30
0.0
 40
1.0
 50
359.99999999999829
 51
90.0
  0
LINE
  5
61E9
  8
1外形線
 10
127.56394816544569
 20
129.54895211747601
 30
0.0
 11
127.56394816544559
 21
128.34895211747579
 31
0.0
  0
ARC
  5
61EA
  8
1外形線
 10
138.21394816544739
 20
123.2489521174757
 30
0.0
 40
3.0
 50
90.0
 51
270.0
  0
LINE
  5
61EB
  8
1外形線
 10
143.7139481654475
 20
120.2489521174757
 30
0.0
 11
138.21394816544739
 21
120.2489521174757
 31
0.0
  0
LINE
  5
61EC
  8
1外形線
 10
143.7139481654475
 20
126.2489521174757
 30
0.0
 11
138.21394816544739
 21
126.2489521174757
 31
0.0
  0
ARC
  5
61ED
  8
1外形線
 10
148.9639481654452
 20
122.2489521174758
 30
0.0
 40
10.0
 50
0.0000000000113991
 51
90.0
  0
ARC
  5
61EE
  8
1外形線
 10
161.96394816544509
 20
120.9989521174757
 30
0.0
 40
3.0
 50
208.9550243718794
 51
270.0
  0
ARC
  5
61EF
  8
1外形線
 10
159.1639481654455
 20
119.44975877899179
 30
0.0
 40
0.2
 50
28.955024371879439
 51
180.0
  0
LINE
  5
61F0
  8
1外形線
 10
164.467679531817
 20
117.9989521174757
 30
0.0
 11
161.96394816544509
 21
117.9989521174758
 31
0.0
  0
LINE
  5
61F1
  8
1外形線
 10
167.45279110244761
 20
117.8500678237756
 30
0.0
 11
175.06345188446619
 21
117.0890017455736
 31
0.0
  0
ARC
  5
61F2
  8
1外形線
 10
174.9639481654454
 20
116.0939645553635
 30
0.0
 40
1.0
 50
7.5409324273958473
 51
84.289406862498979
  0
LINE
  5
61F3
  8
1外形線
 10
167.96394816544549
 20
114.9989521174775
 30
0.0
 11
167.96394816544569
 21
96.748952117475824
 31
0.0
  0
LINE
  5
61F4
  8
1外形線
 10
168.96394816544549
 20
115.9989521174775
 30
0.0
 11
175.75702925323861
 21
115.9989521174775
 31
0.0
  0
ARC
  5
61F5
  8
1外形線
 10
168.9639481654456
 20
114.9989521174775
 30
0.0
 40
1.0
 50
90.0
 51
180.0
  0
ARC
  5
61F6
  8
1外形線
 10
175.7570292532387
 20
116.1989521174774
 30
0.0
 40
0.2
 50
270.0
 51
7.5409324273941793
  0
LINE
  5
61F7
  8
1外形線
 10
190.9030791472637
 20
96.748952117475824
 30
0.0
 11
195.90307914726361
 21
96.748952117475824
 31
0.0
  0
LINE
  5
61F8
  8
1外形線
 10
190.9030791472637
 20
115.9989521174775
 30
0.0
 11
195.9030791472637
 21
115.9989521174775
 31
0.0
  0
LINE
  5
61F9
  8
1外形線
 10
190.9030791472637
 20
117.9989521174758
 30
0.0
 11
195.90307914726361
 21
117.9989521174758
 31
0.0
  0
LINE
  5
61FA
  8
1外形線
 10
190.9030791472637
 20
132.2489521174758
 30
0.0
 11
195.9030791472637
 21
132.2489521174758
 31
0.0
  0
LINE
  5
61FB
  8
1外形線
 10
190.9030791472635
 20
129.54895211747561
 30
0.0
 11
188.9030791472635
 21
129.54895211747561
 31
0.0
  0
LINE
  5
61FC
  8
1外形線
 10
188.90307914726361
 20
128.34895211747559
 30
0.0
 11
190.9030791472637
 21
128.34895211747579
 31
0.0
  0
LINE
  5
61FD
  8
1外形線
 10
188.9030791472635
 20
128.3489521174757
 30
0.0
 11
188.9030791472635
 21
129.54895211747561
 31
0.0
  0
ENDSEC
  0
EOF
