  0
SECTION
  2
HEADER
  9
$ACADVER
  1
AC1009
  9
$INSBASE
 10
0.0
 20
0.0
 30
0.0
  9
$EXTMIN
 10
20.717761997079091
 20
-25.750029856048059
 30
-0.0015258207003583
  9
$EXTMAX
 10
615.43703137683963
 20
408.08463664145091
 30
0.0000000349246037
  9
$LIMMIN
 10
0.0
 20
0.0
  9
$LIMMAX
 10
420.0
 20
297.0
  9
$ORTHOMODE
 70
     0
  9
$REGENMODE
 70
     1
  9
$FILLMODE
 70
     1
  9
$QTEXTMODE
 70
     0
  9
$MIRRTEXT
 70
     1
  9
$DRAGMODE
 70
     2
  9
$LTSCALE
 40
1.0
  9
$OSMODE
 70
    37
  9
$ATTMODE
 70
     1
  9
$TEXTSIZE
 40
2.5
  9
$TRACEWID
 40
1.0
  9
$TEXTSTYLE
  7
STANDARD
  9
$CLAYER
  8
0
  9
$CELTYPE
  6
BYLAYER
  9
$CECOLOR
 62
   256
  9
$DIMSCALE
 40
1.0
  9
$DIMASZ
 40
2.5
  9
$DIMEXO
 40
0.625
  9
$DIMDLI
 40
3.75
  9
$DIMRND
 40
0.0
  9
$DIMDLE
 40
0.0
  9
$DIMEXE
 40
1.25
  9
$DIMTP
 40
0.0
  9
$DIMTM
 40
0.0
  9
$DIMTXT
 40
2.5
  9
$DIMCEN
 40
2.5
  9
$DIMTSZ
 40
0.0
  9
$DIMTOL
 70
     0
  9
$DIMLIM
 70
     0
  9
$DIMTIH
 70
     0
  9
$DIMTOH
 70
     0
  9
$DIMSE1
 70
     0
  9
$DIMSE2
 70
     0
  9
$DIMTAD
 70
     1
  9
$DIMZIN
 70
     8
  9
$DIMBLK
  1

  9
$DIMASO
 70
     1
  9
$DIMSHO
 70
     1
  9
$DIMPOST
  1

  9
$DIMAPOST
  1

  9
$DIMALT
 70
     0
  9
$DIMALTD
 70
     3
  9
$DIMALTF
 40
0.03937007874016
  9
$DIMLFAC
 40
1.0
  9
$DIMTOFL
 70
     1
  9
$DIMTVP
 40
0.0
  9
$DIMTIX
 70
     0
  9
$DIMSOXD
 70
     0
  9
$DIMSAH
 70
     0
  9
$DIMBLK1
  1

  9
$DIMBLK2
  1

  9
$DIMSTYLE
  2
ISO-25
  9
$DIMCLRD
 70
     0
  9
$DIMCLRE
 70
     0
  9
$DIMCLRT
 70
     0
  9
$DIMTFAC
 40
1.0
  9
$DIMGAP
 40
0.625
  9
$LUNITS
 70
     2
  9
$LUPREC
 70
     4
  9
$SKETCHINC
 40
1.0
  9
$FILLETRAD
 40
10.0
  9
$AUNITS
 70
     0
  9
$AUPREC
 70
     0
  9
$MENU
  1
.
  9
$ELEVATION
 40
0.0
  9
$PELEVATION
 40
0.0
  9
$THICKNESS
 40
0.0
  9
$LIMCHECK
 70
     0
  9
$BLIPMODE
 70
     0
  9
$CHAMFERA
 40
10.0
  9
$CHAMFERB
 40
10.0
  9
$SKPOLY
 70
     0
  9
$TDCREATE
 40
2452048.587873715
  9
$TDUPDATE
 40
2452048.6134295599
  9
$TDINDWG
 40
0.0255579282
  9
$TDUSRTIMER
 40
0.0255579282
  9
$USRTIMER
 70
     1
  9
$ANGBASE
 50
0.0
  9
$ANGDIR
 70
     0
  9
$PDMODE
 70
     0
  9
$PDSIZE
 40
0.0
  9
$PLINEWID
 40
0.0
  9
$COORDS
 70
     1
  9
$SPLFRAME
 70
     0
  9
$SPLINETYPE
 70
     6
  9
$SPLINESEGS
 70
     8
  9
$ATTDIA
 70
     0
  9
$ATTREQ
 70
     1
  9
$HANDLING
 70
-16383
  9
$HANDSEED
  5
63D4
  9
$SURFTAB1
 70
     6
  9
$SURFTAB2
 70
     6
  9
$SURFTYPE
 70
     6
  9
$SURFU
 70
     6
  9
$SURFV
 70
     6
  9
$UCSNAME
  2

  9
$UCSORG
 10
0.0
 20
0.0
 30
0.0
  9
$UCSXDIR
 10
1.0
 20
0.0
 30
0.0
  9
$UCSYDIR
 10
0.0
 20
1.0
 30
0.0
  9
$PUCSNAME
  2

  9
$PUCSORG
 10
0.0
 20
0.0
 30
0.0
  9
$PUCSXDIR
 10
1.0
 20
0.0
 30
0.0
  9
$PUCSYDIR
 10
0.0
 20
1.0
 30
0.0
  9
$USERI1
 70
     0
  9
$USERI2
 70
     0
  9
$USERI3
 70
     0
  9
$USERI4
 70
     0
  9
$USERI5
 70
     0
  9
$USERR1
 40
0.0
  9
$USERR2
 40
0.0
  9
$USERR3
 40
0.0
  9
$USERR4
 40
0.0
  9
$USERR5
 40
0.0
  9
$WORLDVIEW
 70
     1
  9
$SHADEDGE
 70
     3
  9
$SHADEDIF
 70
    70
  9
$TILEMODE
 70
     1
  9
$MAXACTVP
 70
    64
  9
$PLIMCHECK
 70
     0
  9
$PEXTMIN
 10
1.0000000000000000E+020
 20
1.0000000000000000E+020
 30
1.0000000000000000E+020
  9
$PEXTMAX
 10
-1.0000000000000000E+020
 20
-1.0000000000000000E+020
 30
-1.0000000000000000E+020
  9
$PLIMMIN
 10
0.0
 20
0.0
  9
$PLIMMAX
 10
420.0
 20
297.0
  9
$UNITMODE
 70
     0
  9
$VISRETAIN
 70
     1
  9
$PLINEGEN
 70
     0
  9
$PSLTSCALE
 70
     1
  0
ENDSEC
  0
SECTION
  2
TABLES
  0
TABLE
  2
VPORT
 70
    46
  0
VPORT
  2
*ACTIVE
 70
     0
 10
0.0
 20
0.0
 11
1.0
 21
1.0
 12
243.19809294536361
 22
20.724196922940902
 13
0.0
 23
0.0
 14
10.0
 24
10.0
 15
10.0
 25
10.0
 16
0.0
 26
0.0
 36
1.0
 17
0.0
 27
0.0
 37
0.0
 40
1136.324782680095
 41
0.8452830188679245
 42
50.0
 43
0.0
 44
0.0
 50
0.0
 51
0.0
 71
     0
 72
   100
 73
     1
 74
     3
 75
     0
 76
     0
 77
     0
 78
     0
  0
ENDTAB
  0
TABLE
  2
LTYPE
 70
     1
  0
LTYPE
  2
CONTINUOUS
 70
     0
  3
Solid line
 72
    65
 73
     0
 40
0.0
  0
ENDTAB
  0
TABLE
  2
LAYER
 70
     3
  0
LAYER
  2
0
 70
     0
 62
     7
  6
CONTINUOUS
  0
LAYER
  2
1外形線
 70
     0
 62
     3
  6
CONTINUOUS
  0
LAYER
  2
4太線
 70
     0
 62
     6
  6
CONTINUOUS
  0
ENDTAB
  0
TABLE
  2
STYLE
 70
     2
  0
STYLE
  2
STANDARD
 70
     0
 40
0.0
 41
1.0
 50
0.0
 71
     0
 42
2.5
  3
txt
  4

  0
STYLE
  2
KANJI
 70
     0
 40
0.0
 41
1.0
 50
0.0
 71
     0
 42
10.0
  3
simplex
  4
bigfont
  0
ENDTAB
  0
TABLE
  2
VIEW
 70
     0
  0
ENDTAB
  0
TABLE
  2
UCS
 70
     0
  0
ENDTAB
  0
TABLE
  2
APPID
 70
     1
  0
APPID
  2
ACAD
 70
     0
  0
ENDTAB
  0
TABLE
  2
DIMSTYLE
 70
     2
  0
DIMSTYLE
  2
ISO-25
 70
     0
  3

  4

  5

  6

  7

 40
1.0
 41
2.5
 42
0.625
 43
3.75
 44
1.25
 45
0.0
 46
0.0
 47
0.0
 48
0.0
140
2.5
141
2.5
142
0.0
143
0.03937007874016
144
1.0
145
0.0
146
1.0
147
0.625
 71
     0
 72
     0
 73
     0
 74
     0
 75
     0
 76
     0
 77
     1
 78
     8
170
     0
171
     3
172
     1
173
     0
174
     0
175
     0
176
     0
177
     0
178
     0
  0
DIMSTYLE
  2
STANDARD
 70
     0
  3

  4

  5

  6
1
  7
1
 40
1.0
 41
1.0
 42
1.0
 43
6.0
 44
1.0
 45
0.0
 46
0.0
 47
0.0
 48
0.0
140
2.5
141
0.0
142
0.0
143
25.399999999999999
144
1.0
145
0.0
146
1.0
147
0.5
 71
     0
 72
     0
 73
     0
 74
     0
 75
     0
 76
     0
 77
     1
 78
     8
170
     0
171
     2
172
     1
173
     1
174
     0
175
     0
176
     0
177
     0
178
     0
  0
ENDTAB
  0
ENDSEC
  0
SECTION
  2
BLOCKS
  0
BLOCK
  8
0
  2
$MODEL_SPACE
 70
     0
 10
0.0
 20
0.0
 30
0.0
  3
$MODEL_SPACE
  1

  0
ENDBLK
  5
21
  8
0
  0
BLOCK
 67
     1
  8
0
  2
$PAPER_SPACE
 70
     0
 10
0.0
 20
0.0
 30
0.0
  3
$PAPER_SPACE
  1

  0
ENDBLK
  5
1D
 67
     1
  8
0
  0
BLOCK
  8
0
  2
1
 70
     0
 10
0.0
 20
0.0
 30
0.0
  3
1
  1

  0
SOLID
  5
2C
  8
0
  6
BYBLOCK
 62
     0
 10
-1.811110924292052
 20
0.4852857095671653
 30
0.0
 11
-1.811110924292052
 21
-0.4852857095673642
 31
0.0
 12
0.0
 22
0.0
 32
0.0
 13
0.0
 23
0.0
 33
0.0
  0
ENDBLK
  5
2E
  8
0
  0
ENDSEC
  0
SECTION
  2
ENTITIES
  0
LINE
  5
62EB
  8
1外形線
 10
108.0845955339465
 20
92.829038847213056
 30
0.0
 11
125.5462471186362
 21
92.829038847213056
 31
0.0
  0
LINE
  5
62EC
  8
1外形線
 10
81.546247118635165
 20
119.92903884721279
 30
0.0
 11
121.546247118636
 21
119.92903884721289
 31
0.0
  0
LINE
  5
62ED
  8
1外形線
 10
81.946247118635824
 20
123.1290388472131
 30
0.0
 11
121.1462471186356
 21
123.1290388472131
 31
0.0
  0
LINE
  5
62EE
  8
1外形線
 10
81.946247118635597
 20
121.92903884721299
 30
0.0
 11
121.1462471186356
 21
121.92903884721299
 31
0.0
  0
LINE
  5
62EF
  8
1外形線
 10
60.546247118635733
 20
125.829038847213
 30
0.0
 11
142.54624711863519
 21
125.829038847213
 31
0.0
  0
LINE
  5
62F0
  8
1外形線
 10
108.0845955339465
 20
87.829038847213056
 30
0.0
 11
125.5462471186364
 21
87.829038847213056
 31
0.0
  0
LINE
  5
62F1
  8
1外形線
 10
81.546247118636316
 20
60.729038847212991
 30
0.0
 11
121.54624711863489
 21
60.729038847212991
 31
0.0
  0
LINE
  5
62F2
  8
1外形線
 10
81.946247118635597
 20
58.729038847213019
 30
0.0
 11
121.1462471186356
 21
58.729038847213019
 31
0.0
  0
LINE
  5
62F3
  8
1外形線
 10
81.946247118635824
 20
57.529038847212973
 30
0.0
 11
121.1462471186356
 21
57.529038847212973
 31
0.0
  0
LINE
  5
62F4
  8
1外形線
 10
60.546247118635733
 20
54.829038847213042
 30
0.0
 11
142.54624711863551
 21
54.829038847213042
 31
0.0
  0
LINE
  5
62F5
  8
1外形線
 10
82.946247118635824
 20
40.56402539169062
 30
0.0
 11
120.1462471186356
 21
40.56402539169062
 31
0.0
  0
LINE
  5
62F6
  8
1外形線
 10
33.55316603084222
 20
38.56402539169062
 30
0.0
 11
169.53932820642879
 21
38.56402539169062
 31
0.0
  0
LINE
  5
62F7
  8
1外形線
 10
33.55316603084222
 20
33.56402539169062
 30
0.0
 11
169.53932820642879
 21
33.56402539169062
 31
0.0
  0
LINE
  5
62F8
  8
1外形線
 10
77.546247118634369
 20
72.329038847213155
 30
0.0
 11
77.546247118634938
 21
108.3290388472129
 31
0.0
  0
LINE
  5
62F9
  8
1外形線
 10
50.546247118636188
 20
115.829038847213
 30
0.0
 11
50.546247118635961
 21
64.829038847213042
 31
0.0
  0
CIRCLE
  5
62FA
  8
1外形線
 10
62.546247118635961
 20
90.329038847213056
 30
0.0
 40
5.0
  0
CIRCLE
  5
62FB
  8
1外形線
 10
62.546247118635961
 20
90.329038847213056
 30
0.0
 40
3.6000000000000001
  0
CIRCLE
  5
62FC
  8
1外形線
 10
101.54624711863551
 20
90.329038847213056
 30
0.0
 40
2.5
  0
CIRCLE
  5
62FD
  8
1外形線
 10
62.546247118635961
 20
90.329038847213056
 30
0.0
 40
2.1000000000000001
  0
ARC
  5
62FE
  8
1外形線
 10
71.296247118633573
 20
63.829038847213148
 30
0.0
 40
3.0
 50
270.0
 51
90.0
  0
ARC
  5
62FF
  8
1外形線
 10
60.546247118635961
 20
64.829038847213042
 30
0.0
 40
10.0
 50
180.0
 51
270.0
  0
LINE
  5
6300
  8
1外形線
 10
33.55316603084222
 20
38.56402539169062
 30
0.0
 11
33.55316603084222
 21
33.56402539169062
 31
0.0
  0
LINE
  5
6301
  8
1外形線
 10
50.546247118635961
 20
38.56402539169062
 30
0.0
 11
50.546247118635961
 21
33.56402539169062
 31
0.0
  0
LINE
  5
6302
  8
1外形線
 10
51.546247118635847
 20
76.629038847212627
 30
0.0
 11
53.278297926204573
 21
75.629038847212854
 31
0.0
  0
LINE
  5
6303
  8
1外形線
 10
51.546247118635847
 20
79.729038847212991
 30
0.0
 11
53.278297926204907
 21
80.729038847213218
 31
0.0
  0
LINE
  5
6304
  8
1外形線
 10
51.546247118635847
 20
79.729038847212991
 30
0.0
 11
53.278297926204573
 21
78.729038847213204
 31
0.0
  0
LINE
  5
6305
  8
1外形線
 10
51.546247118635847
 20
76.629038847212627
 30
0.0
 11
53.278297926204907
 21
77.629038847212854
 31
0.0
  0
LINE
  5
6306
  8
1外形線
 10
60.2782979262048
 20
81.729038847213204
 30
0.0
 11
50.546247118636039
 21
81.729038847213204
 31
0.0
  0
LINE
  5
6307
  8
1外形線
 10
60.278297926204573
 20
74.629038847212854
 30
0.0
 11
50.546247118636018
 21
74.629038847212684
 31
0.0
  0
LINE
  5
6308
  8
1外形線
 10
41.546247118635449
 20
69.079038847211194
 30
0.0
 11
41.546247118635222
 21
87.329038847212956
 31
0.0
  0
ARC
  5
6309
  8
1外形線
 10
40.546247118635328
 20
69.079038847211194
 30
0.0
 40
1.0
 50
270.0
 51
359.9999999999996
  0
LINE
  5
630A
  8
1外形線
 10
42.057404181633324
 20
66.227923140913134
 30
0.0
 11
34.446743399614711
 21
66.988989219115155
 31
0.0
  0
LINE
  5
630B
  8
1外形線
 10
40.546247118635449
 20
68.079038847211194
 30
0.0
 11
33.753166030842351
 21
68.079038847211194
 31
0.0
  0
ARC
  5
630C
  8
1外形線
 10
33.753166030842237
 20
67.879038847211376
 30
0.0
 40
0.2
 50
90.0
 51
187.54093242739501
  0
ARC
  5
630D
  8
1外形線
 10
34.546247118635563
 20
67.984026409325196
 30
0.0
 40
1.0
 50
187.54093242739501
 51
264.28940686249859
  0
ARC
  5
630E
  8
1外形線
 10
47.54624711863579
 20
63.07903884721302
 30
0.0
 40
3.0
 50
28.955024371878729
 51
90.0
  0
ARC
  5
630F
  8
1外形線
 10
50.346247118635397
 20
64.628232185696987
 30
0.0
 40
0.2
 50
208.95502437187849
 51
0.0
  0
LINE
  5
6310
  8
1外形線
 10
45.042515752263903
 20
66.079038847213013
 30
0.0
 11
47.54624711863579
 21
66.079038847212985
 31
0.0
  0
ARC
  5
6311
  8
1外形線
 10
45.042515752263789
 20
96.079038847213013
 30
0.0
 40
30.0
 50
264.28940686249888
 51
270.0
  0
LINE
  5
6312
  8
1外形線
 10
47.814196311066603
 20
75.629038847212456
 30
0.0
 11
47.81419631106683
 21
77.62903884721257
 31
0.0
  0
LINE
  5
6313
  8
1外形線
 10
49.54624711863562
 20
76.629038847212684
 30
0.0
 11
47.814196311066553
 21
75.629038847212456
 31
0.0
  0
LINE
  5
6314
  8
1外形線
 10
49.54624711863562
 20
76.629038847212684
 30
0.0
 11
47.814196311066887
 21
77.629038847212456
 31
0.0
  0
LINE
  5
6315
  8
1外形線
 10
50.54624711863562
 20
78.62903884721257
 30
0.0
 11
46.814196311067008
 21
78.629038847212684
 31
0.0
  0
LINE
  5
6316
  8
1外形線
 10
50.546247118635847
 20
74.629038847212556
 30
0.0
 11
46.814196311066553
 21
74.629038847212556
 31
0.0
  0
LINE
  5
6317
  8
1外形線
 10
46.814196311066553
 20
74.629038847212556
 30
0.0
 11
46.814196311067008
 21
78.629038847212684
 31
0.0
  0
LINE
  5
6318
  8
1外形線
 10
50.546247118635023
 20
87.329038847212956
 30
0.0
 11
41.546247118635222
 21
87.329038847212956
 31
0.0
  0
ARC
  5
6319
  8
1外形線
 10
65.796247118633573
 20
63.829038847213148
 30
0.0
 40
3.0
 50
90.0
 51
270.0
  0
LINE
  5
631A
  8
1外形線
 10
65.796247118633573
 20
60.829038847213148
 30
0.0
 11
71.296247118633573
 21
60.829038847213148
 31
0.0
  0
LINE
  5
631B
  8
1外形線
 10
65.796247118633573
 20
66.829038847213155
 30
0.0
 11
71.296247118633573
 21
66.829038847213155
 31
0.0
  0
LINE
  5
631C
  8
1外形線
 10
60.27829792620463
 20
81.729038847213204
 30
0.0
 11
60.278297926204857
 21
74.62903884721274
 31
0.0
  0
TEXT
  5
631D
  8
1外形線
 10
55.559114415811223
 20
75.628491787577644
 30
0.0
 40
2.0
  1
20
  7
KANJI
  0
TEXT
  5
631E
  8
1外形線
 10
55.733891468338363
 20
78.728491787577994
 30
0.0
 40
2.0
  1
13
  7
KANJI
  0
LINE
  5
631F
  8
1外形線
 10
53.278297926204857
 20
77.629038847212854
 30
0.0
 11
53.278297926204623
 21
75.62903884721274
 31
0.0
  0
LINE
  5
6320
  8
1外形線
 10
53.278297926204857
 20
80.729038847213218
 30
0.0
 11
53.278297926204623
 21
78.729038847213104
 31
0.0
  0
LINE
  5
6321
  8
1外形線
 10
81.946247118635824
 20
57.529038847213087
 30
0.0
 11
81.946247118635597
 21
58.729038847213019
 31
0.0
  0
ARC
  5
6322
  8
1外形線
 10
82.946247118635824
 20
39.56402539169062
 30
0.0
 40
1.0
 50
90.0
 51
180.0
  0
LINE
  5
6323
  8
1外形線
 10
81.946247118635824
 20
39.56402539169062
 30
0.0
 11
81.946247118635824
 21
38.56402539169062
 31
0.0
  0
ARC
  5
6324
  8
1外形線
 10
101.54624711863551
 20
90.329038847213056
 30
0.0
 40
7.0
 50
200.92483242763771
 51
339.07516757236192
  0
LINE
  5
6325
  8
1外形線
 10
80.546247118635051
 20
70.329038847213212
 30
0.0
 11
80.546247118635165
 21
61.729038847212991
 31
0.0
  0
ARC
  5
6326
  8
1外形線
 10
81.546247118636316
 20
61.729038847212991
 30
0.0
 40
1.0
 50
180.00000000000159
 51
270.0
  0
LINE
  5
6327
  8
1外形線
 10
79.546247118635051
 20
71.329038847213212
 30
0.0
 11
78.546247118634483
 21
71.329038847213127
 31
0.0
  0
ARC
  5
6328
  8
1外形線
 10
78.546247118634355
 20
72.329038847213155
 30
0.0
 40
1.0
 50
179.99999999999869
 51
270.0
  0
ARC
  5
6329
  8
1外形線
 10
79.546247118635051
 20
70.329038847213212
 30
0.0
 40
1.0
 50
0.0000000000012213
 51
90.0
  0
LINE
  5
632A
  8
1外形線
 10
77.546247118634824
 20
87.829038847213056
 30
0.0
 11
95.007898703324486
 21
87.829038847213056
 31
0.0
  0
ARC
  5
632B
  8
1外形線
 10
71.296247118633573
 20
116.8290388472129
 30
0.0
 40
3.0
 50
270.0
 51
90.0
  0
LINE
  5
632C
  8
1外形線
 10
76.046247118633062
 20
90.829038847215031
 30
0.0
 11
69.046247118637552
 21
90.829038847215259
 31
0.0
  0
LINE
  5
632D
  8
1外形線
 10
76.046247118633062
 20
89.829038847212814
 30
0.0
 11
69.046247118637552
 21
89.829038847212814
 31
0.0
  0
ARC
  5
632E
  8
1外形線
 10
60.546247118636188
 20
115.829038847213
 30
0.0
 40
10.0
 50
90.0
 51
180.0
  0
LINE
  5
632F
  8
1外形線
 10
51.546247118635847
 20
104.0290388472136
 30
0.0
 11
53.278297926204907
 21
103.0290388472134
 31
0.0
  0
LINE
  5
6330
  8
1外形線
 10
51.546247118635847
 20
100.92903884721331
 30
0.0
 11
53.278297926204573
 21
101.92903884721299
 31
0.0
  0
LINE
  5
6331
  8
1外形線
 10
51.546247118635847
 20
100.92903884721331
 30
0.0
 11
53.278297926204907
 21
99.929038847213093
 31
0.0
  0
LINE
  5
6332
  8
1外形線
 10
56.046247118634362
 20
89.829038847212644
 30
0.0
 11
52.046247118637659
 21
89.829038847212587
 31
0.0
  0
LINE
  5
6333
  8
1外形線
 10
56.046247118634362
 20
90.829038847215713
 30
0.0
 11
52.046247118637659
 21
90.829038847215926
 31
0.0
  0
LINE
  5
6334
  8
1外形線
 10
51.546247118635847
 20
104.0290388472136
 30
0.0
 11
53.278297926204573
 21
105.0290388472134
 31
0.0
  0
LINE
  5
6335
  8
1外形線
 10
60.278297926204402
 20
98.929038847212865
 30
0.0
 11
50.546247118636103
 21
98.929038847212865
 31
0.0
  0
LINE
  5
6336
  8
1外形線
 10
60.27829792620463
 20
106.0290388472133
 30
0.0
 11
50.546247118636131
 21
106.0290388472134
 31
0.0
  0
LINE
  5
6337
  8
1外形線
 10
41.546247118635449
 20
111.5790388472148
 30
0.0
 11
41.546247118635222
 21
93.329038847213127
 31
0.0
  0
LINE
  5
6338
  8
1外形線
 10
46.814196311066553
 20
106.0290388472135
 30
0.0
 11
46.814196311067008
 21
102.0290388472133
 31
0.0
  0
LINE
  5
6339
  8
1外形線
 10
47.814196311066603
 20
105.0290388472136
 30
0.0
 11
47.81419631106683
 21
103.0290388472135
 31
0.0
  0
LINE
  5
633A
  8
1外形線
 10
49.54624711863562
 20
104.0290388472133
 30
0.0
 11
47.814196311066553
 21
105.0290388472136
 31
0.0
  0
LINE
  5
633B
  8
1外形線
 10
50.546247118635023
 20
93.329038847213127
 30
0.0
 11
41.546247118635222
 21
93.329038847213127
 31
0.0
  0
ARC
  5
633C
  8
1外形線
 10
52.046247118637659
 20
90.329038847214179
 30
0.0
 40
0.5000000000016059
 50
90.0
 51
270.0
  0
LINE
  5
633D
  8
1外形線
 10
49.54624711863562
 20
104.0290388472133
 30
0.0
 11
47.814196311066887
 21
103.0290388472136
 31
0.0
  0
LINE
  5
633E
  8
1外形線
 10
50.54624711863562
 20
102.0290388472135
 30
0.0
 11
46.814196311067008
 21
102.0290388472133
 31
0.0
  0
ARC
  5
633F
  8
1外形線
 10
40.546247118635328
 20
111.5790388472148
 30
0.0
 40
1.0
 50
0.0
 51
90.0
  0
LINE
  5
6340
  8
1外形線
 10
42.057404181633324
 20
114.43015455351291
 30
0.0
 11
34.446743399614711
 21
113.6690884753109
 31
0.0
  0
LINE
  5
6341
  8
1外形線
 10
40.546247118635449
 20
112.5790388472148
 30
0.0
 11
33.753166030842351
 21
112.5790388472148
 31
0.0
  0
ARC
  5
6342
  8
1外形線
 10
33.753166030842237
 20
112.77903884721469
 30
0.0
 40
0.2
 50
172.45906757260491
 51
270.0
  0
ARC
  5
6343
  8
1外形線
 10
34.546247118635563
 20
112.6740512851008
 30
0.0
 40
1.0
 50
95.710593137501007
 51
172.45906757260451
  0
LINE
  5
6344
  8
1外形線
 10
50.546247118635847
 20
106.0290388472135
 30
0.0
 11
46.814196311066553
 21
106.0290388472135
 31
0.0
  0
LINE
  5
6345
  8
1外形線
 10
45.042515752263903
 20
114.579038847213
 30
0.0
 11
47.54624711863579
 21
114.579038847213
 31
0.0
  0
ARC
  5
6346
  8
1外形線
 10
45.042515752263789
 20
84.57903884721307
 30
0.0
 40
30.0
 50
90.0
 51
95.710593137500595
  0
ARC
  5
6347
  8
1外形線
 10
50.346247118635397
 20
116.0298455087291
 30
0.0
 40
0.2
 50
0.0
 51
151.04497562812139
  0
ARC
  5
6348
  8
1外形線
 10
47.54624711863579
 20
117.579038847213
 30
0.0
 40
3.0
 50
270.0
 51
331.04497562812122
  0
LINE
  5
6349
  8
1外形線
 10
60.278297926204402
 20
98.929038847212865
 30
0.0
 11
60.27829792620463
 21
106.0290388472133
 31
0.0
  0
LINE
  5
634A
  8
1外形線
 10
53.278297926204857
 20
103.0290388472134
 30
0.0
 11
53.278297926204623
 21
105.0290388472135
 31
0.0
  0
TEXT
  5
634B
  8
1外形線
 10
55.614098397768821
 20
103.0284917875782
 30
0.0
 40
2.0
  1
20
  7
KANJI
  0
ARC
  5
634C
  8
1外形線
 10
56.046247118634362
 20
90.329038847214179
 30
0.0
 40
0.5000000000016059
 50
270.0
 51
90.0
  0
TEXT
  5
634D
  8
1外形線
 10
55.816768175438881
 20
99.928491787577883
 30
0.0
 40
2.0
  1
13
  7
KANJI
  0
LINE
  5
634E
  8
1外形線
 10
53.278297926204857
 20
99.929038847213093
 30
0.0
 11
53.278297926204623
 21
101.92903884721321
 31
0.0
  0
ARC
  5
634F
  8
1外形線
 10
69.046247118637552
 20
90.329038847214179
 30
0.0
 40
0.5000000000016059
 50
90.0
 51
270.0
  0
ARC
  5
6350
  8
1外形線
 10
65.796247118633573
 20
116.8290388472129
 30
0.0
 40
3.0
 50
90.0
 51
270.0
  0
LINE
  5
6351
  8
1外形線
 10
65.796247118633573
 20
119.8290388472129
 30
0.0
 11
71.296247118633573
 21
119.8290388472129
 31
0.0
  0
LINE
  5
6352
  8
1外形線
 10
65.796247118633573
 20
113.8290388472129
 30
0.0
 11
71.296247118633573
 21
113.8290388472129
 31
0.0
  0
ARC
  5
6353
  8
1外形線
 10
81.546247118635165
 20
118.92903884721289
 30
0.0
 40
1.0
 50
90.0
 51
180.00000000000119
  0
ARC
  5
6354
  8
1外形線
 10
101.54624711863551
 20
90.329038847213056
 30
0.0
 40
7.0
 50
20.924832427638101
 51
159.0751675723628
  0
LINE
  5
6355
  8
1外形線
 10
77.546247118635051
 20
92.829038847213056
 30
0.0
 11
95.007898703324486
 21
92.829038847213056
 31
0.0
  0
ARC
  5
6356
  8
1外形線
 10
76.046247118633062
 20
90.329038847214179
 30
0.0
 40
0.5000000000016059
 50
270.0
 51
90.0
  0
LINE
  5
6357
  8
1外形線
 10
80.546247118635051
 20
110.3290388472128
 30
0.0
 11
80.546247118635165
 21
118.92903884721289
 31
0.0
  0
LINE
  5
6358
  8
1外形線
 10
79.546247118635051
 20
109.3290388472128
 30
0.0
 11
78.546247118634483
 21
109.329038847213
 31
0.0
  0
ARC
  5
6359
  8
1外形線
 10
78.546247118634355
 20
108.3290388472129
 30
0.0
 40
1.0
 50
90.0
 51
180.00000000000119
  0
ARC
  5
635A
  8
1外形線
 10
79.546247118635051
 20
110.3290388472128
 30
0.0
 40
1.0
 50
270.0
 51
359.99999999999869
  0
LINE
  5
635B
  8
1外形線
 10
81.946247118635824
 20
123.1290388472132
 30
0.0
 11
81.946247118635597
 21
121.92903884721299
 31
0.0
  0
LINE
  5
635C
  8
1外形線
 10
152.54624711863511
 20
115.8290388472133
 30
0.0
 11
152.54624711863681
 21
64.829038847213383
 31
0.0
  0
LINE
  5
635D
  8
1外形線
 10
189.48537810045369
 20
125.829038847213
 30
0.0
 11
189.48537810045369
 21
54.829038847213162
 31
0.0
  0
LINE
  5
635E
  8
1外形線
 10
184.4853781004538
 20
125.829038847213
 30
0.0
 11
184.48537810045369
 21
54.829038847213162
 31
0.0
  0
LINE
  5
635F
  8
1外形線
 10
125.5462471186368
 20
72.329038847213155
 30
0.0
 11
125.5462471186363
 21
108.3290388472129
 31
0.0
  0
CIRCLE
  5
6360
  8
1外形線
 10
140.54624711863519
 20
90.329038847213056
 30
0.0
 40
5.0
  0
CIRCLE
  5
6361
  8
1外形線
 10
140.54624711863519
 20
90.329038847213056
 30
0.0
 40
2.1000000000000001
  0
CIRCLE
  5
6362
  8
1外形線
 10
140.54624711863519
 20
90.329038847213056
 30
0.0
 40
3.6000000000000001
  0
ARC
  5
6363
  8
1外形線
 10
158.04997848500719
 20
96.079038847213013
 30
0.0
 40
30.0
 50
270.0
 51
275.71059313750061
  0
LINE
  5
6364
  8
1外形線
 10
152.54624711863599
 20
87.329038847212956
 30
0.0
 11
161.5462471186357
 21
87.329038847212956
 31
0.0
  0
LINE
  5
6365
  8
1外形線
 10
121.1462471186357
 20
57.529038847213087
 30
0.0
 11
121.1462471186356
 21
58.729038847213019
 31
0.0
  0
ARC
  5
6366
  8
1外形線
 10
142.54624711863519
 20
64.829038847213042
 30
0.0
 40
10.0
 50
270.0
 51
359.99999999998897
  0
ARC
  5
6367
  8
1外形線
 10
120.1462471186356
 20
39.56402539169062
 30
0.0
 40
1.0
 50
0.0
 51
90.0
  0
LINE
  5
6368
  8
1外形線
 10
121.1462471186356
 20
39.56402539169062
 30
0.0
 11
121.1462471186356
 21
38.56402539169062
 31
0.0
  0
LINE
  5
6369
  8
1外形線
 10
152.54624711863519
 20
38.56402539169062
 30
0.0
 11
152.54624711863539
 21
33.56402539169062
 31
0.0
  0
ARC
  5
636A
  8
1外形線
 10
137.2962471186375
 20
63.829038847213383
 30
0.0
 40
3.0
 50
270.0
 51
90.0
  0
LINE
  5
636B
  8
1外形線
 10
122.5462471186361
 20
70.329038847213212
 30
0.0
 11
122.546247118636
 21
61.729038847212991
 31
0.0
  0
ARC
  5
636C
  8
1外形線
 10
121.54624711863489
 20
61.729038847212991
 30
0.0
 40
1.0
 50
270.0
 51
359.99999999999829
  0
ARC
  5
636D
  8
1外形線
 10
123.5462471186361
 20
70.329038847213212
 30
0.0
 40
1.0
 50
90.0
 51
179.99999999999869
  0
LINE
  5
636E
  8
1外形線
 10
123.5462471186361
 20
71.329038847213212
 30
0.0
 11
124.5462471186367
 21
71.329038847213127
 31
0.0
  0
ARC
  5
636F
  8
1外形線
 10
124.5462471186368
 20
72.329038847213155
 30
0.0
 40
1.0
 50
270.0
 51
0.0000000000012213
  0
ARC
  5
6370
  8
1外形線
 10
131.7962471186375
 20
63.829038847213383
 30
0.0
 40
3.0
 50
90.0
 51
270.0
  0
LINE
  5
6371
  8
1外形線
 10
137.2962471186375
 20
60.829038847213383
 30
0.0
 11
131.7962471186375
 21
60.829038847213383
 31
0.0
  0
LINE
  5
6372
  8
1外形線
 10
137.2962471186375
 20
66.829038847213383
 30
0.0
 11
131.7962471186375
 21
66.829038847213383
 31
0.0
  0
ARC
  5
6373
  8
1外形線
 10
155.54624711863519
 20
63.07903884721302
 30
0.0
 40
3.0
 50
90.0
 51
151.04497562812119
  0
ARC
  5
6374
  8
1外形線
 10
152.74624711863561
 20
64.628232185696987
 30
0.0
 40
0.2
 50
180.0
 51
331.04497562812139
  0
LINE
  5
6375
  8
1外形線
 10
158.04997848500699
 20
66.079038847213013
 30
0.0
 11
155.54624711863519
 21
66.079038847212985
 31
0.0
  0
LINE
  5
6376
  8
1外形線
 10
152.54624711863531
 20
81.729038847213204
 30
0.0
 11
142.81419631106641
 21
81.729038847213204
 31
0.0
  0
LINE
  5
6377
  8
1外形線
 10
152.54624711863519
 20
74.629038847212826
 30
0.0
 11
142.81419631106669
 21
74.629038847212627
 31
0.0
  0
LINE
  5
6378
  8
1外形線
 10
142.81419631106641
 20
81.729038847213204
 30
0.0
 11
142.81419631106669
 21
74.629038847212627
 31
0.0
  0
TEXT
  5
6379
  8
1外形線
 10
144.09501280067281
 20
75.628491787577644
 30
0.0
 40
2.0
  1
20
  7
KANJI
  0
TEXT
  5
637A
  8
1外形線
 10
144.26978985319991
 20
78.728491787577994
 30
0.0
 40
2.0
  1
13
  7
KANJI
  0
LINE
  5
637B
  8
1外形線
 10
153.54624711863531
 20
76.629038847212684
 30
0.0
 11
155.2782979262044
 21
75.629038847212456
 31
0.0
  0
LINE
  5
637C
  8
1外形線
 10
152.54624711863539
 20
78.62903884721257
 30
0.0
 11
156.27829792620389
 21
78.629038847212684
 31
0.0
  0
LINE
  5
637D
  8
1外形線
 10
153.54624711863531
 20
76.629038847212684
 30
0.0
 11
155.27829792620409
 21
77.629038847212456
 31
0.0
  0
LINE
  5
637E
  8
1外形線
 10
152.54624711863511
 20
74.629038847212556
 30
0.0
 11
156.2782979262044
 21
74.629038847212556
 31
0.0
  0
LINE
  5
637F
  8
1外形線
 10
151.54624711863519
 20
76.629038847212627
 30
0.0
 11
149.8141963110665
 21
75.629038847212854
 31
0.0
  0
LINE
  5
6380
  8
1外形線
 10
149.81419631106621
 20
77.629038847212854
 30
0.0
 11
149.81419631106641
 21
75.62903884721274
 31
0.0
  0
LINE
  5
6381
  8
1外形線
 10
151.54624711863519
 20
76.629038847212627
 30
0.0
 11
149.81419631106621
 21
77.629038847212854
 31
0.0
  0
LINE
  5
6382
  8
1外形線
 10
151.54624711863519
 20
79.729038847212991
 30
0.0
 11
149.8141963110665
 21
78.729038847213204
 31
0.0
  0
LINE
  5
6383
  8
1外形線
 10
151.54624711863519
 20
79.729038847212991
 30
0.0
 11
149.81419631106621
 21
80.729038847213218
 31
0.0
  0
LINE
  5
6384
  8
1外形線
 10
149.81419631106621
 20
80.729038847213218
 30
0.0
 11
149.81419631106641
 21
78.729038847213104
 31
0.0
  0
LINE
  5
6385
  8
1外形線
 10
156.2782979262044
 20
74.629038847212556
 30
0.0
 11
156.27829792620389
 21
78.629038847212684
 31
0.0
  0
LINE
  5
6386
  8
1外形線
 10
155.2782979262044
 20
75.629038847212456
 30
0.0
 11
155.27829792620409
 21
77.62903884721257
 31
0.0
  0
LINE
  5
6387
  8
1外形線
 10
182.4853781004536
 20
58.729038847213133
 30
0.0
 11
182.4853781004536
 21
57.529038847213201
 31
0.0
  0
LINE
  5
6388
  8
1外形線
 10
169.53932820642871
 20
38.56402539169062
 30
0.0
 11
169.53932820642871
 21
33.56402539169062
 31
0.0
  0
LINE
  5
6389
  8
1外形線
 10
184.48537810045369
 20
54.829038847213162
 30
0.0
 11
189.48537810045369
 21
54.829038847213162
 31
0.0
  0
LINE
  5
638A
  8
1外形線
 10
184.4853781004536
 20
57.529038847213201
 30
0.0
 11
182.4853781004536
 21
57.529038847213201
 31
0.0
  0
LINE
  5
638B
  8
1外形線
 10
161.54624711863551
 20
69.079038847211194
 30
0.0
 11
161.5462471186357
 21
87.329038847212956
 31
0.0
  0
LINE
  5
638C
  8
1外形線
 10
161.0350900556376
 20
66.227923140913134
 30
0.0
 11
168.64575083765621
 21
66.988989219115155
 31
0.0
  0
LINE
  5
638D
  8
1外形線
 10
162.54624711863551
 20
68.079038847211194
 30
0.0
 11
169.3393282064286
 21
68.079038847211194
 31
0.0
  0
ARC
  5
638E
  8
1外形線
 10
162.54624711863559
 20
69.079038847211194
 30
0.0
 40
1.0
 50
180.0
 51
270.0
  0
ARC
  5
638F
  8
1外形線
 10
169.33932820642869
 20
67.879038847211376
 30
0.0
 40
0.2
 50
352.45906757260491
 51
90.0
  0
ARC
  5
6390
  8
1外形線
 10
168.54624711863539
 20
67.984026409325196
 30
0.0
 40
1.0
 50
275.71059313750101
 51
352.45906757260451
  0
LINE
  5
6391
  8
1外形線
 10
182.48537810045369
 20
58.729038847213239
 30
0.0
 11
184.48537810045369
 21
58.729038847213019
 31
0.0
  0
LINE
  5
6392
  8
1外形線
 10
184.48537810045369
 20
68.079038847211194
 30
0.0
 11
189.48537810045369
 21
68.079038847211194
 31
0.0
  0
LINE
  5
6393
  8
1外形線
 10
184.48537810045369
 20
66.079038847212985
 30
0.0
 11
189.48537810045369
 21
66.079038847212985
 31
0.0
  0
LINE
  5
6394
  8
1外形線
 10
184.4853781004538
 20
87.329038847212956
 30
0.0
 11
189.48537810045369
 21
87.329038847212928
 31
0.0
  0
ARC
  5
6395
  8
1外形線
 10
158.04997848500719
 20
84.57903884721307
 30
0.0
 40
30.0
 50
84.289406862499391
 51
90.0
  0
LINE
  5
6396
  8
1外形線
 10
152.54624711863599
 20
93.329038847213127
 30
0.0
 11
161.5462471186357
 21
93.329038847213127
 31
0.0
  0
ARC
  5
6397
  8
1外形線
 10
121.546247118636
 20
118.92903884721289
 30
0.0
 40
1.0
 50
359.99999999999869
 51
90.0
  0
ARC
  5
6398
  8
1外形線
 10
142.54624711863519
 20
115.829038847213
 30
0.0
 40
10.0
 50
0.0000000000105849
 51
90.0
  0
ARC
  5
6399
  8
1外形線
 10
137.2962471186375
 20
116.8290388472129
 30
0.0
 40
3.0
 50
270.0
 51
90.0
  0
LINE
  5
639A
  8
1外形線
 10
134.0462471186336
 20
89.829038847213127
 30
0.0
 11
127.04624711863811
 21
89.829038847213084
 31
0.0
  0
LINE
  5
639B
  8
1外形線
 10
134.0462471186336
 20
90.829038847213639
 30
0.0
 11
127.04624711863811
 21
90.829038847213724
 31
0.0
  0
ARC
  5
639C
  8
1外形線
 10
127.04624711863811
 20
90.329038847213056
 30
0.0
 40
0.5000000000016059
 50
90.0
 51
270.0
  0
ARC
  5
639D
  8
1外形線
 10
134.0462471186336
 20
90.329038847214179
 30
0.0
 40
0.5000000000016059
 50
270.0
 51
90.0
  0
LINE
  5
639E
  8
1外形線
 10
122.5462471186361
 20
110.3290388472128
 30
0.0
 11
122.546247118636
 21
118.92903884721289
 31
0.0
  0
ARC
  5
639F
  8
1外形線
 10
123.5462471186361
 20
110.3290388472128
 30
0.0
 40
1.0
 50
180.0000000000008
 51
270.0
  0
LINE
  5
63A0
  8
1外形線
 10
123.5462471186361
 20
109.3290388472128
 30
0.0
 11
124.5462471186367
 21
109.3290388472129
 31
0.0
  0
ARC
  5
63A1
  8
1外形線
 10
124.5462471186368
 20
108.3290388472129
 30
0.0
 40
1.0
 50
359.99999999999869
 51
90.0
  0
LINE
  5
63A2
  8
1外形線
 10
137.2962471186375
 20
113.8290388472129
 30
0.0
 11
131.7962471186375
 21
113.8290388472129
 31
0.0
  0
LINE
  5
63A3
  8
1外形線
 10
137.2962471186375
 20
119.8290388472129
 30
0.0
 11
131.7962471186375
 21
119.8290388472129
 31
0.0
  0
ARC
  5
63A4
  8
1外形線
 10
131.7962471186375
 20
116.8290388472129
 30
0.0
 40
3.0
 50
90.0
 51
270.0
  0
LINE
  5
63A5
  8
1外形線
 10
156.2782979262044
 20
106.0290388472135
 30
0.0
 11
156.27829792620389
 21
102.0290388472133
 31
0.0
  0
LINE
  5
63A6
  8
1外形線
 10
155.2782979262044
 20
105.0290388472136
 30
0.0
 11
155.27829792620409
 21
103.0290388472135
 31
0.0
  0
LINE
  5
63A7
  8
1外形線
 10
153.54624711863531
 20
104.0290388472133
 30
0.0
 11
155.2782979262044
 21
105.0290388472136
 31
0.0
  0
LINE
  5
63A8
  8
1外形線
 10
149.81419631106621
 20
103.0290388472134
 30
0.0
 11
149.81419631106641
 21
105.0290388472135
 31
0.0
  0
LINE
  5
63A9
  8
1外形線
 10
151.54624711863519
 20
104.0290388472136
 30
0.0
 11
149.8141963110665
 21
105.0290388472134
 31
0.0
  0
LINE
  5
63AA
  8
1外形線
 10
142.81419631106621
 20
98.929038847213334
 30
0.0
 11
142.81419631106641
 21
106.0290388472137
 31
0.0
  0
TEXT
  5
63AB
  8
1外形線
 10
144.14999678263061
 20
103.0284917875784
 30
0.0
 40
2.0
  1
20
  7
KANJI
  0
LINE
  5
63AC
  8
1外形線
 10
151.0462471186338
 20
90.829038847213155
 30
0.0
 11
147.04624711863681
 21
90.829038847213326
 31
0.0
  0
LINE
  5
63AD
  8
1外形線
 10
151.0462471186338
 20
89.829038847213042
 30
0.0
 11
147.04624711863681
 21
89.829038847213084
 31
0.0
  0
LINE
  5
63AE
  8
1外形線
 10
152.54624711863531
 20
98.929038847213093
 30
0.0
 11
142.8141963110663
 21
98.929038847213093
 31
0.0
  0
ARC
  5
63AF
  8
1外形線
 10
147.04624711863681
 20
90.329038847214179
 30
0.0
 40
0.5000000000016059
 50
90.0
 51
270.0
  0
LINE
  5
63B0
  8
1外形線
 10
148.81419631106621
 20
98.929038847213093
 30
0.0
 11
142.81419631106621
 21
98.929038847213093
 31
0.0
  0
TEXT
  5
63B1
  8
1外形線
 10
144.35266656030069
 20
99.92849178757811
 30
0.0
 40
2.0
  1
13
  7
KANJI
  0
ARC
  5
63B2
  8
1外形線
 10
151.0462471186338
 20
90.329038847214179
 30
0.0
 40
0.5000000000016059
 50
270.0
 51
90.0
  0
LINE
  5
63B3
  8
1外形線
 10
152.54624711863539
 20
102.0290388472135
 30
0.0
 11
156.27829792620389
 21
102.0290388472133
 31
0.0
  0
LINE
  5
63B4
  8
1外形線
 10
153.54624711863531
 20
104.0290388472133
 30
0.0
 11
155.27829792620409
 21
103.0290388472136
 31
0.0
  0
LINE
  5
63B5
  8
1外形線
 10
151.54624711863519
 20
104.0290388472136
 30
0.0
 11
149.81419631106621
 21
103.0290388472134
 31
0.0
  0
LINE
  5
63B6
  8
1外形線
 10
151.54624711863519
 20
100.92903884721331
 30
0.0
 11
149.81419631106621
 21
99.929038847213093
 31
0.0
  0
LINE
  5
63B7
  8
1外形線
 10
151.54624711863519
 20
100.92903884721331
 30
0.0
 11
149.8141963110665
 21
101.92903884721299
 31
0.0
  0
LINE
  5
63B8
  8
1外形線
 10
149.81419631106621
 20
99.929038847213093
 30
0.0
 11
149.81419631106641
 21
101.92903884721321
 31
0.0
  0
LINE
  5
63B9
  8
1外形線
 10
152.54624711863519
 20
106.0290388472135
 30
0.0
 11
142.81419631106661
 21
106.0290388472136
 31
0.0
  0
LINE
  5
63BA
  8
1外形線
 10
148.81419631106641
 20
106.0290388472135
 30
0.0
 11
142.81419631106641
 21
106.0290388472136
 31
0.0
  0
LINE
  5
63BB
  8
1外形線
 10
152.54624711863511
 20
106.0290388472135
 30
0.0
 11
156.2782979262044
 21
106.0290388472135
 31
0.0
  0
ARC
  5
63BC
  8
1外形線
 10
155.54624711863519
 20
117.579038847213
 30
0.0
 40
3.0
 50
208.95502437187869
 51
270.0
  0
ARC
  5
63BD
  8
1外形線
 10
152.74624711863561
 20
116.0298455087291
 30
0.0
 40
0.2
 50
28.95502437187854
 51
180.0
  0
LINE
  5
63BE
  8
1外形線
 10
158.04997848500699
 20
114.579038847213
 30
0.0
 11
155.54624711863519
 21
114.579038847213
 31
0.0
  0
LINE
  5
63BF
  8
1外形線
 10
121.1462471186357
 20
123.1290388472132
 30
0.0
 11
121.1462471186356
 21
121.92903884721299
 31
0.0
  0
LINE
  5
63C0
  8
1外形線
 10
161.54624711863551
 20
111.5790388472148
 30
0.0
 11
161.5462471186357
 21
93.329038847213127
 31
0.0
  0
ARC
  5
63C1
  8
1外形線
 10
162.54624711863559
 20
111.5790388472148
 30
0.0
 40
1.0
 50
90.0
 51
179.9999999999996
  0
LINE
  5
63C2
  8
1外形線
 10
161.0350900556376
 20
114.43015455351291
 30
0.0
 11
168.64575083765621
 21
113.6690884753109
 31
0.0
  0
LINE
  5
63C3
  8
1外形線
 10
162.54624711863551
 20
112.5790388472148
 30
0.0
 11
169.3393282064286
 21
112.5790388472148
 31
0.0
  0
ARC
  5
63C4
  8
1外形線
 10
169.33932820642869
 20
112.77903884721469
 30
0.0
 40
0.2
 50
270.0
 51
7.5409324273950391
  0
ARC
  5
63C5
  8
1外形線
 10
168.54624711863539
 20
112.6740512851008
 30
0.0
 40
1.0
 50
7.5409324273954441
 51
84.289406862498979
  0
LINE
  5
63C6
  8
1外形線
 10
184.4853781004538
 20
93.329038847213155
 30
0.0
 11
189.48537810045369
 21
93.329038847213155
 31
0.0
  0
LINE
  5
63C7
  8
1外形線
 10
184.4853781004538
 20
114.579038847213
 30
0.0
 11
189.48537810045369
 21
114.579038847213
 31
0.0
  0
LINE
  5
63C8
  8
1外形線
 10
184.4853781004538
 20
112.5790388472149
 30
0.0
 11
189.48537810045369
 21
112.5790388472149
 31
0.0
  0
LINE
  5
63C9
  8
1外形線
 10
184.48537810045369
 20
125.829038847213
 30
0.0
 11
189.48537810045369
 21
125.829038847213
 31
0.0
  0
LINE
  5
63CA
  8
1外形線
 10
182.4853781004536
 20
121.92903884721289
 30
0.0
 11
182.4853781004536
 21
123.1290388472128
 31
0.0
  0
LINE
  5
63CB
  8
1外形線
 10
184.4853781004536
 20
123.1290388472128
 30
0.0
 11
182.4853781004536
 21
123.1290388472128
 31
0.0
  0
LINE
  5
63CC
  8
1外形線
 10
182.48537810045369
 20
121.92903884721279
 30
0.0
 11
184.48537810045369
 21
121.92903884721299
 31
0.0
  0
ENDSEC
  0
EOF
