  0
SECTION
  2
HEADER
  9
$ACADVER
  1
AC1009
  9
$INSBASE
 10
0.0
 20
0.0
 30
0.0
  9
$EXTMIN
 10
20.717761997079091
 20
-25.750029856048059
 30
-0.0015258207003583
  9
$EXTMAX
 10
615.43703137683963
 20
408.08463664145091
 30
0.0000000349246037
  9
$LIMMIN
 10
0.0
 20
0.0
  9
$LIMMAX
 10
420.0
 20
297.0
  9
$ORTHOMODE
 70
     0
  9
$REGENMODE
 70
     1
  9
$FILLMODE
 70
     1
  9
$QTEXTMODE
 70
     0
  9
$MIRRTEXT
 70
     1
  9
$DRAGMODE
 70
     2
  9
$LTSCALE
 40
1.0
  9
$OSMODE
 70
    37
  9
$ATTMODE
 70
     1
  9
$TEXTSIZE
 40
2.5
  9
$TRACEWID
 40
1.0
  9
$TEXTSTYLE
  7
STANDARD
  9
$CLAYER
  8
0
  9
$CELTYPE
  6
BYLAYER
  9
$CECOLOR
 62
   256
  9
$DIMSCALE
 40
1.0
  9
$DIMASZ
 40
2.5
  9
$DIMEXO
 40
0.625
  9
$DIMDLI
 40
3.75
  9
$DIMRND
 40
0.0
  9
$DIMDLE
 40
0.0
  9
$DIMEXE
 40
1.25
  9
$DIMTP
 40
0.0
  9
$DIMTM
 40
0.0
  9
$DIMTXT
 40
2.5
  9
$DIMCEN
 40
2.5
  9
$DIMTSZ
 40
0.0
  9
$DIMTOL
 70
     0
  9
$DIMLIM
 70
     0
  9
$DIMTIH
 70
     0
  9
$DIMTOH
 70
     0
  9
$DIMSE1
 70
     0
  9
$DIMSE2
 70
     0
  9
$DIMTAD
 70
     1
  9
$DIMZIN
 70
     8
  9
$DIMBLK
  1

  9
$DIMASO
 70
     1
  9
$DIMSHO
 70
     1
  9
$DIMPOST
  1

  9
$DIMAPOST
  1

  9
$DIMALT
 70
     0
  9
$DIMALTD
 70
     3
  9
$DIMALTF
 40
0.03937007874016
  9
$DIMLFAC
 40
1.0
  9
$DIMTOFL
 70
     1
  9
$DIMTVP
 40
0.0
  9
$DIMTIX
 70
     0
  9
$DIMSOXD
 70
     0
  9
$DIMSAH
 70
     0
  9
$DIMBLK1
  1

  9
$DIMBLK2
  1

  9
$DIMSTYLE
  2
ISO-25
  9
$DIMCLRD
 70
     0
  9
$DIMCLRE
 70
     0
  9
$DIMCLRT
 70
     0
  9
$DIMTFAC
 40
1.0
  9
$DIMGAP
 40
0.625
  9
$LUNITS
 70
     2
  9
$LUPREC
 70
     4
  9
$SKETCHINC
 40
1.0
  9
$FILLETRAD
 40
10.0
  9
$AUNITS
 70
     0
  9
$AUPREC
 70
     0
  9
$MENU
  1
.
  9
$ELEVATION
 40
0.0
  9
$PELEVATION
 40
0.0
  9
$THICKNESS
 40
0.0
  9
$LIMCHECK
 70
     0
  9
$BLIPMODE
 70
     0
  9
$CHAMFERA
 40
10.0
  9
$CHAMFERB
 40
10.0
  9
$SKPOLY
 70
     0
  9
$TDCREATE
 40
2452048.587873715
  9
$TDUPDATE
 40
2452048.609961146
  9
$TDINDWG
 40
0.0220896296
  9
$TDUSRTIMER
 40
0.0220896296
  9
$USRTIMER
 70
     1
  9
$ANGBASE
 50
0.0
  9
$ANGDIR
 70
     0
  9
$PDMODE
 70
     0
  9
$PDSIZE
 40
0.0
  9
$PLINEWID
 40
0.0
  9
$COORDS
 70
     1
  9
$SPLFRAME
 70
     0
  9
$SPLINETYPE
 70
     6
  9
$SPLINESEGS
 70
     8
  9
$ATTDIA
 70
     0
  9
$ATTREQ
 70
     1
  9
$HANDLING
 70
-16383
  9
$HANDSEED
  5
603C
  9
$SURFTAB1
 70
     6
  9
$SURFTAB2
 70
     6
  9
$SURFTYPE
 70
     6
  9
$SURFU
 70
     6
  9
$SURFV
 70
     6
  9
$UCSNAME
  2

  9
$UCSORG
 10
0.0
 20
0.0
 30
0.0
  9
$UCSXDIR
 10
1.0
 20
0.0
 30
0.0
  9
$UCSYDIR
 10
0.0
 20
1.0
 30
0.0
  9
$PUCSNAME
  2

  9
$PUCSORG
 10
0.0
 20
0.0
 30
0.0
  9
$PUCSXDIR
 10
1.0
 20
0.0
 30
0.0
  9
$PUCSYDIR
 10
0.0
 20
1.0
 30
0.0
  9
$USERI1
 70
     0
  9
$USERI2
 70
     0
  9
$USERI3
 70
     0
  9
$USERI4
 70
     0
  9
$USERI5
 70
     0
  9
$USERR1
 40
0.0
  9
$USERR2
 40
0.0
  9
$USERR3
 40
0.0
  9
$USERR4
 40
0.0
  9
$USERR5
 40
0.0
  9
$WORLDVIEW
 70
     1
  9
$SHADEDGE
 70
     3
  9
$SHADEDIF
 70
    70
  9
$TILEMODE
 70
     1
  9
$MAXACTVP
 70
    64
  9
$PLIMCHECK
 70
     0
  9
$PEXTMIN
 10
1.0000000000000000E+020
 20
1.0000000000000000E+020
 30
1.0000000000000000E+020
  9
$PEXTMAX
 10
-1.0000000000000000E+020
 20
-1.0000000000000000E+020
 30
-1.0000000000000000E+020
  9
$PLIMMIN
 10
0.0
 20
0.0
  9
$PLIMMAX
 10
420.0
 20
297.0
  9
$UNITMODE
 70
     0
  9
$VISRETAIN
 70
     1
  9
$PLINEGEN
 70
     0
  9
$PSLTSCALE
 70
     1
  0
ENDSEC
  0
SECTION
  2
TABLES
  0
TABLE
  2
VPORT
 70
    44
  0
VPORT
  2
*ACTIVE
 70
     0
 10
0.0
 20
0.0
 11
1.0
 21
1.0
 12
243.19809294536361
 22
20.724196922940902
 13
0.0
 23
0.0
 14
10.0
 24
10.0
 15
10.0
 25
10.0
 16
0.0
 26
0.0
 36
1.0
 17
0.0
 27
0.0
 37
0.0
 40
1136.324782680095
 41
0.8452830188679245
 42
50.0
 43
0.0
 44
0.0
 50
0.0
 51
0.0
 71
     0
 72
   100
 73
     1
 74
     3
 75
     0
 76
     0
 77
     0
 78
     0
  0
ENDTAB
  0
TABLE
  2
LTYPE
 70
     1
  0
LTYPE
  2
CONTINUOUS
 70
     0
  3
Solid line
 72
    65
 73
     0
 40
0.0
  0
ENDTAB
  0
TABLE
  2
LAYER
 70
     3
  0
LAYER
  2
0
 70
     0
 62
     7
  6
CONTINUOUS
  0
LAYER
  2
1外形線
 70
     0
 62
     3
  6
CONTINUOUS
  0
LAYER
  2
4太線
 70
     0
 62
     6
  6
CONTINUOUS
  0
ENDTAB
  0
TABLE
  2
STYLE
 70
     2
  0
STYLE
  2
STANDARD
 70
     0
 40
0.0
 41
1.0
 50
0.0
 71
     0
 42
2.5
  3
txt
  4

  0
STYLE
  2
KANJI
 70
     0
 40
0.0
 41
1.0
 50
0.0
 71
     0
 42
10.0
  3
simplex
  4
bigfont
  0
ENDTAB
  0
TABLE
  2
VIEW
 70
     0
  0
ENDTAB
  0
TABLE
  2
UCS
 70
     0
  0
ENDTAB
  0
TABLE
  2
APPID
 70
     1
  0
APPID
  2
ACAD
 70
     0
  0
ENDTAB
  0
TABLE
  2
DIMSTYLE
 70
     2
  0
DIMSTYLE
  2
ISO-25
 70
     0
  3

  4

  5

  6

  7

 40
1.0
 41
2.5
 42
0.625
 43
3.75
 44
1.25
 45
0.0
 46
0.0
 47
0.0
 48
0.0
140
2.5
141
2.5
142
0.0
143
0.03937007874016
144
1.0
145
0.0
146
1.0
147
0.625
 71
     0
 72
     0
 73
     0
 74
     0
 75
     0
 76
     0
 77
     1
 78
     8
170
     0
171
     3
172
     1
173
     0
174
     0
175
     0
176
     0
177
     0
178
     0
  0
DIMSTYLE
  2
STANDARD
 70
     0
  3

  4

  5

  6
1
  7
1
 40
1.0
 41
1.0
 42
1.0
 43
6.0
 44
1.0
 45
0.0
 46
0.0
 47
0.0
 48
0.0
140
2.5
141
0.0
142
0.0
143
25.399999999999999
144
1.0
145
0.0
146
1.0
147
0.5
 71
     0
 72
     0
 73
     0
 74
     0
 75
     0
 76
     0
 77
     1
 78
     8
170
     0
171
     2
172
     1
173
     1
174
     0
175
     0
176
     0
177
     0
178
     0
  0
ENDTAB
  0
ENDSEC
  0
SECTION
  2
BLOCKS
  0
BLOCK
  8
0
  2
$MODEL_SPACE
 70
     0
 10
0.0
 20
0.0
 30
0.0
  3
$MODEL_SPACE
  1

  0
ENDBLK
  5
21
  8
0
  0
BLOCK
 67
     1
  8
0
  2
$PAPER_SPACE
 70
     0
 10
0.0
 20
0.0
 30
0.0
  3
$PAPER_SPACE
  1

  0
ENDBLK
  5
1D
 67
     1
  8
0
  0
BLOCK
  8
0
  2
1
 70
     0
 10
0.0
 20
0.0
 30
0.0
  3
1
  1

  0
SOLID
  5
2C
  8
0
  6
BYBLOCK
 62
     0
 10
-1.811110924292052
 20
0.4852857095671653
 30
0.0
 11
-1.811110924292052
 21
-0.4852857095673642
 31
0.0
 12
0.0
 22
0.0
 32
0.0
 13
0.0
 23
0.0
 33
0.0
  0
ENDBLK
  5
2E
  8
0
  0
ENDSEC
  0
SECTION
  2
ENTITIES
  0
LINE
  5
5F77
  8
1外形線
 10
133.9423992572344
 20
93.315087817331801
 30
0.0
 11
139.4423992572344
 21
93.315087817331801
 31
0.0
  0
LINE
  5
5F78
  8
1外形線
 10
139.4423992572344
 20
97.815087817331573
 30
0.0
 11
133.9423992572344
 21
97.815087817331573
 31
0.0
  0
LINE
  5
5F79
  8
1外形線
 10
133.9423992572344
 20
40.315087817331907
 30
0.0
 11
139.4423992572344
 21
40.315087817331907
 31
0.0
  0
LINE
  5
5F7A
  8
1外形線
 10
139.4423992572344
 20
44.815087817331801
 30
0.0
 11
133.9423992572344
 21
44.815087817331801
 31
0.0
  0
LINE
  5
5F7B
  8
1外形線
 10
62.69133621271601
 20
275.65816660423968
 30
0.0
 11
144.6934623017485
 21
275.65816660423968
 31
0.0
  0
LINE
  5
5F7C
  8
1外形線
 10
145.37326205632911
 20
180.29429345853791
 30
0.0
 11
62.011536458135417
 21
180.29429345853791
 31
0.0
  0
LINE
  5
5F7D
  8
1外形線
 10
62.69133621271601
 20
204.6560405152056
 30
0.0
 11
144.6934623017485
 21
204.6560405152056
 31
0.0
  0
LINE
  5
5F7E
  8
1外形線
 10
144.6934623017485
 20
33.564024772814719
 30
0.0
 11
62.69133621271601
 21
33.564024772814719
 31
0.0
  0
LINE
  5
5F7F
  8
1外形線
 10
62.692399257232303
 20
35.565087817331801
 30
0.0
 11
144.69239925723221
 21
35.565087817331801
 31
0.0
  0
LINE
  5
5F80
  8
1外形線
 10
144.6934623017485
 20
104.5661508618488
 30
0.0
 11
62.69133621271601
 21
104.5661508618488
 31
0.0
  0
LINE
  5
5F81
  8
1外形線
 10
62.692399257232303
 20
102.5650878173318
 30
0.0
 11
144.69239925723221
 21
102.5650878173318
 31
0.0
  0
LINE
  5
5F82
  8
1外形線
 10
35.692399257232289
 20
129.29429345853879
 30
0.0
 11
171.69239925723221
 21
129.29429345853879
 31
0.0
  0
ARC
  5
5F83
  8
1外形線
 10
36.692399257232182
 20
60.565087817331573
 30
0.0
 40
1.0
 50
180.0
 51
270.0
  0
LINE
  5
5F84
  8
1外形線
 10
50.69239925723241
 20
86.565087817331801
 30
0.0
 11
50.692399257232182
 21
51.565087817331801
 31
0.0
  0
LINE
  5
5F85
  8
1外形線
 10
35.692399257232289
 20
49.970075379444211
 30
0.0
 11
35.692399257232289
 21
88.160100255219376
 31
0.0
  0
LINE
  5
5F86
  8
1外形線
 10
35.692399257232289
 20
50.065087817331801
 30
0.0
 11
49.692399257232289
 21
50.065087817331921
 31
0.0
  0
LINE
  5
5F87
  8
1外形線
 10
47.18866789085871
 20
48.065087817331907
 30
0.0
 11
49.69133621271601
 21
48.065087817331907
 31
0.0
  0
LINE
  5
5F88
  8
1外形線
 10
50.692399257232069
 20
59.565087817331801
 30
0.0
 11
36.692399257232182
 21
59.565087817332021
 31
0.0
  0
LINE
  5
5F89
  8
1外形線
 10
44.203556320228131
 20
48.213972111032263
 30
0.0
 11
36.592895538211103
 21
48.975038189234169
 31
0.0
  0
ARC
  5
5F8A
  8
1外形線
 10
36.692399257232289
 20
49.970075379444211
 30
0.0
 40
1.0
 50
180.0
 51
264.28940686249928
  0
ARC
  5
5F8B
  8
1外形線
 10
47.18866789085871
 20
78.065087817331914
 30
0.0
 40
30.0
 50
264.28940686249928
 51
270.0
  0
LINE
  5
5F8C
  8
1外形線
 10
123.19239925723311
 20
37.365087817331812
 30
0.0
 11
84.192399257231386
 21
37.365087817331691
 31
0.0
  0
LINE
  5
5F8D
  8
1外形線
 10
67.942399257230136
 20
44.815087817331801
 30
0.0
 11
73.442399257230136
 21
44.815087817331801
 31
0.0
  0
LINE
  5
5F8E
  8
1外形線
 10
73.442399257230136
 20
40.315087817331907
 30
0.0
 11
67.942399257230136
 21
40.315087817331907
 31
0.0
  0
LINE
  5
5F8F
  8
1外形線
 10
54.692399257232289
 20
43.565087817331801
 30
0.0
 11
54.692399257232289
 21
45.065087817331907
 31
0.0
  0
LINE
  5
5F90
  8
1外形線
 10
52.69133621271601
 20
43.564024772814719
 30
0.0
 11
52.69133621271601
 21
45.065087817331907
 31
0.0
  0
LINE
  5
5F91
  8
1外形線
 10
56.192399257232182
 20
49.565087817331801
 30
0.0
 11
56.192399257232182
 21
42.565087817331801
 31
0.0
  0
ARC
  5
5F92
  8
1外形線
 10
63.19239925723241
 20
42.565087817331801
 30
0.0
 40
7.0
 50
180.0
 51
270.0
  0
ARC
  5
5F93
  8
1外形線
 10
62.69133621271601
 20
43.564024772814719
 30
0.0
 40
10.0
 50
180.0
 51
270.0
  0
ARC
  5
5F94
  8
1外形線
 10
62.692399257232303
 20
43.565087817331801
 30
0.0
 40
8.0
 50
180.0
 51
270.0
  0
ARC
  5
5F95
  8
1外形線
 10
67.942399257230136
 20
42.56508781733185
 30
0.0
 40
2.25
 50
90.0
 51
270.0
  0
LINE
  5
5F96
  8
1外形線
 10
55.192399257232182
 20
50.565087817331801
 30
0.0
 11
51.692399257232182
 21
50.565087817331801
 31
0.0
  0
ARC
  5
5F97
  8
1外形線
 10
49.69133621271601
 20
45.065087817331907
 30
0.0
 40
3.0
 50
0.0
 51
90.0
  0
ARC
  5
5F98
  8
1外形線
 10
49.692399257232289
 20
45.065087817331907
 30
0.0
 40
5.0
 50
359.9999999999992
 51
90.0
  0
ARC
  5
5F99
  8
1外形線
 10
51.692399257232182
 20
51.565087817331801
 30
0.0
 40
1.0
 50
180.0
 51
270.0
  0
ARC
  5
5F9A
  8
1外形線
 10
55.192399257232182
 20
49.565087817331801
 30
0.0
 40
1.0
 50
0.0
 51
90.0
  0
CIRCLE
  5
5F9B
  8
1外形線
 10
87.692399257232296
 20
45.865087817331862
 30
0.0
 40
3.0
  0
ARC
  5
5F9C
  8
1外形線
 10
73.442399257230136
 20
42.56508781733185
 30
0.0
 40
2.25
 50
270.0
 51
90.0
  0
LINE
  5
5F9D
  8
1外形線
 10
84.192399257231386
 20
35.565087817331801
 30
0.0
 11
84.192399257231386
 21
37.365087817331691
 31
0.0
  0
CIRCLE
  5
5F9E
  8
1外形線
 10
119.6923992572322
 20
45.865087817331862
 30
0.0
 40
3.0
  0
LINE
  5
5F9F
  8
1外形線
 10
123.19239925723311
 20
35.565087817331801
 30
0.0
 11
123.19239925723311
 21
37.365087817331812
 31
0.0
  0
ARC
  5
5FA0
  8
1外形線
 10
133.9423992572344
 20
42.56508781733185
 30
0.0
 40
2.25
 50
90.0
 51
270.0
  0
LINE
  5
5FA1
  8
1外形線
 10
50.96046519525521
 20
167.7942934585376
 30
0.0
 11
47.18866789085893
 21
167.79429345853779
 31
0.0
  0
LINE
  5
5FA2
  8
1外形線
 10
47.18866789085871
 20
90.065087817331687
 30
0.0
 11
49.69133621271601
 21
90.065087817331687
 31
0.0
  0
LINE
  5
5FA3
  8
1外形線
 10
50.692399257232069
 20
78.565087817331857
 30
0.0
 11
36.692399257232182
 21
78.565087817331914
 31
0.0
  0
LINE
  5
5FA4
  8
1外形線
 10
35.692399257232289
 20
88.065087817331801
 30
0.0
 11
49.692399257232289
 21
88.065087817331687
 31
0.0
  0
LINE
  5
5FA5
  8
1外形線
 10
44.203556320228131
 20
89.916203523631324
 30
0.0
 11
36.592895538211103
 21
89.155137445429432
 31
0.0
  0
ARC
  5
5FA6
  8
1外形線
 10
36.692399257232182
 20
77.565087817331445
 30
0.0
 40
1.0
 50
90.0
 51
180.0
  0
ARC
  5
5FA7
  8
1外形線
 10
36.692399257232289
 20
88.160100255219376
 30
0.0
 40
1.0
 50
95.710593137500595
 51
180.0
  0
ARC
  5
5FA8
  8
1外形線
 10
47.18866789085871
 20
60.065087817331687
 30
0.0
 40
30.0
 50
90.0
 51
95.710593137500595
  0
LINE
  5
5FA9
  8
1外形線
 10
35.692399257232289
 20
129.29429345853879
 30
0.0
 11
35.692399257232289
 21
165.88930589643019
 31
0.0
  0
LINE
  5
5FAA
  8
1外形線
 10
44.20355632022904
 20
167.64540916484211
 30
0.0
 11
36.592895538211557
 21
166.88434308664031
 31
0.0
  0
ARC
  5
5FAB
  8
1外形線
 10
36.692399257232523
 20
165.88930589643019
 30
0.0
 40
1.0
 50
95.710593137498975
 51
180.0
  0
ARC
  5
5FAC
  8
1外形線
 10
47.188667890859158
 20
137.7942934585424
 30
0.0
 40
30.0
 50
90.0
 51
95.710593137500595
  0
LINE
  5
5FAD
  8
1外形線
 10
84.192399257231386
 20
100.7650878173318
 30
0.0
 11
103.6923992572321
 21
100.7650878173318
 31
0.0
  0
CIRCLE
  5
5FAE
  8
1外形線
 10
87.692399257232296
 20
92.265087817331732
 30
0.0
 40
3.0
  0
ARC
  5
5FAF
  8
1外形線
 10
49.69133621271601
 20
93.065087817331687
 30
0.0
 40
3.0
 50
270.0
 51
0.0
  0
ARC
  5
5FB0
  8
1外形線
 10
49.692399257232289
 20
93.065087817331687
 30
0.0
 40
5.0
 50
270.0
 51
0.0000000000008142
  0
LINE
  5
5FB1
  8
1外形線
 10
56.19239925723241
 20
88.565087817331815
 30
0.0
 11
56.192399257232289
 21
95.565087817331801
 31
0.0
  0
LINE
  5
5FB2
  8
1外形線
 10
55.192399257232402
 20
87.565087817331786
 30
0.0
 11
51.692399257232182
 21
87.565087817331786
 31
0.0
  0
ARC
  5
5FB3
  8
1外形線
 10
51.692399257232182
 20
86.565087817331801
 30
0.0
 40
1.0
 50
90.0
 51
180.0
  0
ARC
  5
5FB4
  8
1外形線
 10
55.192399257232402
 20
88.565087817331815
 30
0.0
 40
1.0
 50
270.0
 51
0.0000000000004071
  0
LINE
  5
5FB5
  8
1外形線
 10
73.442399257230136
 20
93.315087817331801
 30
0.0
 11
67.942399257230136
 21
93.315087817331801
 31
0.0
  0
LINE
  5
5FB6
  8
1外形線
 10
67.942399257230136
 20
97.815087817331573
 30
0.0
 11
73.442399257230136
 21
97.815087817331573
 31
0.0
  0
ARC
  5
5FB7
  8
1外形線
 10
62.69133621271601
 20
94.566150861848868
 30
0.0
 40
10.0
 50
90.0
 51
180.0
  0
ARC
  5
5FB8
  8
1外形線
 10
63.19239925723241
 20
95.565087817331801
 30
0.0
 40
7.0
 50
90.0
 51
180.0
  0
ARC
  5
5FB9
  8
1外形線
 10
62.692399257232303
 20
94.565087817331801
 30
0.0
 40
8.0
 50
90.0
 51
180.0
  0
LINE
  5
5FBA
  8
1外形線
 10
52.69133621271601
 20
94.566150861848868
 30
0.0
 11
52.69133621271601
 21
93.065087817331687
 31
0.0
  0
LINE
  5
5FBB
  8
1外形線
 10
54.692399257232289
 20
94.565087817331801
 30
0.0
 11
54.692399257232289
 21
93.065087817331687
 31
0.0
  0
ARC
  5
5FBC
  8
1外形線
 10
67.942399257230136
 20
95.565087817331687
 30
0.0
 40
2.25
 50
90.0
 51
270.0
  0
ARC
  5
5FBD
  8
1外形線
 10
73.442399257230136
 20
95.565087817331687
 30
0.0
 40
2.25
 50
270.0
 51
90.0
  0
LINE
  5
5FBE
  8
1外形線
 10
84.192399257231386
 20
102.5650878173318
 30
0.0
 11
84.192399257231386
 21
100.7650878173318
 31
0.0
  0
CIRCLE
  5
5FBF
  8
1外形線
 10
119.6923992572322
 20
92.265087817331732
 30
0.0
 40
3.0
  0
CIRCLE
  5
5FC0
  8
1外形線
 10
103.6923992572323
 20
69.065087817331801
 30
0.0
 40
2.1000000000000001
  0
LINE
  5
5FC1
  8
1外形線
 10
123.19239925723311
 20
100.7650878173318
 30
0.0
 11
103.6923992572324
 21
100.7650878173318
 31
0.0
  0
LINE
  5
5FC2
  8
1外形線
 10
123.19239925723311
 20
102.5650878173318
 30
0.0
 11
123.19239925723311
 21
100.7650878173318
 31
0.0
  0
ARC
  5
5FC3
  8
1外形線
 10
133.9423992572344
 20
95.565087817331687
 30
0.0
 40
2.25
 50
90.0
 51
270.0
  0
LINE
  5
5FC4
  8
1外形線
 10
54.015282263819017
 20
172.53907675020059
 30
0.0
 11
52.691462367134477
 21
129.29429345853879
 31
0.0
  0
ARC
  5
5FC5
  8
1外形線
 10
50.960465195255331
 20
170.7942934585376
 30
0.0
 40
3.0
 50
269.99999999999829
 51
358.24659513992822
  0
ARC
  5
5FC6
  8
1外形線
 10
62.011536458135417
 20
172.29429345853791
 30
0.0
 40
8.0
 50
90.0
 51
178.2465951399283
  0
LINE
  5
5FC7
  8
1外形線
 10
47.18866789085871
 20
261.1571035597226
 30
0.0
 11
49.69133621271601
 21
261.1571035597226
 31
0.0
  0
LINE
  5
5FC8
  8
1外形線
 10
47.18866789085871
 20
219.1571035597228
 30
0.0
 11
49.69133621271601
 21
219.1571035597228
 31
0.0
  0
LINE
  5
5FC9
  8
1外形線
 10
35.692399257232289
 20
221.0620911218351
 30
0.0
 11
35.692399257232289
 21
259.2521159976103
 31
0.0
  0
LINE
  5
5FCA
  8
1外形線
 10
44.203556320228131
 20
219.30598785342309
 30
0.0
 11
36.592895538211103
 21
220.067053931625
 31
0.0
  0
ARC
  5
5FCB
  8
1外形線
 10
36.692399257232289
 20
221.0620911218351
 30
0.0
 40
1.0
 50
180.0
 51
264.28940686249928
  0
ARC
  5
5FCC
  8
1外形線
 10
47.18866789085871
 20
249.1571035597228
 30
0.0
 40
30.0
 50
264.28940686249928
 51
270.0
  0
LINE
  5
5FCD
  8
1外形線
 10
44.203556320228131
 20
261.00821926602219
 30
0.0
 11
36.592895538211103
 21
260.24715318782029
 31
0.0
  0
ARC
  5
5FCE
  8
1外形線
 10
36.692399257232289
 20
259.2521159976103
 30
0.0
 40
1.0
 50
95.710593137500595
 51
180.0
  0
ARC
  5
5FCF
  8
1外形線
 10
47.18866789085871
 20
231.15710355972249
 30
0.0
 40
30.0
 50
90.0
 51
95.710593137500595
  0
LINE
  5
5FD0
  8
1外形線
 10
52.69133621271601
 20
214.6560405152056
 30
0.0
 11
52.69133621271601
 21
265.6581666042398
 31
0.0
  0
CIRCLE
  5
5FD1
  8
1外形線
 10
103.6923992572323
 20
240.15710355972271
 30
0.0
 40
21.00000000000005
  0
CIRCLE
  5
5FD2
  8
1外形線
 10
103.6923992572323
 20
240.15710355972271
 30
0.0
 40
24.0
  0
ARC
  5
5FD3
  8
1外形線
 10
62.69133621271601
 20
214.6560405152056
 30
0.0
 40
10.0
 50
180.0
 51
270.0
  0
ARC
  5
5FD4
  8
1外形線
 10
49.69133621271601
 20
216.1571035597228
 30
0.0
 40
3.0
 50
0.0
 51
90.0
  0
ARC
  5
5FD5
  8
1外形線
 10
62.69133621271601
 20
265.6581666042398
 30
0.0
 40
10.0
 50
90.0
 51
180.0
  0
ARC
  5
5FD6
  8
1外形線
 10
49.69133621271601
 20
264.15710355972249
 30
0.0
 40
3.0
 50
270.0
 51
0.0
  0
ARC
  5
5FD7
  8
1外形線
 10
170.69239925723241
 20
60.565087817331573
 30
0.0
 40
1.0
 50
270.0
 51
0.0
  0
LINE
  5
5FD8
  8
1外形線
 10
171.69239925723221
 20
49.970075379444211
 30
0.0
 11
171.69239925723221
 21
88.160100255219376
 31
0.0
  0
LINE
  5
5FD9
  8
1外形線
 10
156.6923992572321
 20
86.565087817331801
 30
0.0
 11
156.69239925723241
 21
51.565087817331801
 31
0.0
  0
ARC
  5
5FDA
  8
1外形線
 10
157.6923992572323
 20
45.065087817331907
 30
0.0
 40
5.0
 50
90.0
 51
180.0000000000008
  0
ARC
  5
5FDB
  8
1外形線
 10
157.6934623017485
 20
45.065087817331907
 30
0.0
 40
3.0
 50
90.0
 51
180.0
  0
ARC
  5
5FDC
  8
1外形線
 10
155.69239925723241
 20
51.565087817331801
 30
0.0
 40
1.0
 50
270.0
 51
0.0000000000004071
  0
ARC
  5
5FDD
  8
1外形線
 10
144.6934623017485
 20
43.564024772814719
 30
0.0
 40
10.0
 50
270.0
 51
0.0
  0
LINE
  5
5FDE
  8
1外形線
 10
152.6923992572323
 20
43.565087817331801
 30
0.0
 11
152.6923992572323
 21
45.065087817331907
 31
0.0
  0
LINE
  5
5FDF
  8
1外形線
 10
154.6934623017485
 20
43.564024772814719
 30
0.0
 11
154.6934623017485
 21
45.065087817331907
 31
0.0
  0
LINE
  5
5FE0
  8
1外形線
 10
151.19239925723241
 20
49.565087817331801
 30
0.0
 11
151.19239925723241
 21
42.565087817331801
 31
0.0
  0
ARC
  5
5FE1
  8
1外形線
 10
144.69239925723221
 20
43.565087817331801
 30
0.0
 40
8.0
 50
270.0
 51
0.0
  0
ARC
  5
5FE2
  8
1外形線
 10
144.1923992572321
 20
42.565087817331801
 30
0.0
 40
7.0
 50
270.0
 51
0.0
  0
ARC
  5
5FE3
  8
1外形線
 10
139.4423992572344
 20
42.56508781733185
 30
0.0
 40
2.25
 50
270.0
 51
90.0
  0
LINE
  5
5FE4
  8
1外形線
 10
152.19239925723241
 20
50.565087817331801
 30
0.0
 11
155.69239925723241
 21
50.565087817331801
 31
0.0
  0
ARC
  5
5FE5
  8
1外形線
 10
152.19239925723241
 20
49.565087817331801
 30
0.0
 40
1.0
 50
90.0
 51
180.0
  0
LINE
  5
5FE6
  8
1外形線
 10
163.1812421942364
 20
48.213972111032263
 30
0.0
 11
170.7919029762534
 21
48.975038189234169
 31
0.0
  0
LINE
  5
5FE7
  8
1外形線
 10
156.69239925723249
 20
59.565087817331801
 30
0.0
 11
170.69239925723241
 21
59.565087817332021
 31
0.0
  0
LINE
  5
5FE8
  8
1外形線
 10
171.69239925723221
 20
50.065087817331801
 30
0.0
 11
157.6923992572323
 21
50.065087817331921
 31
0.0
  0
ARC
  5
5FE9
  8
1外形線
 10
160.1961306236058
 20
78.065087817331914
 30
0.0
 40
30.0
 50
270.0
 51
275.71059313750061
  0
LINE
  5
5FEA
  8
1外形線
 10
160.1961306236058
 20
48.065087817331907
 30
0.0
 11
157.6934623017485
 21
48.065087817331907
 31
0.0
  0
ARC
  5
5FEB
  8
1外形線
 10
170.69239925723221
 20
49.970075379444211
 30
0.0
 40
1.0
 50
275.71059313750061
 51
0.0
  0
ARC
  5
5FEC
  8
1外形線
 10
240.5598027073539
 20
146.7942934585387
 30
0.0
 40
21.0
 50
0.0
 51
180.0
  0
LINE
  5
5FED
  8
1外形線
 10
276.06073959745112
 20
129.29429345853859
 30
0.0
 11
205.05886581725579
 21
129.29429345853879
 31
0.0
  0
LINE
  5
5FEE
  8
1外形線
 10
240.5598027073535
 20
180.29429345853791
 30
0.0
 11
214.3789399082558
 21
180.2942934585387
 31
0.0
  0
ARC
  5
5FEF
  8
1外形線
 10
157.6923992572323
 20
93.065087817331687
 30
0.0
 40
5.0
 50
179.99999999999909
 51
270.0
  0
ARC
  5
5FF0
  8
1外形線
 10
157.6934623017485
 20
93.065087817331687
 30
0.0
 40
3.0
 50
180.0
 51
270.0
  0
LINE
  5
5FF1
  8
1外形線
 10
151.1923992572321
 20
88.565087817331815
 30
0.0
 11
151.19239925723221
 21
95.565087817331801
 31
0.0
  0
ARC
  5
5FF2
  8
1外形線
 10
155.69239925723241
 20
86.565087817331801
 30
0.0
 40
1.0
 50
0.0
 51
90.0
  0
LINE
  5
5FF3
  8
1外形線
 10
152.1923992572321
 20
87.565087817331786
 30
0.0
 11
155.69239925723241
 21
87.565087817331786
 31
0.0
  0
ARC
  5
5FF4
  8
1外形線
 10
152.1923992572321
 20
88.565087817331815
 30
0.0
 40
1.0
 50
179.9999999999996
 51
270.0
  0
LINE
  5
5FF5
  8
1外形線
 10
163.1812421942364
 20
89.916203523631324
 30
0.0
 11
170.7919029762534
 21
89.155137445429432
 31
0.0
  0
LINE
  5
5FF6
  8
1外形線
 10
156.69239925723249
 20
78.565087817331857
 30
0.0
 11
170.69239925723241
 21
78.565087817331914
 31
0.0
  0
LINE
  5
5FF7
  8
1外形線
 10
171.69239925723221
 20
88.065087817331801
 30
0.0
 11
157.6923992572323
 21
88.065087817331687
 31
0.0
  0
ARC
  5
5FF8
  8
1外形線
 10
160.1961306236058
 20
60.065087817331687
 30
0.0
 40
30.0
 50
84.289406862499391
 51
90.0
  0
LINE
  5
5FF9
  8
1外形線
 10
160.1961306236058
 20
90.065087817331687
 30
0.0
 11
157.6934623017485
 21
90.065087817331687
 31
0.0
  0
ARC
  5
5FFA
  8
1外形線
 10
170.69239925723241
 20
77.565087817331445
 30
0.0
 40
1.0
 50
0.0
 51
90.0
  0
ARC
  5
5FFB
  8
1外形線
 10
170.69239925723221
 20
88.160100255219376
 30
0.0
 40
1.0
 50
0.0
 51
84.289406862499391
  0
ARC
  5
5FFC
  8
1外形線
 10
144.6934623017485
 20
94.566150861848868
 30
0.0
 40
10.0
 50
0.0
 51
90.0
  0
ARC
  5
5FFD
  8
1外形線
 10
144.1923992572321
 20
95.565087817331801
 30
0.0
 40
7.0
 50
0.0
 51
90.0
  0
ARC
  5
5FFE
  8
1外形線
 10
144.69239925723221
 20
94.565087817331801
 30
0.0
 40
8.0
 50
0.0
 51
90.0
  0
ARC
  5
5FFF
  8
1外形線
 10
139.4423992572344
 20
95.565087817331687
 30
0.0
 40
2.25
 50
270.0
 51
90.0
  0
LINE
  5
6000
  8
1外形線
 10
152.6923992572323
 20
94.565087817331801
 30
0.0
 11
152.6923992572323
 21
93.065087817331687
 31
0.0
  0
ARC
  5
6001
  8
1外形線
 10
150.19239925723221
 20
95.065087817331786
 30
0.0
 40
1.0
 50
0.0
 51
0.0
  0
LINE
  5
6002
  8
1外形線
 10
154.6934623017485
 20
94.566150861848868
 30
0.0
 11
154.6934623017485
 21
93.065087817331687
 31
0.0
  0
LINE
  5
6003
  8
1外形線
 10
171.69239925723221
 20
129.29429345853879
 30
0.0
 11
171.69239925723221
 21
165.88930589643019
 31
0.0
  0
LINE
  5
6004
  8
1外形線
 10
153.36951625064549
 20
172.53907675020059
 30
0.0
 11
154.69333614733139
 21
129.29429345853879
 31
0.0
  0
ARC
  5
6005
  8
1外形線
 10
156.42433331920921
 20
170.7942934585376
 30
0.0
 40
3.0
 50
181.75340486007161
 51
270.0
  0
ARC
  5
6006
  8
1外形線
 10
145.37326205632911
 20
172.29429345853791
 30
0.0
 40
8.0
 50
1.7534048600717049
 51
90.0
  0
LINE
  5
6007
  8
1外形線
 10
163.18124219423549
 20
167.64540916484211
 30
0.0
 11
170.791902976253
 21
166.88434308664031
 31
0.0
  0
ARC
  5
6008
  8
1外形線
 10
160.1961306236054
 20
137.7942934585424
 30
0.0
 40
30.0
 50
84.289406862499391
 51
90.0
  0
LINE
  5
6009
  8
1外形線
 10
156.4243333192093
 20
167.7942934585376
 30
0.0
 11
160.1961306236056
 21
167.79429345853779
 31
0.0
  0
ARC
  5
600A
  8
1外形線
 10
170.69239925723201
 20
165.88930589643019
 30
0.0
 40
1.0
 50
0.0
 51
84.289406862501053
  0
LINE
  5
600B
  8
1外形線
 10
205.05886581725579
 20
129.29429345853879
 30
0.0
 11
206.38268571393999
 21
172.53907675020159
 31
0.0
  0
LINE
  5
600C
  8
1外形線
 10
219.5598027073535
 20
129.2942934585387
 30
0.0
 11
219.5598027073535
 21
146.7942934585387
 31
0.0
  0
ARC
  5
600D
  8
1外形線
 10
214.3789399082564
 20
172.2942934585387
 30
0.0
 40
8.0
 50
90.000000000004874
 51
178.24659513992739
  0
LINE
  5
600E
  8
1外形線
 10
240.5598027073535
 20
180.29429345853791
 30
0.0
 11
266.74066550645119
 21
180.2942934585387
 31
0.0
  0
ARC
  5
600F
  8
1外形線
 10
240.5598027073539
 20
146.7942934585387
 30
0.0
 40
19.0
 50
0.0
 51
180.0
  0
LINE
  5
6010
  8
1外形線
 10
248.55980270735259
 20
133.7942934585387
 30
0.0
 11
240.55980270735259
 21
133.7942934585387
 31
0.0
  0
ARC
  5
6011
  8
1外形線
 10
240.5598027073535
 20
148.79429345853791
 30
0.0
 40
12.0
 50
215.68533471264811
 51
324.31466528735319
  0
LINE
  5
6012
  8
1外形線
 10
250.05980270735259
 20
131.7942934585385
 30
0.0
 11
231.05980270735259
 21
131.79429345853859
 31
0.0
  0
LINE
  5
6013
  8
1外形線
 10
226.55980270735321
 20
140.79429345853859
 30
0.0
 11
226.55980270735361
 21
131.7942934585387
 31
0.0
  0
LINE
  5
6014
  8
1外形線
 10
221.5598027073535
 20
129.2942934585387
 30
0.0
 11
221.5598027073535
 21
146.7942934585387
 31
0.0
  0
LINE
  5
6015
  8
1外形線
 10
231.05980270735259
 20
135.2942934585387
 30
0.0
 11
232.55980270735259
 21
135.2942934585387
 31
0.0
  0
LINE
  5
6016
  8
1外形線
 10
226.55980270735361
 20
131.79429345853859
 30
0.0
 11
221.5598027073535
 21
131.79429345853859
 31
0.0
  0
LINE
  5
6017
  8
1外形線
 10
231.05980270735259
 20
135.2942934585387
 30
0.0
 11
231.05980270735259
 21
131.7942934585387
 31
0.0
  0
LINE
  5
6018
  8
1外形線
 10
232.55980270735259
 20
133.7942934585387
 30
0.0
 11
240.55980270735259
 21
133.7942934585387
 31
0.0
  0
LINE
  5
6019
  8
1外形線
 10
232.55980270735259
 20
135.2942934585387
 30
0.0
 11
232.55980270735259
 21
133.7942934585387
 31
0.0
  0
ARC
  5
601A
  8
1外形線
 10
227.5598027073531
 20
140.7942934585387
 30
0.0
 40
1.0
 50
90.0
 51
180.00000000000239
  0
LINE
  5
601B
  8
1外形線
 10
230.813008362544
 20
141.7942934585387
 30
0.0
 11
227.5598027073531
 21
141.7942934585387
 31
0.0
  0
LINE
  5
601C
  8
1外形線
 10
254.5598027073529
 20
140.79429345853859
 30
0.0
 11
254.5598027073525
 21
131.7942934585387
 31
0.0
  0
LINE
  5
601D
  8
1外形線
 10
259.55980270735353
 20
129.2942934585387
 30
0.0
 11
259.55980270735353
 21
146.7942934585387
 31
0.0
  0
LINE
  5
601E
  8
1外形線
 10
261.55980270735353
 20
129.2942934585387
 30
0.0
 11
261.55980270735353
 21
146.7942934585387
 31
0.0
  0
LINE
  5
601F
  8
1外形線
 10
250.05980270735259
 20
135.2942934585387
 30
0.0
 11
250.05980270735259
 21
131.7942934585387
 31
0.0
  0
LINE
  5
6020
  8
1外形線
 10
248.55980270735259
 20
135.2942934585387
 30
0.0
 11
248.55980270735259
 21
133.7942934585387
 31
0.0
  0
LINE
  5
6021
  8
1外形線
 10
250.05980270735259
 20
135.2942934585387
 30
0.0
 11
248.55980270735259
 21
135.2942934585387
 31
0.0
  0
LINE
  5
6022
  8
1外形線
 10
259.55980270735341
 20
131.79429345853831
 30
0.0
 11
254.55980270735239
 21
131.7942934585385
 31
0.0
  0
LINE
  5
6023
  8
1外形線
 10
250.30659705216209
 20
141.7942934585387
 30
0.0
 11
253.5598027073529
 21
141.79429345853859
 31
0.0
  0
ARC
  5
6024
  8
1外形線
 10
253.5598027073529
 20
140.7942934585387
 30
0.0
 40
1.0
 50
359.9999999999975
 51
90.0
  0
LINE
  5
6025
  8
1外形線
 10
276.06073959745112
 20
129.29429345853879
 30
0.0
 11
274.73691970076698
 21
172.53907675020159
 31
0.0
  0
ARC
  5
6026
  8
1外形線
 10
266.74066550645051
 20
172.2942934585387
 30
0.0
 40
8.0
 50
1.7534048600725189
 51
89.999999999995111
  0
LINE
  5
6027
  8
1外形線
 10
171.69239925723221
 20
221.0620911218351
 30
0.0
 11
171.69239925723221
 21
259.2521159976103
 31
0.0
  0
LINE
  5
6028
  8
1外形線
 10
154.6934623017485
 20
265.6581666042398
 30
0.0
 11
154.6934623017485
 21
214.6560405152056
 31
0.0
  0
ARC
  5
6029
  8
1外形線
 10
144.6934623017485
 20
214.6560405152056
 30
0.0
 40
10.0
 50
270.0
 51
0.0
  0
ARC
  5
602A
  8
1外形線
 10
157.6934623017485
 20
216.1571035597228
 30
0.0
 40
3.0
 50
90.0
 51
180.0
  0
LINE
  5
602B
  8
1外形線
 10
163.1812421942364
 20
219.30598785342309
 30
0.0
 11
170.7919029762534
 21
220.067053931625
 31
0.0
  0
ARC
  5
602C
  8
1外形線
 10
160.1961306236058
 20
249.1571035597228
 30
0.0
 40
30.0
 50
270.0
 51
275.71059313750061
  0
LINE
  5
602D
  8
1外形線
 10
160.1961306236058
 20
219.1571035597228
 30
0.0
 11
157.6934623017485
 21
219.1571035597228
 31
0.0
  0
ARC
  5
602E
  8
1外形線
 10
170.69239925723221
 20
221.0620911218351
 30
0.0
 40
1.0
 50
275.71059313750061
 51
0.0
  0
ARC
  5
602F
  8
1外形線
 10
144.6934623017485
 20
265.6581666042398
 30
0.0
 40
10.0
 50
0.0
 51
90.0
  0
ARC
  5
6030
  8
1外形線
 10
157.6934623017485
 20
264.15710355972249
 30
0.0
 40
3.0
 50
180.0
 51
270.0
  0
LINE
  5
6031
  8
1外形線
 10
163.1812421942364
 20
261.00821926602219
 30
0.0
 11
170.7919029762534
 21
260.24715318782029
 31
0.0
  0
ARC
  5
6032
  8
1外形線
 10
170.69239925723221
 20
259.2521159976103
 30
0.0
 40
1.0
 50
0.0
 51
84.289406862499391
  0
ARC
  5
6033
  8
1外形線
 10
160.1961306236058
 20
231.15710355972249
 30
0.0
 40
30.0
 50
84.289406862499391
 51
90.0
  0
LINE
  5
6034
  8
1外形線
 10
160.1961306236058
 20
261.1571035597226
 30
0.0
 11
157.6934623017485
 21
261.1571035597226
 31
0.0
  0
ENDSEC
  0
EOF
