  0
SECTION
  2
HEADER
  9
$ACADVER
  1
AC1009
  9
$INSBASE
 10
0.0
 20
0.0
 30
0.0
  9
$EXTMIN
 10
48.389533080244121
 20
61.038256595326231
 30
0.0
  9
$EXTMAX
 10
270.30644325732737
 20
166.76073555792669
 30
0.0
  9
$LIMMIN
 10
0.0
 20
0.0
  9
$LIMMAX
 10
420.0
 20
297.0
  9
$ORTHOMODE
 70
     0
  9
$REGENMODE
 70
     1
  9
$FILLMODE
 70
     1
  9
$QTEXTMODE
 70
     0
  9
$MIRRTEXT
 70
     1
  9
$DRAGMODE
 70
     2
  9
$LTSCALE
 40
1.0
  9
$OSMODE
 70
    37
  9
$ATTMODE
 70
     1
  9
$TEXTSIZE
 40
2.5
  9
$TRACEWID
 40
1.0
  9
$TEXTSTYLE
  7
STANDARD
  9
$CLAYER
  8
0
  9
$CELTYPE
  6
BYLAYER
  9
$CECOLOR
 62
   256
  9
$DIMSCALE
 40
1.0
  9
$DIMASZ
 40
2.5
  9
$DIMEXO
 40
0.625
  9
$DIMDLI
 40
3.75
  9
$DIMRND
 40
0.0
  9
$DIMDLE
 40
0.0
  9
$DIMEXE
 40
1.25
  9
$DIMTP
 40
0.0
  9
$DIMTM
 40
0.0
  9
$DIMTXT
 40
2.5
  9
$DIMCEN
 40
2.5
  9
$DIMTSZ
 40
0.0
  9
$DIMTOL
 70
     0
  9
$DIMLIM
 70
     0
  9
$DIMTIH
 70
     0
  9
$DIMTOH
 70
     0
  9
$DIMSE1
 70
     0
  9
$DIMSE2
 70
     0
  9
$DIMTAD
 70
     1
  9
$DIMZIN
 70
     8
  9
$DIMBLK
  1

  9
$DIMASO
 70
     1
  9
$DIMSHO
 70
     1
  9
$DIMPOST
  1

  9
$DIMAPOST
  1

  9
$DIMALT
 70
     0
  9
$DIMALTD
 70
     3
  9
$DIMALTF
 40
0.03937007874016
  9
$DIMLFAC
 40
1.0
  9
$DIMTOFL
 70
     1
  9
$DIMTVP
 40
0.0
  9
$DIMTIX
 70
     0
  9
$DIMSOXD
 70
     0
  9
$DIMSAH
 70
     0
  9
$DIMBLK1
  1

  9
$DIMBLK2
  1

  9
$DIMSTYLE
  2
ISO-25
  9
$DIMCLRD
 70
     0
  9
$DIMCLRE
 70
     0
  9
$DIMCLRT
 70
     0
  9
$DIMTFAC
 40
1.0
  9
$DIMGAP
 40
0.625
  9
$LUNITS
 70
     2
  9
$LUPREC
 70
     4
  9
$SKETCHINC
 40
1.0
  9
$FILLETRAD
 40
10.0
  9
$AUNITS
 70
     0
  9
$AUPREC
 70
     0
  9
$MENU
  1
.
  9
$ELEVATION
 40
0.0
  9
$PELEVATION
 40
0.0
  9
$THICKNESS
 40
0.0
  9
$LIMCHECK
 70
     0
  9
$BLIPMODE
 70
     0
  9
$CHAMFERA
 40
10.0
  9
$CHAMFERB
 40
10.0
  9
$SKPOLY
 70
     0
  9
$TDCREATE
 40
2452048.5704485411
  9
$TDUPDATE
 40
2452048.5742686219
  9
$TDINDWG
 40
0.003820544
  9
$TDUSRTIMER
 40
0.0038204282
  9
$USRTIMER
 70
     1
  9
$ANGBASE
 50
0.0
  9
$ANGDIR
 70
     0
  9
$PDMODE
 70
     0
  9
$PDSIZE
 40
0.0
  9
$PLINEWID
 40
0.0
  9
$COORDS
 70
     1
  9
$SPLFRAME
 70
     0
  9
$SPLINETYPE
 70
     6
  9
$SPLINESEGS
 70
     8
  9
$ATTDIA
 70
     0
  9
$ATTREQ
 70
     1
  9
$HANDLING
 70
-16383
  9
$HANDSEED
  5
E7
  9
$SURFTAB1
 70
     6
  9
$SURFTAB2
 70
     6
  9
$SURFTYPE
 70
     6
  9
$SURFU
 70
     6
  9
$SURFV
 70
     6
  9
$UCSNAME
  2

  9
$UCSORG
 10
0.0
 20
0.0
 30
0.0
  9
$UCSXDIR
 10
1.0
 20
0.0
 30
0.0
  9
$UCSYDIR
 10
0.0
 20
1.0
 30
0.0
  9
$PUCSNAME
  2

  9
$PUCSORG
 10
0.0
 20
0.0
 30
0.0
  9
$PUCSXDIR
 10
1.0
 20
0.0
 30
0.0
  9
$PUCSYDIR
 10
0.0
 20
1.0
 30
0.0
  9
$USERI1
 70
     0
  9
$USERI2
 70
     0
  9
$USERI3
 70
     0
  9
$USERI4
 70
     0
  9
$USERI5
 70
     0
  9
$USERR1
 40
0.0
  9
$USERR2
 40
0.0
  9
$USERR3
 40
0.0
  9
$USERR4
 40
0.0
  9
$USERR5
 40
0.0
  9
$WORLDVIEW
 70
     1
  9
$SHADEDGE
 70
     3
  9
$SHADEDIF
 70
    70
  9
$TILEMODE
 70
     1
  9
$MAXACTVP
 70
    64
  9
$PLIMCHECK
 70
     0
  9
$PEXTMIN
 10
1.0000000000000000E+020
 20
1.0000000000000000E+020
 30
1.0000000000000000E+020
  9
$PEXTMAX
 10
-1.0000000000000000E+020
 20
-1.0000000000000000E+020
 30
-1.0000000000000000E+020
  9
$PLIMMIN
 10
0.0
 20
0.0
  9
$PLIMMAX
 10
420.0
 20
297.0
  9
$UNITMODE
 70
     0
  9
$VISRETAIN
 70
     1
  9
$PLINEGEN
 70
     0
  9
$PSLTSCALE
 70
     1
  0
ENDSEC
  0
SECTION
  2
TABLES
  0
TABLE
  2
VPORT
 70
     3
  0
VPORT
  2
*ACTIVE
 70
     0
 10
0.0
 20
0.0
 11
1.0
 21
1.0
 12
248.0294117647058
 22
148.5
 13
0.0
 23
0.0
 14
10.0
 24
10.0
 15
10.0
 25
10.0
 16
0.0
 26
0.0
 36
1.0
 17
0.0
 27
0.0
 37
0.0
 40
297.16172124539958
 41
1.670231729055258
 42
50.0
 43
0.0
 44
0.0
 50
0.0
 51
0.0
 71
     0
 72
   100
 73
     1
 74
     3
 75
     0
 76
     0
 77
     0
 78
     0
  0
ENDTAB
  0
TABLE
  2
LTYPE
 70
     1
  0
LTYPE
  2
CONTINUOUS
 70
     0
  3
Solid line
 72
    65
 73
     0
 40
0.0
  0
ENDTAB
  0
TABLE
  2
LAYER
 70
     2
  0
LAYER
  2
0
 70
     0
 62
     7
  6
CONTINUOUS
  0
LAYER
  2
1外形線
 70
     0
 62
     3
  6
CONTINUOUS
  0
ENDTAB
  0
TABLE
  2
STYLE
 70
     2
  0
STYLE
  2
STANDARD
 70
     0
 40
0.0
 41
1.0
 50
0.0
 71
     0
 42
2.5
  3
txt
  4

  0
STYLE
  2
KANJI
 70
     0
 40
0.0
 41
1.0
 50
0.0
 71
     0
 42
2.0
  3
simplex
  4
bigfont
  0
ENDTAB
  0
TABLE
  2
VIEW
 70
     0
  0
ENDTAB
  0
TABLE
  2
UCS
 70
     0
  0
ENDTAB
  0
TABLE
  2
APPID
 70
     1
  0
APPID
  2
ACAD
 70
     0
  0
ENDTAB
  0
TABLE
  2
DIMSTYLE
 70
     2
  0
DIMSTYLE
  2
ISO-25
 70
     0
  3

  4

  5

  6

  7

 40
1.0
 41
2.5
 42
0.625
 43
3.75
 44
1.25
 45
0.0
 46
0.0
 47
0.0
 48
0.0
140
2.5
141
2.5
142
0.0
143
0.03937007874016
144
1.0
145
0.0
146
1.0
147
0.625
 71
     0
 72
     0
 73
     0
 74
     0
 75
     0
 76
     0
 77
     1
 78
     8
170
     0
171
     3
172
     1
173
     0
174
     0
175
     0
176
     0
177
     0
178
     0
  0
DIMSTYLE
  2
STANDARD
 70
     0
  3

  4

  5

  6
1
  7
1
 40
1.0
 41
1.0
 42
1.0
 43
6.0
 44
1.0
 45
0.0
 46
0.0
 47
0.0
 48
0.0
140
2.5
141
0.0
142
0.0
143
25.399999999999999
144
1.0
145
0.0
146
1.0
147
0.5
 71
     0
 72
     0
 73
     0
 74
     0
 75
     0
 76
     0
 77
     1
 78
     8
170
     0
171
     2
172
     1
173
     1
174
     0
175
     0
176
     0
177
     0
178
     0
  0
ENDTAB
  0
ENDSEC
  0
SECTION
  2
BLOCKS
  0
BLOCK
  8
0
  2
$MODEL_SPACE
 70
     0
 10
0.0
 20
0.0
 30
0.0
  3
$MODEL_SPACE
  1

  0
ENDBLK
  5
21
  8
0
  0
BLOCK
 67
     1
  8
0
  2
$PAPER_SPACE
 70
     0
 10
0.0
 20
0.0
 30
0.0
  3
$PAPER_SPACE
  1

  0
ENDBLK
  5
1D
 67
     1
  8
0
  0
BLOCK
  8
0
  2
1
 70
     0
 10
0.0
 20
0.0
 30
0.0
  3
1
  1

  0
SOLID
  5
2C
  8
0
  6
BYBLOCK
 62
     0
 10
-1.811110924292052
 20
0.4852857095671653
 30
0.0
 11
-1.811110924292052
 21
-0.4852857095673642
 31
0.0
 12
0.0
 22
0.0
 32
0.0
 13
0.0
 23
0.0
 33
0.0
  0
ENDBLK
  5
2E
  8
0
  0
ENDSEC
  0
SECTION
  2
ENTITIES
  0
LINE
  5
86
  8
1外形線
 10
48.389533080244121
 20
61.038256595326402
 30
0.0
 11
168.38261416803769
 21
61.038256595326402
 31
0.0
  0
LINE
  5
87
  8
1外形線
 10
48.389533080244178
 20
66.038256595326402
 30
0.0
 11
168.38261416803769
 21
66.038256595326402
 31
0.0
  0
LINE
  5
88
  8
1外形線
 10
48.389533080244178
 20
66.038256595326402
 30
0.0
 11
48.389533080244121
 21
61.038256595326402
 31
0.0
  0
LINE
  5
89
  8
1外形線
 10
217.20644325732809
 20
68.038256595326288
 30
0.0
 11
216.70644325732809
 21
67.538256595326288
 31
0.0
  0
LINE
  5
8A
  8
1外形線
 10
270.30644325732737
 20
61.038256595326288
 30
0.0
 11
200.3064432573274
 21
61.038256595326402
 31
0.0
  0
LINE
  5
8B
  8
1外形線
 10
270.30644325732737
 20
66.038256595326231
 30
0.0
 11
200.30644325732729
 21
66.038256595326288
 31
0.0
  0
ARC
  5
8C
  8
1外形線
 10
151.08953308024411
 20
67.038256595326402
 30
0.0
 40
1.0
 50
0.0
 51
90.0
  0
LINE
  5
8D
  8
1外形線
 10
131.1620014617192
 20
66.038256595326402
 30
0.0
 11
131.1620014617192
 21
61.038256595326402
 31
0.0
  0
LINE
  5
8E
  8
1外形線
 10
137.6895330802441
 20
68.038256595326402
 30
0.0
 11
151.08953308024411
 21
68.038256595326402
 31
0.0
  0
ARC
  5
8F
  8
1外形線
 10
137.6895330802441
 20
67.038256595326402
 30
0.0
 40
1.0
 50
90.0
 51
180.0
  0
LINE
  5
90
  8
1外形線
 10
136.6895330802441
 20
67.038256595326402
 30
0.0
 11
136.6895330802441
 21
66.038256595326402
 31
0.0
  0
LINE
  5
91
  8
1外形線
 10
158.38953308024409
 20
66.03825659532643
 30
0.0
 11
158.38953308024409
 21
61.038256595326402
 31
0.0
  0
LINE
  5
92
  8
1外形線
 10
168.38261416803769
 20
66.038256595326402
 30
0.0
 11
168.38261416803769
 21
61.038256595326402
 31
0.0
  0
LINE
  5
93
  8
1外形線
 10
152.08953308024411
 20
67.038256595326402
 30
0.0
 11
152.08953308024411
 21
66.038256595326402
 31
0.0
  0
LINE
  5
94
  8
1外形線
 10
200.3064432573274
 20
61.038256595326402
 30
0.0
 11
200.30644325732729
 21
66.038256595326288
 31
0.0
  0
LINE
  5
95
  8
1外形線
 10
216.00644325732679
 20
66.038256595326288
 30
0.0
 11
216.00644325732679
 21
61.038256595326352
 31
0.0
  0
LINE
  5
96
  8
1外形線
 10
214.00644325732841
 20
66.038256595326345
 30
0.0
 11
214.00644325732841
 21
61.038256595326352
 31
0.0
  0
LINE
  5
97
  8
1外形線
 10
216.70644325732809
 20
67.538256595326288
 30
0.0
 11
216.706443257328
 21
66.038256595326288
 31
0.0
  0
LINE
  5
98
  8
1外形線
 10
217.20644325732809
 20
68.038256595326288
 30
0.0
 11
217.90644325732811
 21
68.038256595326288
 31
0.0
  0
LINE
  5
99
  8
1外形線
 10
217.90644325732799
 20
68.038256595326231
 30
0.0
 11
217.90644325732799
 21
66.038256595326288
 31
0.0
  0
LINE
  5
9A
  8
1外形線
 10
254.60644325732881
 20
66.038256595326288
 30
0.0
 11
254.60644325732881
 21
61.038256595326352
 31
0.0
  0
LINE
  5
9B
  8
1外形線
 10
256.60644325732733
 20
66.038256595326345
 30
0.0
 11
256.60644325732733
 21
61.038256595326352
 31
0.0
  0
LINE
  5
9C
  8
1外形線
 10
252.70644325732761
 20
68.038256595326231
 30
0.0
 11
252.70644325732761
 21
66.038256595326288
 31
0.0
  0
LINE
  5
9D
  8
1外形線
 10
253.4064432573276
 20
68.038256595326288
 30
0.0
 11
252.70644325732749
 21
68.038256595326288
 31
0.0
  0
LINE
  5
9E
  8
1外形線
 10
253.9064432573276
 20
67.538256595326288
 30
0.0
 11
253.9064432573276
 21
66.038256595326288
 31
0.0
  0
LINE
  5
9F
  8
1外形線
 10
253.4064432573276
 20
68.038256595326288
 30
0.0
 11
253.9064432573276
 21
67.538256595326288
 31
0.0
  0
LINE
  5
A0
  8
1外形線
 10
270.30644325732737
 20
61.038256595326231
 30
0.0
 11
270.30644325732737
 21
66.038256595326231
 31
0.0
  0
LINE
  5
A1
  8
1外形線
 10
143.88953308024469
 20
134.26073555792709
 30
0.0
 11
121.4895330802446
 21
134.26073555792709
 31
0.0
  0
LINE
  5
A2
  8
1外形線
 10
143.88953308024469
 20
129.26073555792709
 30
0.0
 11
121.4895330802446
 21
129.26073555792709
 31
0.0
  0
ARC
  5
A3
  8
1外形線
 10
103.38953308024411
 20
131.76073555792669
 30
0.0
 40
35.0
 50
37.486279476455998
 51
90.0
  0
ARC
  5
A4
  8
1外形線
 10
103.38953308024411
 20
131.76073555792669
 30
0.0
 40
35.0
 50
270.0
 51
322.51372052354571
  0
LINE
  5
A5
  8
1外形線
 10
108.3895330802447
 20
155.76073555792669
 30
0.0
 11
108.3895330802447
 21
107.76073555792679
 31
0.0
  0
ARC
  5
A6
  8
1外形線
 10
83.389533080244178
 20
131.76073555792669
 30
0.0
 40
35.0
 50
90.0
 51
270.0
  0
ARC
  5
A7
  8
1外形線
 10
83.389533080244178
 20
131.76073555792669
 30
0.0
 40
25.0
 50
90.0
 51
167.62637488381091
  0
LINE
  5
A8
  8
1外形線
 10
103.38953308024411
 20
96.760735557926765
 30
0.0
 11
83.389533080244405
 21
96.760735557926637
 31
0.0
  0
LINE
  5
A9
  8
1外形線
 10
107.3895330802447
 20
106.76073555792691
 30
0.0
 11
83.389533080244291
 21
106.76073555792659
 31
0.0
  0
ARC
  5
AA
  8
1外形線
 10
83.389533080244178
 20
131.76073555792669
 30
0.0
 40
25.0
 50
192.3736251161873
 51
270.0
  0
ARC
  5
AB
  8
1外形線
 10
55.389533080244171
 20
131.76073555792669
 30
0.0
 40
3.0
 50
90.0
 51
270.0
  0
ARC
  5
AC
  8
1外形線
 10
56.03994441788938
 20
125.76073555792711
 30
0.0
 40
3.0
 50
12.37362511618735
 51
90.0
  0
LINE
  5
AD
  8
1外形線
 10
56.03994441788938
 20
128.76073555792709
 30
0.0
 11
55.389533080244227
 21
128.76073555792709
 31
0.0
  0
ARC
  5
AE
  8
1外形線
 10
56.039944417889551
 20
137.76073555792701
 30
0.0
 40
3.0
 50
270.0
 51
347.62637488381091
  0
LINE
  5
AF
  8
1外形線
 10
56.039944417889551
 20
134.76073555792701
 30
0.0
 11
55.389533080244171
 21
134.76073555792709
 31
0.0
  0
ARC
  5
B0
  8
1外形線
 10
107.3895330802447
 20
107.76073555792679
 30
0.0
 40
1.0
 50
270.0000000000004
 51
0.0
  0
LINE
  5
B1
  8
1外形線
 10
119.0400433374617
 20
132.26073555792809
 30
0.0
 11
109.8895330802461
 21
132.2607355579284
 31
0.0
  0
LINE
  5
B2
  8
1外形線
 10
119.0400433374614
 20
131.26073555792721
 30
0.0
 11
109.8895330802461
 21
131.26073555792721
 31
0.0
  0
ARC
  5
B3
  8
1外形線
 10
109.8895330802461
 20
131.76073555792669
 30
0.0
 40
0.5000000000013644
 50
90.0
 51
270.0
  0
ARC
  5
B4
  8
1外形線
 10
121.4895330802446
 20
131.76073555792709
 30
0.0
 40
2.4999999999999991
 50
90.0
 51
270.0
  0
LINE
  5
B5
  8
1外形線
 10
103.38953308024411
 20
166.76073555792669
 30
0.0
 11
83.389533080244178
 21
166.76073555792669
 31
0.0
  0
LINE
  5
B6
  8
1外形線
 10
107.3895330802447
 20
156.7607355579274
 30
0.0
 11
83.389533080244291
 21
156.76073555792749
 31
0.0
  0
ARC
  5
B7
  8
1外形線
 10
107.3895330802447
 20
155.76073555792669
 30
0.0
 40
1.0
 50
0.0
 51
90.0
  0
LINE
  5
B8
  8
1外形線
 10
160.3895330802446
 20
150.06073555792821
 30
0.0
 11
160.3895330802446
 21
113.460735557926
 31
0.0
  0
CIRCLE
  5
B9
  8
1外形線
 10
153.38953308024469
 20
131.76073555792709
 30
0.0
 40
5.0
  0
CIRCLE
  5
BA
  8
1外形線
 10
153.38953308024469
 20
131.76073555792709
 30
0.0
 40
3.6000000000000001
  0
LINE
  5
BB
  8
1外形線
 10
156.89326444661799
 20
110.46073555792751
 30
0.0
 11
131.1620014617192
 21
110.46073555792751
 31
0.0
  0
LINE
  5
BC
  8
1外形線
 10
152.08953308024419
 20
113.1607355579271
 30
0.0
 11
136.68953308024399
 21
113.1607355579271
 31
0.0
  0
LINE
  5
BD
  8
1外形線
 10
152.08953308024419
 20
114.3607355579271
 30
0.0
 11
136.68953308024399
 21
114.3607355579271
 31
0.0
  0
LINE
  5
BE
  8
1外形線
 10
136.68953308024399
 20
113.1607355579271
 30
0.0
 11
136.6895330802441
 21
114.3607355579271
 31
0.0
  0
ARC
  5
BF
  8
1外形線
 10
143.88953308024469
 20
131.76073555792709
 30
0.0
 40
2.5
 50
270.0
 51
90.0
  0
LINE
  5
C0
  8
1外形線
 10
148.4145958947116
 20
132.26073555792729
 30
0.0
 11
146.3390228230279
 21
132.26073555792729
 31
0.0
  0
LINE
  5
C1
  8
1外形線
 10
148.4145958947116
 20
131.26073555792721
 30
0.0
 11
146.3390228230279
 21
131.26073555792709
 31
0.0
  0
LINE
  5
C2
  8
1外形線
 10
161.3895330802446
 20
112.460735557926
 30
0.0
 11
168.1826141680377
 21
112.460735557926
 31
0.0
  0
LINE
  5
C3
  8
1外形線
 10
159.87837601724851
 20
110.609619851628
 30
0.0
 11
167.48903679926551
 21
111.3706859298297
 31
0.0
  0
LINE
  5
C4
  8
1外形線
 10
152.08953308024411
 20
113.1607355579271
 30
0.0
 11
152.08953308024411
 21
114.3607355579271
 31
0.0
  0
ARC
  5
C5
  8
1外形線
 10
156.89326444661799
 20
140.46073555792751
 30
0.0
 40
30.0
 50
270.0
 51
275.71059313750101
  0
ARC
  5
C6
  8
1外形線
 10
161.3895330802446
 20
113.460735557926
 30
0.0
 40
1.0
 50
180.0
 51
270.0
  0
ARC
  5
C7
  8
1外形線
 10
167.38953308024441
 20
112.3657231200398
 30
0.0
 40
1.0
 50
275.71059313750061
 51
352.45906757260411
  0
ARC
  5
C8
  8
1外形線
 10
168.1826141680377
 20
112.260735557926
 30
0.0
 40
0.2
 50
352.45906757260411
 51
90.0
  0
CIRCLE
  5
C9
  8
1外形線
 10
153.38953308024469
 20
131.76073555792709
 30
0.0
 40
2.1000000000000001
  0
LINE
  5
CA
  8
1外形線
 10
152.08953308024419
 20
149.1607355579271
 30
0.0
 11
136.68953308024399
 21
149.1607355579271
 31
0.0
  0
LINE
  5
CB
  8
1外形線
 10
156.8932644466164
 20
153.06073555792659
 30
0.0
 11
131.1620014617186
 21
153.06073555792659
 31
0.0
  0
LINE
  5
CC
  8
1外形線
 10
152.08953308024419
 20
150.36073555792709
 30
0.0
 11
136.68953308024399
 21
150.36073555792709
 31
0.0
  0
LINE
  5
CD
  8
1外形線
 10
136.68953308024399
 20
150.36073555792709
 30
0.0
 11
136.6895330802441
 21
149.1607355579271
 31
0.0
  0
LINE
  5
CE
  8
1外形線
 10
161.3895330802448
 20
151.06073555792821
 30
0.0
 11
168.1826141680377
 21
151.06073555792821
 31
0.0
  0
LINE
  5
CF
  8
1外形線
 10
159.87837601724689
 20
152.9118512642263
 30
0.0
 11
167.48903679926551
 21
152.15078518602439
 31
0.0
  0
LINE
  5
D0
  8
1外形線
 10
152.08953308024411
 20
150.36073555792709
 30
0.0
 11
152.08953308024411
 21
149.1607355579271
 31
0.0
  0
ARC
  5
D1
  8
1外形線
 10
161.3895330802448
 20
150.06073555792821
 30
0.0
 40
1.0
 50
90.0
 51
180.0
  0
ARC
  5
D2
  8
1外形線
 10
156.8932644466164
 20
123.06073555792661
 30
0.0
 40
30.0
 50
84.289406862498979
 51
90.0
  0
ARC
  5
D3
  8
1外形線
 10
167.38953308024441
 20
151.15574799581429
 30
0.0
 40
1.0
 50
7.5409324273958473
 51
84.289406862498979
  0
ARC
  5
D4
  8
1外形線
 10
168.1826141680377
 20
151.26073555792809
 30
0.0
 40
0.2
 50
270.0
 51
7.5409324273958473
  0
ENDSEC
  0
EOF
