  0
SECTION
  2
HEADER
  9
$ACADVER
  1
AC1009
  9
$INSBASE
 10
0.0
 20
0.0
 30
0.0
  9
$EXTMIN
 10
41.514517138893893
 20
35.671707799050857
 30
0.0
  9
$EXTMAX
 10
273.6762560405482
 20
142.16964215705841
 30
0.0
  9
$LIMMIN
 10
0.0
 20
0.0
  9
$LIMMAX
 10
420.0
 20
297.0
  9
$ORTHOMODE
 70
     0
  9
$REGENMODE
 70
     1
  9
$FILLMODE
 70
     1
  9
$QTEXTMODE
 70
     0
  9
$MIRRTEXT
 70
     1
  9
$DRAGMODE
 70
     2
  9
$LTSCALE
 40
1.0
  9
$OSMODE
 70
    37
  9
$ATTMODE
 70
     1
  9
$TEXTSIZE
 40
2.5
  9
$TRACEWID
 40
1.0
  9
$TEXTSTYLE
  7
STANDARD
  9
$CLAYER
  8
0
  9
$CELTYPE
  6
BYLAYER
  9
$CECOLOR
 62
   256
  9
$DIMSCALE
 40
1.0
  9
$DIMASZ
 40
2.5
  9
$DIMEXO
 40
0.625
  9
$DIMDLI
 40
3.75
  9
$DIMRND
 40
0.0
  9
$DIMDLE
 40
0.0
  9
$DIMEXE
 40
1.25
  9
$DIMTP
 40
0.0
  9
$DIMTM
 40
0.0
  9
$DIMTXT
 40
2.5
  9
$DIMCEN
 40
2.5
  9
$DIMTSZ
 40
0.0
  9
$DIMTOL
 70
     0
  9
$DIMLIM
 70
     0
  9
$DIMTIH
 70
     0
  9
$DIMTOH
 70
     0
  9
$DIMSE1
 70
     0
  9
$DIMSE2
 70
     0
  9
$DIMTAD
 70
     1
  9
$DIMZIN
 70
     8
  9
$DIMBLK
  1

  9
$DIMASO
 70
     1
  9
$DIMSHO
 70
     1
  9
$DIMPOST
  1

  9
$DIMAPOST
  1

  9
$DIMALT
 70
     0
  9
$DIMALTD
 70
     3
  9
$DIMALTF
 40
0.03937007874016
  9
$DIMLFAC
 40
1.0
  9
$DIMTOFL
 70
     1
  9
$DIMTVP
 40
0.0
  9
$DIMTIX
 70
     0
  9
$DIMSOXD
 70
     0
  9
$DIMSAH
 70
     0
  9
$DIMBLK1
  1

  9
$DIMBLK2
  1

  9
$DIMSTYLE
  2
ISO-25
  9
$DIMCLRD
 70
     0
  9
$DIMCLRE
 70
     0
  9
$DIMCLRT
 70
     0
  9
$DIMTFAC
 40
1.0
  9
$DIMGAP
 40
0.625
  9
$LUNITS
 70
     2
  9
$LUPREC
 70
     4
  9
$SKETCHINC
 40
1.0
  9
$FILLETRAD
 40
10.0
  9
$AUNITS
 70
     0
  9
$AUPREC
 70
     0
  9
$MENU
  1
.
  9
$ELEVATION
 40
0.0
  9
$PELEVATION
 40
0.0
  9
$THICKNESS
 40
0.0
  9
$LIMCHECK
 70
     0
  9
$BLIPMODE
 70
     0
  9
$CHAMFERA
 40
10.0
  9
$CHAMFERB
 40
10.0
  9
$SKPOLY
 70
     0
  9
$TDCREATE
 40
2452048.5705350111
  9
$TDUPDATE
 40
2452048.5709821749
  9
$TDINDWG
 40
0.0004476273
  9
$TDUSRTIMER
 40
0.0004475116
  9
$USRTIMER
 70
     1
  9
$ANGBASE
 50
0.0
  9
$ANGDIR
 70
     0
  9
$PDMODE
 70
     0
  9
$PDSIZE
 40
0.0
  9
$PLINEWID
 40
0.0
  9
$COORDS
 70
     1
  9
$SPLFRAME
 70
     0
  9
$SPLINETYPE
 70
     6
  9
$SPLINESEGS
 70
     8
  9
$ATTDIA
 70
     0
  9
$ATTREQ
 70
     1
  9
$HANDLING
 70
-16383
  9
$HANDSEED
  5
E0
  9
$SURFTAB1
 70
     6
  9
$SURFTAB2
 70
     6
  9
$SURFTYPE
 70
     6
  9
$SURFU
 70
     6
  9
$SURFV
 70
     6
  9
$UCSNAME
  2

  9
$UCSORG
 10
0.0
 20
0.0
 30
0.0
  9
$UCSXDIR
 10
1.0
 20
0.0
 30
0.0
  9
$UCSYDIR
 10
0.0
 20
1.0
 30
0.0
  9
$PUCSNAME
  2

  9
$PUCSORG
 10
0.0
 20
0.0
 30
0.0
  9
$PUCSXDIR
 10
1.0
 20
0.0
 30
0.0
  9
$PUCSYDIR
 10
0.0
 20
1.0
 30
0.0
  9
$USERI1
 70
     0
  9
$USERI2
 70
     0
  9
$USERI3
 70
     0
  9
$USERI4
 70
     0
  9
$USERI5
 70
     0
  9
$USERR1
 40
0.0
  9
$USERR2
 40
0.0
  9
$USERR3
 40
0.0
  9
$USERR4
 40
0.0
  9
$USERR5
 40
0.0
  9
$WORLDVIEW
 70
     1
  9
$SHADEDGE
 70
     3
  9
$SHADEDIF
 70
    70
  9
$TILEMODE
 70
     1
  9
$MAXACTVP
 70
    64
  9
$PLIMCHECK
 70
     0
  9
$PEXTMIN
 10
1.0000000000000000E+020
 20
1.0000000000000000E+020
 30
1.0000000000000000E+020
  9
$PEXTMAX
 10
-1.0000000000000000E+020
 20
-1.0000000000000000E+020
 30
-1.0000000000000000E+020
  9
$PLIMMIN
 10
0.0
 20
0.0
  9
$PLIMMAX
 10
420.0
 20
297.0
  9
$UNITMODE
 70
     0
  9
$VISRETAIN
 70
     1
  9
$PLINEGEN
 70
     0
  9
$PSLTSCALE
 70
     1
  0
ENDSEC
  0
SECTION
  2
TABLES
  0
TABLE
  2
VPORT
 70
     3
  0
VPORT
  2
*ACTIVE
 70
     0
 10
0.0
 20
0.0
 11
1.0
 21
1.0
 12
248.0294117647058
 22
148.5
 13
0.0
 23
0.0
 14
10.0
 24
10.0
 15
10.0
 25
10.0
 16
0.0
 26
0.0
 36
1.0
 17
0.0
 27
0.0
 37
0.0
 40
297.0
 41
1.670231729055258
 42
50.0
 43
0.0
 44
0.0
 50
0.0
 51
0.0
 71
     0
 72
   100
 73
     1
 74
     3
 75
     0
 76
     0
 77
     0
 78
     0
  0
ENDTAB
  0
TABLE
  2
LTYPE
 70
     1
  0
LTYPE
  2
CONTINUOUS
 70
     0
  3
Solid line
 72
    65
 73
     0
 40
0.0
  0
ENDTAB
  0
TABLE
  2
LAYER
 70
     2
  0
LAYER
  2
0
 70
     0
 62
     7
  6
CONTINUOUS
  0
LAYER
  2
1外形線
 70
     0
 62
     3
  6
CONTINUOUS
  0
ENDTAB
  0
TABLE
  2
STYLE
 70
     2
  0
STYLE
  2
STANDARD
 70
     0
 40
0.0
 41
1.0
 50
0.0
 71
     0
 42
2.5
  3
txt
  4

  0
STYLE
  2
KANJI
 70
     0
 40
0.0
 41
1.0
 50
0.0
 71
     0
 42
2.0
  3
simplex
  4
bigfont
  0
ENDTAB
  0
TABLE
  2
VIEW
 70
     0
  0
ENDTAB
  0
TABLE
  2
UCS
 70
     0
  0
ENDTAB
  0
TABLE
  2
APPID
 70
     1
  0
APPID
  2
ACAD
 70
     0
  0
ENDTAB
  0
TABLE
  2
DIMSTYLE
 70
     2
  0
DIMSTYLE
  2
ISO-25
 70
     0
  3

  4

  5

  6

  7

 40
1.0
 41
2.5
 42
0.625
 43
3.75
 44
1.25
 45
0.0
 46
0.0
 47
0.0
 48
0.0
140
2.5
141
2.5
142
0.0
143
0.03937007874016
144
1.0
145
0.0
146
1.0
147
0.625
 71
     0
 72
     0
 73
     0
 74
     0
 75
     0
 76
     0
 77
     1
 78
     8
170
     0
171
     3
172
     1
173
     0
174
     0
175
     0
176
     0
177
     0
178
     0
  0
DIMSTYLE
  2
STANDARD
 70
     0
  3

  4

  5

  6
1
  7
1
 40
1.0
 41
1.0
 42
1.0
 43
6.0
 44
1.0
 45
0.0
 46
0.0
 47
0.0
 48
0.0
140
2.5
141
0.0
142
0.0
143
25.399999999999999
144
1.0
145
0.0
146
1.0
147
0.5
 71
     0
 72
     0
 73
     0
 74
     0
 75
     0
 76
     0
 77
     1
 78
     8
170
     0
171
     2
172
     1
173
     1
174
     0
175
     0
176
     0
177
     0
178
     0
  0
ENDTAB
  0
ENDSEC
  0
SECTION
  2
BLOCKS
  0
BLOCK
  8
0
  2
$MODEL_SPACE
 70
     0
 10
0.0
 20
0.0
 30
0.0
  3
$MODEL_SPACE
  1

  0
ENDBLK
  5
21
  8
0
  0
BLOCK
 67
     1
  8
0
  2
$PAPER_SPACE
 70
     0
 10
0.0
 20
0.0
 30
0.0
  3
$PAPER_SPACE
  1

  0
ENDBLK
  5
1D
 67
     1
  8
0
  0
BLOCK
  8
0
  2
1
 70
     0
 10
0.0
 20
0.0
 30
0.0
  3
1
  1

  0
SOLID
  5
2C
  8
0
  6
BYBLOCK
 62
     0
 10
-1.811110924292052
 20
0.4852857095671653
 30
0.0
 11
-1.811110924292052
 21
-0.4852857095673642
 31
0.0
 12
0.0
 22
0.0
 32
0.0
 13
0.0
 23
0.0
 33
0.0
  0
ENDBLK
  5
2E
  8
0
  0
ENDSEC
  0
SECTION
  2
ENTITIES
  0
ARC
  5
88
  8
1外形線
 10
129.61451713889599
 20
98.480925267205293
 30
0.0
 40
2.4999999999999991
 50
90.0
 51
270.0
  0
ARC
  5
89
  8
1外形線
 10
102.51451713889389
 20
98.480925267205635
 30
0.0
 40
40.0
 50
37.589502964856393
 51
90.0
  0
LINE
  5
8A
  8
1外形線
 10
41.514517138893893
 20
40.671707799050921
 30
0.0
 11
176.5145171388944
 21
40.671707799050857
 31
0.0
  0
LINE
  5
8B
  8
1外形線
 10
41.514517138893893
 20
35.671707799050857
 30
0.0
 11
176.5145171388944
 21
35.671707799050857
 31
0.0
  0
ARC
  5
8C
  8
1外形線
 10
102.51451713889389
 20
98.480925267205635
 30
0.0
 40
40.0
 50
270.0
 51
322.41049703514147
  0
LINE
  5
8D
  8
1外形線
 10
111.5145171388944
 20
127.48092526720561
 30
0.0
 11
111.5145171388944
 21
69.480925267205635
 31
0.0
  0
ARC
  5
8E
  8
1外形線
 10
81.514517138893893
 20
98.480925267205635
 30
0.0
 40
40.0
 50
90.0
 51
270.0
  0
ARC
  5
8F
  8
1外形線
 10
81.514517138893893
 20
98.480925267205635
 30
0.0
 40
30.0
 50
190.4756816963889
 51
270.0
  0
LINE
  5
90
  8
1外形線
 10
81.514517138893893
 20
68.480925267205635
 30
0.0
 11
110.5145171388944
 21
68.480925267205635
 31
0.0
  0
LINE
  5
91
  8
1外形線
 10
81.514517138893893
 20
58.480925267205627
 30
0.0
 11
102.51451713889389
 21
58.480925267205627
 31
0.0
  0
LINE
  5
92
  8
1外形線
 10
41.514517138893893
 20
40.671707799050921
 30
0.0
 11
41.514517138893893
 21
35.671707799050857
 31
0.0
  0
ARC
  5
93
  8
1外形線
 10
110.5145171388944
 20
69.480925267205635
 30
0.0
 40
1.0
 50
270.0
 51
0.0
  0
LINE
  5
94
  8
1外形線
 10
110.5145171388944
 20
128.48092526720561
 30
0.0
 11
81.514517138893893
 21
128.48092526720561
 31
0.0
  0
LINE
  5
95
  8
1外形線
 10
102.51451713889389
 20
138.48092526720561
 30
0.0
 11
81.514517138893893
 21
138.48092526720561
 31
0.0
  0
ARC
  5
96
  8
1外形線
 10
81.514517138893893
 20
98.480925267205635
 30
0.0
 40
30.0
 50
90.0
 51
169.52431830360931
  0
ARC
  5
97
  8
1外形線
 10
48.514517138893893
 20
98.480925267205635
 30
0.0
 40
3.0
 50
90.0
 51
270.0
  0
ARC
  5
98
  8
1外形線
 10
49.064555659717939
 20
92.480925267206018
 30
0.0
 40
3.0
 50
10.475681696389341
 51
90.0
  0
LINE
  5
99
  8
1外形線
 10
49.064555659717939
 20
95.480925267206032
 30
0.0
 11
48.51451713889395
 21
95.480925267206032
 31
0.0
  0
ARC
  5
9A
  8
1外形線
 10
49.064555659718053
 20
104.4809252672059
 30
0.0
 40
3.0
 50
269.99999999999631
 51
349.52431830360968
  0
LINE
  5
9B
  8
1外形線
 10
49.064555659717819
 20
101.4809252672059
 30
0.0
 11
48.514517138893893
 21
101.480925267206
 31
0.0
  0
ARC
  5
9C
  8
1外形線
 10
113.0145171388958
 20
98.480925267204896
 30
0.0
 40
0.5000000000013644
 50
90.0
 51
270.0
  0
LINE
  5
9D
  8
1外形線
 10
127.16502739611271
 20
97.980925267205635
 30
0.0
 11
113.0145171388958
 21
97.980925267205635
 31
0.0
  0
LINE
  5
9E
  8
1外形線
 10
127.16502739611281
 20
98.980925267205464
 30
0.0
 11
113.0145171388958
 21
98.980925267205464
 31
0.0
  0
ARC
  5
9F
  8
1外形線
 10
110.5145171388944
 20
127.48092526720561
 30
0.0
 40
1.0
 50
0.0
 51
90.0
  0
LINE
  5
A0
  8
1外形線
 10
168.51451713889469
 20
119.680925267205
 30
0.0
 11
168.51451713889489
 21
77.280925267205419
 31
0.0
  0
LINE
  5
A1
  8
1外形線
 10
273.6762560405482
 20
35.671707799050857
 30
0.0
 11
193.6762560405482
 21
35.671707799050857
 31
0.0
  0
LINE
  5
A2
  8
1外形線
 10
273.6762560405482
 20
40.671707799050857
 30
0.0
 11
193.6762560405482
 21
40.671707799050857
 31
0.0
  0
LINE
  5
A3
  8
1外形線
 10
168.0033600758957
 20
74.229809560905494
 30
0.0
 11
175.61402085791349
 21
74.990875639107514
 31
0.0
  0
LINE
  5
A4
  8
1外形線
 10
169.5145171388948
 20
76.280925267205419
 30
0.0
 11
176.31451713889479
 21
76.280925267204964
 31
0.0
  0
LINE
  5
A5
  8
1外形線
 10
140.81451713889379
 20
42.671707799050971
 30
0.0
 11
159.2145171388938
 21
42.671707799050857
 31
0.0
  0
LINE
  5
A6
  8
1外形線
 10
134.2105736759452
 20
40.671707799050878
 30
0.0
 11
134.2105736759452
 21
35.671707799050857
 31
0.0
  0
LINE
  5
A7
  8
1外形線
 10
139.8145171388939
 20
41.671707799050921
 30
0.0
 11
139.8145171388939
 21
40.671707799050857
 31
0.0
  0
ARC
  5
A8
  8
1外形線
 10
140.81451713889379
 20
41.671707799050921
 30
0.0
 40
1.0
 50
90.0
 51
180.0
  0
LINE
  5
A9
  8
1外形線
 10
166.51451713889301
 20
40.671707799050857
 30
0.0
 11
166.51451713889301
 21
35.671707799050857
 31
0.0
  0
LINE
  5
AA
  8
1外形線
 10
160.2145171388938
 20
41.671707799050857
 30
0.0
 11
160.2145171388938
 21
40.671707799050857
 31
0.0
  0
ARC
  5
AB
  8
1外形線
 10
159.2145171388938
 20
41.671707799050857
 30
0.0
 40
1.0
 50
0.0
 51
90.0
  0
LINE
  5
AC
  8
1外形線
 10
165.01824850526529
 20
74.080925267205146
 30
0.0
 11
134.2105736759452
 21
74.080925267204691
 31
0.0
  0
LINE
  5
AD
  8
1外形線
 10
160.21451713889391
 20
76.880925267205328
 30
0.0
 11
139.8145171388939
 21
76.880925267204304
 31
0.0
  0
LINE
  5
AE
  8
1外形線
 10
160.2145171388938
 20
78.080925267205316
 30
0.0
 11
139.8145171388939
 21
78.080925267204293
 31
0.0
  0
LINE
  5
AF
  8
1外形線
 10
139.8145171388939
 20
78.080925267204293
 30
0.0
 11
139.8145171388939
 21
76.880925267204361
 31
0.0
  0
LINE
  5
B0
  8
1外形線
 10
160.2145171388938
 20
78.080925267205316
 30
0.0
 11
160.2145171388938
 21
76.880925267205328
 31
0.0
  0
ARC
  5
B1
  8
1外形線
 10
165.01824850526501
 20
104.0809252672051
 30
0.0
 40
30.0
 50
270.0000000000004
 51
275.71059313750101
  0
ARC
  5
B2
  8
1外形線
 10
169.51451713889489
 20
77.280925267205419
 30
0.0
 40
1.0
 50
180.0
 51
269.9999999999967
  0
LINE
  5
B3
  8
1外形線
 10
193.6762560405482
 20
40.671707799050857
 30
0.0
 11
193.6762560405482
 21
35.671707799050857
 31
0.0
  0
LINE
  5
B4
  8
1外形線
 10
176.5145171388948
 20
40.671707799050857
 30
0.0
 11
176.5145171388948
 21
35.671707799050857
 31
0.0
  0
LINE
  5
B5
  8
1外形線
 10
211.47625604054809
 20
40.6717077990508
 30
0.0
 11
211.47625604054829
 21
35.671707799050857
 31
0.0
  0
LINE
  5
B6
  8
1外形線
 10
209.27625604054739
 20
35.671707799050857
 30
0.0
 11
209.27625604054739
 21
40.6717077990508
 31
0.0
  0
LINE
  5
B7
  8
1外形線
 10
213.27625604054811
 20
42.671707799050807
 30
0.0
 11
213.27625604054811
 21
40.671707799050857
 31
0.0
  0
LINE
  5
B8
  8
1外形線
 10
212.57625604054809
 20
42.671707799050857
 30
0.0
 11
212.076256040548
 21
42.171707799050857
 31
0.0
  0
LINE
  5
B9
  8
1外形線
 10
212.076256040548
 20
42.171707799050857
 30
0.0
 11
212.076256040548
 21
40.671707799050857
 31
0.0
  0
LINE
  5
BA
  8
1外形線
 10
212.57625604054809
 20
42.671707799050857
 30
0.0
 11
213.27625604054819
 21
42.671707799050857
 31
0.0
  0
ARC
  5
BB
  8
1外形線
 10
175.51451713889239
 20
75.985912829317556
 30
0.0
 40
1.0
 50
275.71059313750061
 51
0.0
  0
ARC
  5
BC
  8
1外形線
 10
176.31451713889479
 20
76.080925267204918
 30
0.0
 40
0.2
 50
359.99999999998329
 51
89.999999999996334
  0
LINE
  5
BD
  8
1外形線
 10
176.5145171388948
 20
76.080925267204918
 30
0.0
 11
176.5145171388948
 21
75.985912829317101
 31
0.0
  0
LINE
  5
BE
  8
1外形線
 10
258.076256040548
 20
35.671707799050857
 30
0.0
 11
258.076256040548
 21
40.6717077990508
 31
0.0
  0
LINE
  5
BF
  8
1外形線
 10
255.8762560405473
 20
40.6717077990508
 30
0.0
 11
255.8762560405471
 21
35.671707799050857
 31
0.0
  0
LINE
  5
C0
  8
1外形線
 10
254.77625604054819
 20
42.671707799050857
 30
0.0
 11
254.07625604054809
 21
42.671707799050857
 31
0.0
  0
LINE
  5
C1
  8
1外形線
 10
254.0762560405482
 20
42.671707799050807
 30
0.0
 11
254.0762560405482
 21
40.671707799050857
 31
0.0
  0
LINE
  5
C2
  8
1外形線
 10
255.27625604054819
 20
42.171707799050857
 30
0.0
 11
255.27625604054819
 21
40.671707799050857
 31
0.0
  0
LINE
  5
C3
  8
1外形線
 10
254.77625604054819
 20
42.671707799050857
 30
0.0
 11
255.27625604054819
 21
42.171707799050857
 31
0.0
  0
LINE
  5
C4
  8
1外形線
 10
273.6762560405482
 20
40.671707799050857
 30
0.0
 11
273.6762560405482
 21
35.671707799050857
 31
0.0
  0
LINE
  5
C5
  8
1外形線
 10
168.00336007589291
 20
122.73204097350521
 30
0.0
 11
175.61402085791349
 21
121.9709748953029
 31
0.0
  0
LINE
  5
C6
  8
1外形線
 10
169.51451713889469
 20
120.680925267205
 30
0.0
 11
176.3145171388924
 21
120.6809252672048
 31
0.0
  0
LINE
  5
C7
  8
1外形線
 10
152.01451713889611
 20
100.98092526720529
 30
0.0
 11
129.61451713889599
 21
100.98092526720529
 31
0.0
  0
LINE
  5
C8
  8
1外形線
 10
152.01451713889611
 20
95.980925267205293
 30
0.0
 11
129.61451713889599
 21
95.980925267205293
 31
0.0
  0
CIRCLE
  5
C9
  8
1外形線
 10
161.5145171388948
 20
98.480925267205293
 30
0.0
 40
3.6000000000000001
  0
CIRCLE
  5
CA
  8
1外形線
 10
161.5145171388948
 20
98.480925267205293
 30
0.0
 40
2.1000000000000001
  0
ARC
  5
CB
  8
1外形線
 10
152.01451713889611
 20
98.480925267205293
 30
0.0
 40
2.5
 50
270.0
 51
90.0
  0
CIRCLE
  5
CC
  8
1外形線
 10
161.5145171388948
 20
98.480925267205293
 30
0.0
 40
5.0
  0
LINE
  5
CD
  8
1外形線
 10
156.53957995336171
 20
97.980925267205635
 30
0.0
 11
154.4640068816793
 21
97.980925267205691
 31
0.0
  0
LINE
  5
CE
  8
1外形線
 10
156.53957995336171
 20
98.980925267205407
 30
0.0
 11
154.46400688167921
 21
98.980925267205407
 31
0.0
  0
LINE
  5
CF
  8
1外形線
 10
165.01824850526211
 20
122.8809252672055
 30
0.0
 11
134.21057367594611
 21
122.8809252672054
 31
0.0
  0
LINE
  5
D0
  8
1外形線
 10
160.2145171388938
 20
118.8809252672052
 30
0.0
 11
139.8145171388939
 21
118.88092526720629
 31
0.0
  0
LINE
  5
D1
  8
1外形線
 10
160.21451713889391
 20
120.0809252672052
 30
0.0
 11
139.8145171388939
 21
120.0809252672062
 31
0.0
  0
LINE
  5
D2
  8
1外形線
 10
139.8145171388939
 20
118.88092526720629
 30
0.0
 11
139.8145171388939
 21
120.0809252672062
 31
0.0
  0
LINE
  5
D3
  8
1外形線
 10
160.2145171388938
 20
118.8809252672052
 30
0.0
 11
160.2145171388938
 21
120.0809252672052
 31
0.0
  0
ARC
  5
D4
  8
1外形線
 10
169.51451713889469
 20
119.680925267205
 30
0.0
 40
1.0
 50
89.999999999998366
 51
180.0000000000004
  0
ARC
  5
D5
  8
1外形線
 10
165.01824850526231
 20
92.880925267205555
 30
0.0
 40
30.0
 50
84.289406862499391
 51
90.000000000000398
  0
ARC
  5
D6
  8
1外形線
 10
175.51451713889239
 20
120.9759377050929
 30
0.0
 40
1.0
 50
0.0
 51
84.289406862498979
  0
ARC
  5
D7
  8
1外形線
 10
176.3145171388924
 20
120.8809252672048
 30
0.0
 40
0.2
 50
269.99999999999869
 51
0.0
  0
LINE
  5
D8
  8
1外形線
 10
176.51451713889239
 20
120.9759377050929
 30
0.0
 11
176.51451713889239
 21
120.8809252672048
 31
0.0
  0
ENDSEC
  0
EOF
