  0
SECTION
  2
HEADER
  9
$ACADVER
  1
AC1009
  9
$INSBASE
 10
0.0
 20
0.0
 30
0.0
  9
$EXTMIN
 10
24.99622914499696
 20
-25.750029856048059
 30
-0.0015258207003583
  9
$EXTMAX
 10
615.43703137683963
 20
408.08463664145091
 30
0.0000000349246037
  9
$LIMMIN
 10
0.0
 20
0.0
  9
$LIMMAX
 10
420.0
 20
297.0
  9
$ORTHOMODE
 70
     0
  9
$REGENMODE
 70
     1
  9
$FILLMODE
 70
     1
  9
$QTEXTMODE
 70
     0
  9
$MIRRTEXT
 70
     1
  9
$DRAGMODE
 70
     2
  9
$LTSCALE
 40
1.0
  9
$OSMODE
 70
    37
  9
$ATTMODE
 70
     1
  9
$TEXTSIZE
 40
2.5
  9
$TRACEWID
 40
1.0
  9
$TEXTSTYLE
  7
STANDARD
  9
$CLAYER
  8
0
  9
$CELTYPE
  6
BYLAYER
  9
$CECOLOR
 62
   256
  9
$DIMSCALE
 40
1.0
  9
$DIMASZ
 40
2.5
  9
$DIMEXO
 40
0.625
  9
$DIMDLI
 40
3.75
  9
$DIMRND
 40
0.0
  9
$DIMDLE
 40
0.0
  9
$DIMEXE
 40
1.25
  9
$DIMTP
 40
0.0
  9
$DIMTM
 40
0.0
  9
$DIMTXT
 40
2.5
  9
$DIMCEN
 40
2.5
  9
$DIMTSZ
 40
0.0
  9
$DIMTOL
 70
     0
  9
$DIMLIM
 70
     0
  9
$DIMTIH
 70
     0
  9
$DIMTOH
 70
     0
  9
$DIMSE1
 70
     0
  9
$DIMSE2
 70
     0
  9
$DIMTAD
 70
     1
  9
$DIMZIN
 70
     8
  9
$DIMBLK
  1

  9
$DIMASO
 70
     1
  9
$DIMSHO
 70
     1
  9
$DIMPOST
  1

  9
$DIMAPOST
  1

  9
$DIMALT
 70
     0
  9
$DIMALTD
 70
     3
  9
$DIMALTF
 40
0.03937007874016
  9
$DIMLFAC
 40
1.0
  9
$DIMTOFL
 70
     1
  9
$DIMTVP
 40
0.0
  9
$DIMTIX
 70
     0
  9
$DIMSOXD
 70
     0
  9
$DIMSAH
 70
     0
  9
$DIMBLK1
  1

  9
$DIMBLK2
  1

  9
$DIMSTYLE
  2
ISO-25
  9
$DIMCLRD
 70
     0
  9
$DIMCLRE
 70
     0
  9
$DIMCLRT
 70
     0
  9
$DIMTFAC
 40
1.0
  9
$DIMGAP
 40
0.625
  9
$LUNITS
 70
     2
  9
$LUPREC
 70
     4
  9
$SKETCHINC
 40
1.0
  9
$FILLETRAD
 40
10.0
  9
$AUNITS
 70
     0
  9
$AUPREC
 70
     0
  9
$MENU
  1
.
  9
$ELEVATION
 40
0.0
  9
$PELEVATION
 40
0.0
  9
$THICKNESS
 40
0.0
  9
$LIMCHECK
 70
     0
  9
$BLIPMODE
 70
     0
  9
$CHAMFERA
 40
10.0
  9
$CHAMFERB
 40
10.0
  9
$SKPOLY
 70
     0
  9
$TDCREATE
 40
2452048.587873715
  9
$TDUPDATE
 40
2452048.5980764581
  9
$TDINDWG
 40
0.0102046065
  9
$TDUSRTIMER
 40
0.0102046065
  9
$USRTIMER
 70
     1
  9
$ANGBASE
 50
0.0
  9
$ANGDIR
 70
     0
  9
$PDMODE
 70
     0
  9
$PDSIZE
 40
0.0
  9
$PLINEWID
 40
0.0
  9
$COORDS
 70
     1
  9
$SPLFRAME
 70
     0
  9
$SPLINETYPE
 70
     6
  9
$SPLINESEGS
 70
     8
  9
$ATTDIA
 70
     0
  9
$ATTREQ
 70
     1
  9
$HANDLING
 70
-16383
  9
$HANDSEED
  5
4C7B
  9
$SURFTAB1
 70
     6
  9
$SURFTAB2
 70
     6
  9
$SURFTYPE
 70
     6
  9
$SURFU
 70
     6
  9
$SURFV
 70
     6
  9
$UCSNAME
  2

  9
$UCSORG
 10
0.0
 20
0.0
 30
0.0
  9
$UCSXDIR
 10
1.0
 20
0.0
 30
0.0
  9
$UCSYDIR
 10
0.0
 20
1.0
 30
0.0
  9
$PUCSNAME
  2

  9
$PUCSORG
 10
0.0
 20
0.0
 30
0.0
  9
$PUCSXDIR
 10
1.0
 20
0.0
 30
0.0
  9
$PUCSYDIR
 10
0.0
 20
1.0
 30
0.0
  9
$USERI1
 70
     0
  9
$USERI2
 70
     0
  9
$USERI3
 70
     0
  9
$USERI4
 70
     0
  9
$USERI5
 70
     0
  9
$USERR1
 40
0.0
  9
$USERR2
 40
0.0
  9
$USERR3
 40
0.0
  9
$USERR4
 40
0.0
  9
$USERR5
 40
0.0
  9
$WORLDVIEW
 70
     1
  9
$SHADEDGE
 70
     3
  9
$SHADEDIF
 70
    70
  9
$TILEMODE
 70
     1
  9
$MAXACTVP
 70
    64
  9
$PLIMCHECK
 70
     0
  9
$PEXTMIN
 10
1.0000000000000000E+020
 20
1.0000000000000000E+020
 30
1.0000000000000000E+020
  9
$PEXTMAX
 10
-1.0000000000000000E+020
 20
-1.0000000000000000E+020
 30
-1.0000000000000000E+020
  9
$PLIMMIN
 10
0.0
 20
0.0
  9
$PLIMMAX
 10
420.0
 20
297.0
  9
$UNITMODE
 70
     0
  9
$VISRETAIN
 70
     1
  9
$PLINEGEN
 70
     0
  9
$PSLTSCALE
 70
     1
  0
ENDSEC
  0
SECTION
  2
TABLES
  0
TABLE
  2
VPORT
 70
    24
  0
VPORT
  2
*ACTIVE
 70
     0
 10
0.0
 20
0.0
 11
1.0
 21
1.0
 12
243.19809294536361
 22
20.724196922940902
 13
0.0
 23
0.0
 14
10.0
 24
10.0
 15
10.0
 25
10.0
 16
0.0
 26
0.0
 36
1.0
 17
0.0
 27
0.0
 37
0.0
 40
1136.324782680095
 41
0.8452830188679245
 42
50.0
 43
0.0
 44
0.0
 50
0.0
 51
0.0
 71
     0
 72
   100
 73
     1
 74
     3
 75
     0
 76
     0
 77
     0
 78
     0
  0
ENDTAB
  0
TABLE
  2
LTYPE
 70
     1
  0
LTYPE
  2
CONTINUOUS
 70
     0
  3
Solid line
 72
    65
 73
     0
 40
0.0
  0
ENDTAB
  0
TABLE
  2
LAYER
 70
     2
  0
LAYER
  2
0
 70
     0
 62
     7
  6
CONTINUOUS
  0
LAYER
  2
1外形線
 70
     0
 62
     3
  6
CONTINUOUS
  0
ENDTAB
  0
TABLE
  2
STYLE
 70
     2
  0
STYLE
  2
STANDARD
 70
     0
 40
0.0
 41
1.0
 50
0.0
 71
     0
 42
2.5
  3
txt
  4

  0
STYLE
  2
KANJI
 70
     0
 40
0.0
 41
1.0
 50
0.0
 71
     0
 42
10.0
  3
simplex
  4
bigfont
  0
ENDTAB
  0
TABLE
  2
VIEW
 70
     0
  0
ENDTAB
  0
TABLE
  2
UCS
 70
     0
  0
ENDTAB
  0
TABLE
  2
APPID
 70
     1
  0
APPID
  2
ACAD
 70
     0
  0
ENDTAB
  0
TABLE
  2
DIMSTYLE
 70
     2
  0
DIMSTYLE
  2
ISO-25
 70
     0
  3

  4

  5

  6

  7

 40
1.0
 41
2.5
 42
0.625
 43
3.75
 44
1.25
 45
0.0
 46
0.0
 47
0.0
 48
0.0
140
2.5
141
2.5
142
0.0
143
0.03937007874016
144
1.0
145
0.0
146
1.0
147
0.625
 71
     0
 72
     0
 73
     0
 74
     0
 75
     0
 76
     0
 77
     1
 78
     8
170
     0
171
     3
172
     1
173
     0
174
     0
175
     0
176
     0
177
     0
178
     0
  0
DIMSTYLE
  2
STANDARD
 70
     0
  3

  4

  5

  6
1
  7
1
 40
1.0
 41
1.0
 42
1.0
 43
6.0
 44
1.0
 45
0.0
 46
0.0
 47
0.0
 48
0.0
140
2.5
141
0.0
142
0.0
143
25.399999999999999
144
1.0
145
0.0
146
1.0
147
0.5
 71
     0
 72
     0
 73
     0
 74
     0
 75
     0
 76
     0
 77
     1
 78
     8
170
     0
171
     2
172
     1
173
     1
174
     0
175
     0
176
     0
177
     0
178
     0
  0
ENDTAB
  0
ENDSEC
  0
SECTION
  2
BLOCKS
  0
BLOCK
  8
0
  2
$MODEL_SPACE
 70
     0
 10
0.0
 20
0.0
 30
0.0
  3
$MODEL_SPACE
  1

  0
ENDBLK
  5
21
  8
0
  0
BLOCK
 67
     1
  8
0
  2
$PAPER_SPACE
 70
     0
 10
0.0
 20
0.0
 30
0.0
  3
$PAPER_SPACE
  1

  0
ENDBLK
  5
1D
 67
     1
  8
0
  0
BLOCK
  8
0
  2
1
 70
     0
 10
0.0
 20
0.0
 30
0.0
  3
1
  1

  0
SOLID
  5
2C
  8
0
  6
BYBLOCK
 62
     0
 10
-1.811110924292052
 20
0.4852857095671653
 30
0.0
 11
-1.811110924292052
 21
-0.4852857095673642
 31
0.0
 12
0.0
 22
0.0
 32
0.0
 13
0.0
 23
0.0
 33
0.0
  0
ENDBLK
  5
2E
  8
0
  0
ENDSEC
  0
SECTION
  2
ENTITIES
  0
LINE
  5
4BF1
  8
1外形線
 10
180.08473934702951
 20
224.83428032413181
 30
0.0
 11
180.08473934702951
 21
205.73926788624411
 31
0.0
  0
LINE
  5
4BF2
  8
1外形線
 10
57.084739347028169
 20
224.83428032413181
 30
0.0
 11
57.084739347028169
 21
205.73926788624411
 31
0.0
  0
LINE
  5
4BF3
  8
1外形線
 10
171.57358228403351
 20
203.98316461783219
 30
0.0
 11
179.18424306605061
 21
204.74423069603421
 31
0.0
  0
LINE
  5
4BF4
  8
1外形線
 10
171.0773013050306
 20
169.65992647267569
 30
0.0
 11
179.1842430660495
 21
168.84923229657389
 31
0.0
  0
LINE
  5
4BF5
  8
1外形線
 10
180.0847393470286
 20
131.25918266848061
 30
0.0
 11
118.5847393470288
 21
131.25918266847609
 31
0.0
  0
LINE
  5
4BF6
  8
1外形線
 10
171.573582284032
 20
91.46610853118591
 30
0.0
 11
179.18424306605061
 21
90.705042452984117
 31
0.0
  0
LINE
  5
4BF7
  8
1外形線
 10
171.57358228403351
 20
49.763877118587523
 30
0.0
 11
179.18424306605061
 21
50.524943196789529
 31
0.0
  0
LINE
  5
4BF8
  8
1外形線
 10
180.08473934702951
 20
51.61499282488716
 30
0.0
 11
57.084739347028169
 21
51.61499282488694
 31
0.0
  0
LINE
  5
4BF9
  8
1外形線
 10
180.08473934702951
 20
89.614992824886258
 30
0.0
 11
57.084739347028169
 21
89.614992824885789
 31
0.0
  0
LINE
  5
4BFA
  8
1外形線
 10
165.0847393470284
 20
80.114992824887395
 30
0.0
 11
179.08473934702849
 21
80.114992824887509
 31
0.0
  0
LINE
  5
4BFB
  8
1外形線
 10
165.08473934702849
 20
61.114992824887402
 30
0.0
 11
179.08473934702849
 21
61.114992824887622
 31
0.0
  0
LINE
  5
4BFC
  8
1外形線
 10
57.084739347028169
 20
89.710005262774075
 30
0.0
 11
57.084739347028169
 21
51.51998038699935
 31
0.0
  0
ARC
  5
4BFD
  8
1外形線
 10
156.98473934702849
 20
70.614992824886599
 30
0.0
 40
2.0999999999999992
 50
270.0
 51
90.0
  0
ARC
  5
4BFE
  8
1外形線
 10
152.18473934702851
 20
70.614992824886599
 30
0.0
 40
2.0999999999999992
 50
90.0
 51
270.0
  0
LINE
  5
4BFF
  8
1外形線
 10
165.0847393470284
 20
70.614992824886485
 30
0.0
 11
165.0847393470286
 21
51.61499282488716
 31
0.0
  0
ARC
  5
4C00
  8
1外形線
 10
84.984739347029176
 20
70.614992824886599
 30
0.0
 40
2.0999999999999992
 50
270.0
 51
90.0
  0
ARC
  5
4C01
  8
1外形線
 10
80.184739347029236
 20
70.614992824886599
 30
0.0
 40
2.0999999999999992
 50
90.0
 51
270.0
  0
LINE
  5
4C02
  8
1外形線
 10
72.084739347029085
 20
70.614992824886485
 30
0.0
 11
72.084739347028858
 21
51.61499282488716
 31
0.0
  0
CIRCLE
  5
4C03
  8
1外形線
 10
118.5847393470288
 20
70.614992824886485
 30
0.0
 40
17.0
  0
ARC
  5
4C04
  8
1外形線
 10
118.5847393470288
 20
70.614992824886485
 30
0.0
 40
35.0
 50
216.8698976458424
 51
323.13010235415732
  0
LINE
  5
4C05
  8
1外形線
 10
65.595896410024125
 20
49.763877118587523
 30
0.0
 11
57.985235628007104
 21
50.524943196789529
 31
0.0
  0
LINE
  5
4C06
  8
1外形線
 10
68.581007980654704
 20
49.61499282488716
 30
0.0
 11
90.584739347028346
 21
49.61499282488716
 31
0.0
  0
ARC
  5
4C07
  8
1外形線
 10
68.581007980654704
 20
79.614992824887153
 30
0.0
 40
30.0
 50
264.28940686249928
 51
270.0
  0
LINE
  5
4C08
  8
1外形線
 10
73.584739347028844
 20
52.914992824887122
 30
0.0
 11
88.584739347029085
 21
52.914992824887122
 31
0.0
  0
ARC
  5
4C09
  8
1外形線
 10
58.084739347028169
 20
51.51998038699935
 30
0.0
 40
1.0
 50
180.0
 51
264.28940686249928
  0
LINE
  5
4C0A
  8
1外形線
 10
73.584739347028844
 20
52.914992824887122
 30
0.0
 11
73.584739347028844
 21
51.61499282488716
 31
0.0
  0
LINE
  5
4C0B
  8
1外形線
 10
72.084739347028972
 20
61.114992824887402
 30
0.0
 11
58.084739347028972
 21
61.114992824887622
 31
0.0
  0
ARC
  5
4C0C
  8
1外形線
 10
58.084739347028972
 20
62.11499282488716
 30
0.0
 40
1.0
 50
180.0
 51
270.0
  0
LINE
  5
4C0D
  8
1外形線
 10
88.584739347029085
 20
52.914992824887122
 30
0.0
 11
88.584739347028986
 21
51.61499282488716
 31
0.0
  0
LINE
  5
4C0E
  8
1外形線
 10
80.184739347029236
 20
68.514992824886349
 30
0.0
 11
82.584739347029085
 21
68.514992824886349
 31
0.0
  0
LINE
  5
4C0F
  8
1外形線
 10
84.984739347029176
 20
68.514992824886349
 30
0.0
 11
82.584739347029085
 21
68.514992824886349
 31
0.0
  0
LINE
  5
4C10
  8
1外形線
 10
168.58847071340301
 20
49.61499282488716
 30
0.0
 11
146.58473934702931
 21
49.61499282488716
 31
0.0
  0
ARC
  5
4C11
  8
1外形線
 10
168.58847071340301
 20
79.614992824887153
 30
0.0
 40
30.0
 50
270.0
 51
275.71059313750061
  0
LINE
  5
4C12
  8
1外形線
 10
152.18473934702851
 20
68.514992824886349
 30
0.0
 11
154.5847393470286
 21
68.514992824886349
 31
0.0
  0
LINE
  5
4C13
  8
1外形線
 10
163.5847393470286
 20
52.914992824887122
 30
0.0
 11
148.58473934702849
 21
52.914992824887122
 31
0.0
  0
LINE
  5
4C14
  8
1外形線
 10
148.58473934702849
 20
52.914992824887122
 30
0.0
 11
148.58473934702849
 21
51.61499282488716
 31
0.0
  0
LINE
  5
4C15
  8
1外形線
 10
163.5847393470286
 20
52.914992824887122
 30
0.0
 11
163.5847393470286
 21
51.61499282488716
 31
0.0
  0
LINE
  5
4C16
  8
1外形線
 10
156.98473934702849
 20
68.514992824886349
 30
0.0
 11
154.5847393470286
 21
68.514992824886349
 31
0.0
  0
LINE
  5
4C17
  8
1外形線
 10
57.084739347029078
 20
167.8541951063639
 30
0.0
 11
57.084739347029078
 21
131.25918266848061
 31
0.0
  0
LINE
  5
4C18
  8
1外形線
 10
118.5847393470288
 20
131.25918266848061
 30
0.0
 11
57.084739347029078
 21
131.25918266848061
 31
0.0
  0
LINE
  5
4C19
  8
1外形線
 10
144.584739347029
 20
133.5591826684778
 30
0.0
 11
92.584739347028389
 21
133.55918266847411
 31
0.0
  0
ARC
  5
4C1A
  8
1外形線
 10
118.5847393470288
 20
70.614992824886485
 30
0.0
 40
35.0
 50
36.869897645843608
 51
143.13010235415629
  0
LINE
  5
4C1B
  8
1外形線
 10
72.084739347028972
 20
89.614992824887494
 30
0.0
 11
72.084739347029199
 21
70.614992824886485
 31
0.0
  0
LINE
  5
4C1C
  8
1外形線
 10
72.084739347029085
 20
80.114992824887395
 30
0.0
 11
58.084739347028972
 21
80.114992824887509
 31
0.0
  0
ARC
  5
4C1D
  8
1外形線
 10
58.084739347028972
 20
79.114992824887054
 30
0.0
 40
1.0
 50
90.0
 51
180.0
  0
LINE
  5
4C1E
  8
1外形線
 10
80.184739347029236
 20
72.714992824886394
 30
0.0
 11
82.584739347029327
 21
72.714992824886394
 31
0.0
  0
LINE
  5
4C1F
  8
1外形線
 10
84.984739347029176
 20
72.714992824886394
 30
0.0
 11
82.584739347029085
 21
72.714992824886394
 31
0.0
  0
LINE
  5
4C20
  8
1外形線
 10
68.581007980656295
 20
91.614992824886244
 30
0.0
 11
90.584739347028687
 21
91.614992824886244
 31
0.0
  0
LINE
  5
4C21
  8
1外形線
 10
73.584739347028972
 20
88.31499282488744
 30
0.0
 11
88.584739347028986
 21
88.314992824887554
 31
0.0
  0
ARC
  5
4C22
  8
1外形線
 10
68.581007980656295
 20
61.614992824886258
 30
0.0
 40
30.0
 50
90.0
 51
95.710593137500595
  0
ARC
  5
4C23
  8
1外形線
 10
58.084739347028169
 20
89.710005262774075
 30
0.0
 40
1.0
 50
95.710593137500595
 51
180.0
  0
LINE
  5
4C24
  8
1外形線
 10
65.595896410025716
 20
91.46610853118591
 30
0.0
 11
57.985235628007104
 21
90.705042452984117
 31
0.0
  0
LINE
  5
4C25
  8
1外形線
 10
73.584739347028972
 20
89.614992824887494
 30
0.0
 11
73.584739347028972
 21
88.31499282488744
 31
0.0
  0
LINE
  5
4C26
  8
1外形線
 10
88.584739347028986
 20
89.614992824887494
 30
0.0
 11
88.584739347028986
 21
88.314992824887554
 31
0.0
  0
LINE
  5
4C27
  8
1外形線
 10
90.584739347028517
 20
131.55918266847351
 30
0.0
 11
90.584739347028517
 21
131.25918266848061
 31
0.0
  0
ARC
  5
4C28
  8
1外形線
 10
92.584739347028517
 20
131.55918266847351
 30
0.0
 40
2.0
 50
90.000000000004874
 51
180.0
  0
LINE
  5
4C29
  8
1外形線
 10
165.08473934702849
 20
89.614992824887494
 30
0.0
 11
165.08473934702809
 21
70.614992824886485
 31
0.0
  0
LINE
  5
4C2A
  8
1外形線
 10
152.18473934702851
 20
72.714992824886394
 30
0.0
 11
154.5847393470286
 21
72.714992824886394
 31
0.0
  0
LINE
  5
4C2B
  8
1外形線
 10
156.98473934702849
 20
72.714992824886394
 30
0.0
 11
154.5847393470284
 21
72.714992824886394
 31
0.0
  0
LINE
  5
4C2C
  8
1外形線
 10
168.58847071340139
 20
91.614992824886244
 30
0.0
 11
146.584739347029
 21
91.614992824886244
 31
0.0
  0
LINE
  5
4C2D
  8
1外形線
 10
163.5847393470286
 20
88.314992824887554
 30
0.0
 11
148.58473934702849
 21
88.31499282488744
 31
0.0
  0
LINE
  5
4C2E
  8
1外形線
 10
148.58473934702849
 20
89.614992824887494
 30
0.0
 11
148.58473934702849
 21
88.31499282488744
 31
0.0
  0
LINE
  5
4C2F
  8
1外形線
 10
163.58473934702849
 20
89.614992824887494
 30
0.0
 11
163.5847393470286
 21
88.314992824887554
 31
0.0
  0
ARC
  5
4C30
  8
1外形線
 10
168.58847071340139
 20
61.614992824886258
 30
0.0
 40
30.0
 50
84.289406862499391
 51
90.0
  0
ARC
  5
4C31
  8
1外形線
 10
144.5847393470292
 20
131.55918266847351
 30
0.0
 40
2.0
 50
0.0
 51
89.999999999995111
  0
LINE
  5
4C32
  8
1外形線
 10
146.5847393470292
 20
131.55918266847351
 30
0.0
 11
146.5847393470292
 21
131.25918266848061
 31
0.0
  0
ARC
  5
4C33
  8
1外形線
 10
118.5847393470288
 20
224.83428032413121
 30
0.0
 40
35.0
 50
216.8698976458424
 51
323.13010235415732
  0
LINE
  5
4C34
  8
1外形線
 10
68.581007980654704
 20
203.83428032413181
 30
0.0
 11
118.5847393470288
 21
203.83428032413201
 31
0.0
  0
LINE
  5
4C35
  8
1外形線
 10
118.5847393470288
 20
169.75918266847631
 30
0.0
 11
68.082251769446984
 21
169.75918266847609
 31
0.0
  0
ARC
  5
4C36
  8
1外形線
 10
68.082251769447112
 20
149.75918266847609
 30
0.0
 40
20.0
 50
90.0
 51
95.710593137500595
  0
ARC
  5
4C37
  8
1外形線
 10
58.084739347029092
 20
167.8541951063639
 30
0.0
 40
1.0
 50
95.710593137498975
 51
180.0
  0
LINE
  5
4C38
  8
1外形線
 10
66.092177389027029
 20
169.65992647267569
 30
0.0
 11
57.985235628008127
 21
168.84923229657389
 31
0.0
  0
ARC
  5
4C39
  8
1外形線
 10
68.581007980654704
 20
233.8342803241319
 30
0.0
 40
30.0
 50
264.28940686249928
 51
270.0
  0
ARC
  5
4C3A
  8
1外形線
 10
58.084739347028169
 20
205.73926788624411
 30
0.0
 40
1.0
 50
180.0
 51
264.28940686249928
  0
LINE
  5
4C3B
  8
1外形線
 10
65.595896410024125
 20
203.98316461783219
 30
0.0
 11
57.985235628007104
 21
204.74423069603421
 31
0.0
  0
LINE
  5
4C3C
  8
1外形線
 10
118.5847393470288
 20
169.75918266847631
 30
0.0
 11
169.08722692461069
 21
169.75918266847609
 31
0.0
  0
ARC
  5
4C3D
  8
1外形線
 10
169.0872269246106
 20
149.75918266847609
 30
0.0
 40
20.0
 50
84.289406862499391
 51
90.0
  0
LINE
  5
4C3E
  8
1外形線
 10
168.58847071340301
 20
203.83428032413181
 30
0.0
 11
118.5847393470288
 21
203.8342803241321
 31
0.0
  0
ARC
  5
4C3F
  8
1外形線
 10
168.58847071340301
 20
233.8342803241319
 30
0.0
 40
30.0
 50
270.0
 51
275.71059313750061
  0
LINE
  5
4C40
  8
1外形線
 10
180.08473934702951
 20
51.51998038699935
 30
0.0
 11
180.08473934702951
 21
89.710005262773834
 31
0.0
  0
ARC
  5
4C41
  8
1外形線
 10
179.08473934702951
 20
51.51998038699935
 30
0.0
 40
1.0
 50
275.71059313750061
 51
0.0
  0
ARC
  5
4C42
  8
1外形線
 10
179.08473934702849
 20
62.11499282488716
 30
0.0
 40
1.0
 50
270.0
 51
0.0
  0
LINE
  5
4C43
  8
1外形線
 10
260.58770455968539
 20
148.759182668482
 30
0.0
 11
260.58770455968539
 21
131.25918266847759
 31
0.0
  0
LINE
  5
4C44
  8
1外形線
 10
258.58770455968539
 20
148.759182668482
 30
0.0
 11
258.58770455968539
 21
131.259182668482
 31
0.0
  0
LINE
  5
4C45
  8
1外形線
 10
220.58770455968539
 20
148.759182668482
 30
0.0
 11
220.58770455968539
 21
131.259182668482
 31
0.0
  0
LINE
  5
4C46
  8
1外形線
 10
218.58770455968539
 20
148.759182668482
 30
0.0
 11
218.58770455968539
 21
131.25918266847719
 31
0.0
  0
LINE
  5
4C47
  8
1外形線
 10
180.0847393470286
 20
167.8541951063639
 30
0.0
 11
180.0847393470286
 21
131.25918266848061
 31
0.0
  0
LINE
  5
4C48
  8
1外形線
 10
274.58770455968528
 20
131.25918266848061
 30
0.0
 11
204.58770455968539
 21
131.25918266848061
 31
0.0
  0
LINE
  5
4C49
  8
1外形線
 10
255.08770455968551
 20
137.2591826684781
 30
0.0
 11
247.5877045596859
 21
137.2591826684781
 31
0.0
  0
ARC
  5
4C4A
  8
1外形線
 10
179.08473934702849
 20
79.114992824887054
 30
0.0
 40
1.0
 50
0.0
 51
90.0
  0
ARC
  5
4C4B
  8
1外形線
 10
179.08473934702951
 20
89.710005262774075
 30
0.0
 40
1.0
 50
0.0
 51
84.289406862499391
  0
LINE
  5
4C4C
  8
1外形線
 10
216.5877045596857
 20
133.55918266848619
 30
0.0
 11
206.58770455968531
 21
133.55918266848539
 31
0.0
  0
ARC
  5
4C4D
  8
1外形線
 10
206.58770455968539
 20
131.55918266849051
 30
0.0
 40
2.0
 50
89.999999999995111
 51
180.0
  0
LINE
  5
4C4E
  8
1外形線
 10
204.58770455968539
 20
131.55918266849051
 30
0.0
 11
204.58770455968539
 21
131.25918266847771
 31
0.0
  0
LINE
  5
4C4F
  8
1外形線
 10
249.08770455968579
 20
133.7591826684781
 30
0.0
 11
230.0877045596859
 21
133.7591826684781
 31
0.0
  0
LINE
  5
4C50
  8
1外形線
 10
239.58770455968539
 20
135.7591826684781
 30
0.0
 11
231.5877045596859
 21
135.7591826684781
 31
0.0
  0
ARC
  5
4C51
  8
1外形線
 10
216.58770455968539
 20
135.55918266848619
 30
0.0
 40
2.0
 50
270.00000000000489
 51
0.0
  0
LINE
  5
4C52
  8
1外形線
 10
230.0877045596859
 20
137.25918266847799
 30
0.0
 11
230.0877045596859
 21
133.7591826684781
 31
0.0
  0
LINE
  5
4C53
  8
1外形線
 10
220.28224092344121
 20
131.25918266848061
 30
0.0
 11
218.28224092344109
 21
131.25918266848061
 31
0.0
  0
ARC
  5
4C54
  8
1外形線
 10
223.08770455968539
 20
139.54785780307299
 30
0.0
 40
1.0
 50
0.0
 51
119.9999999999999
  0
LINE
  5
4C55
  8
1外形線
 10
220.58770455968539
 20
139.2591826684781
 30
0.0
 11
222.58770455968539
 21
140.41388320685741
 31
0.0
  0
LINE
  5
4C56
  8
1外形線
 10
224.08770455968539
 20
137.2591826684781
 30
0.0
 11
224.08770455968539
 21
139.54785780307299
 31
0.0
  0
LINE
  5
4C57
  8
1外形線
 10
231.5877045596859
 20
137.2591826684781
 30
0.0
 11
224.08770455968539
 21
137.2591826684781
 31
0.0
  0
LINE
  5
4C58
  8
1外形線
 10
231.5877045596859
 20
137.25918266847799
 30
0.0
 11
231.5877045596859
 21
135.7591826684781
 31
0.0
  0
LINE
  5
4C59
  8
1外形線
 10
249.08770455968579
 20
137.2591826684781
 30
0.0
 11
249.08770455968579
 21
133.7591826684781
 31
0.0
  0
LINE
  5
4C5A
  8
1外形線
 10
247.5877045596859
 20
135.7591826684781
 30
0.0
 11
239.58770455968539
 21
135.7591826684781
 31
0.0
  0
LINE
  5
4C5B
  8
1外形線
 10
247.5877045596859
 20
137.2591826684781
 30
0.0
 11
247.5877045596859
 21
135.7591826684781
 31
0.0
  0
LINE
  5
4C5C
  8
1外形線
 10
262.58770455968528
 20
133.55918266848619
 30
0.0
 11
272.58770455968551
 21
133.55918266848539
 31
0.0
  0
ARC
  5
4C5D
  8
1外形線
 10
262.58770455968539
 20
135.55918266848619
 30
0.0
 40
2.0
 50
180.0
 51
269.99999999999511
  0
LINE
  5
4C5E
  8
1外形線
 10
260.89316819592932
 20
131.25918266848061
 30
0.0
 11
258.89316819592921
 21
131.25918266848061
 31
0.0
  0
LINE
  5
4C5F
  8
1外形線
 10
258.58770455968551
 20
139.2591826684781
 30
0.0
 11
256.58770455968551
 21
140.41388320685741
 31
0.0
  0
LINE
  5
4C60
  8
1外形線
 10
258.58770455968551
 20
139.2591826684781
 30
0.0
 11
256.58770455968551
 21
140.41388320685741
 31
0.0
  0
LINE
  5
4C61
  8
1外形線
 10
255.08770455968551
 20
137.2591826684781
 30
0.0
 11
255.08770455968551
 21
139.54785780307299
 31
0.0
  0
ARC
  5
4C62
  8
1外形線
 10
256.08770455968551
 20
139.54785780307299
 30
0.0
 40
1.0
 50
60.000000000000071
 51
180.0
  0
ARC
  5
4C63
  8
1外形線
 10
272.58770455968539
 20
131.55918266849051
 30
0.0
 40
2.0
 50
0.0
 51
90.000000000004874
  0
LINE
  5
4C64
  8
1外形線
 10
274.58770455968539
 20
131.55918266849051
 30
0.0
 11
274.58770455968539
 21
131.25918266847771
 31
0.0
  0
ARC
  5
4C65
  8
1外形線
 10
239.58770455968539
 20
148.75918266848521
 30
0.0
 40
19.0
 50
0.0
 51
180.0
  0
ARC
  5
4C66
  8
1外形線
 10
239.58770455968539
 20
148.75918266848521
 30
0.0
 40
21.0
 50
0.0
 51
180.0
  0
ARC
  5
4C67
  8
1外形線
 10
179.0847393470286
 20
167.8541951063639
 30
0.0
 40
1.0
 50
0.0
 51
84.289406862501053
  0
ARC
  5
4C68
  8
1外形線
 10
179.08473934702951
 20
205.73926788624411
 30
0.0
 40
1.0
 50
275.71059313750061
 51
0.0
  0
LINE
  5
4C69
  8
1外形線
 10
171.573582284032
 20
245.68539603043061
 30
0.0
 11
179.18424306605061
 21
244.92432995222879
 31
0.0
  0
LINE
  5
4C6A
  8
1外形線
 10
68.581007980656295
 20
245.8342803241309
 30
0.0
 11
118.5847393470288
 21
245.8342803241309
 31
0.0
  0
ARC
  5
4C6B
  8
1外形線
 10
118.5847393470288
 20
224.83428032413121
 30
0.0
 40
35.0
 50
36.869897645843608
 51
143.13010235415629
  0
LINE
  5
4C6C
  8
1外形線
 10
57.084739347028169
 20
224.8342803241309
 30
0.0
 11
57.084739347028169
 21
243.9292927620186
 31
0.0
  0
ARC
  5
4C6D
  8
1外形線
 10
68.581007980656295
 20
215.83428032413099
 30
0.0
 40
30.0
 50
90.0
 51
95.710593137500595
  0
ARC
  5
4C6E
  8
1外形線
 10
58.084739347028169
 20
243.9292927620188
 30
0.0
 40
1.0
 50
95.710593137500595
 51
180.0
  0
LINE
  5
4C6F
  8
1外形線
 10
65.595896410025716
 20
245.68539603043061
 30
0.0
 11
57.985235628007104
 21
244.92432995222879
 31
0.0
  0
LINE
  5
4C70
  8
1外形線
 10
168.58847071340139
 20
245.8342803241309
 30
0.0
 11
118.5847393470288
 21
245.8342803241309
 31
0.0
  0
ARC
  5
4C71
  8
1外形線
 10
168.58847071340139
 20
215.83428032413099
 30
0.0
 40
30.0
 50
84.289406862499391
 51
90.0
  0
LINE
  5
4C72
  8
1外形線
 10
180.08473934702951
 20
224.8342803241309
 30
0.0
 11
180.08473934702951
 21
243.9292927620186
 31
0.0
  0
ARC
  5
4C73
  8
1外形線
 10
179.08473934702951
 20
243.9292927620188
 30
0.0
 40
1.0
 50
0.0
 51
84.289406862499391
  0
ENDSEC
  0
EOF
