  0
SECTION
  2
HEADER
  9
$ACADVER
  1
AC1009
  9
$INSBASE
 10
0.0
 20
0.0
 30
0.0
  9
$EXTMIN
 10
24.99622914499696
 20
-25.750029856048059
 30
-0.0015258207003583
  9
$EXTMAX
 10
615.43703137683963
 20
408.08463664145091
 30
0.0000000349246037
  9
$LIMMIN
 10
0.0
 20
0.0
  9
$LIMMAX
 10
420.0
 20
297.0
  9
$ORTHOMODE
 70
     0
  9
$REGENMODE
 70
     1
  9
$FILLMODE
 70
     1
  9
$QTEXTMODE
 70
     0
  9
$MIRRTEXT
 70
     1
  9
$DRAGMODE
 70
     2
  9
$LTSCALE
 40
1.0
  9
$OSMODE
 70
    37
  9
$ATTMODE
 70
     1
  9
$TEXTSIZE
 40
2.5
  9
$TRACEWID
 40
1.0
  9
$TEXTSTYLE
  7
STANDARD
  9
$CLAYER
  8
0
  9
$CELTYPE
  6
BYLAYER
  9
$CECOLOR
 62
   256
  9
$DIMSCALE
 40
1.0
  9
$DIMASZ
 40
2.5
  9
$DIMEXO
 40
0.625
  9
$DIMDLI
 40
3.75
  9
$DIMRND
 40
0.0
  9
$DIMDLE
 40
0.0
  9
$DIMEXE
 40
1.25
  9
$DIMTP
 40
0.0
  9
$DIMTM
 40
0.0
  9
$DIMTXT
 40
2.5
  9
$DIMCEN
 40
2.5
  9
$DIMTSZ
 40
0.0
  9
$DIMTOL
 70
     0
  9
$DIMLIM
 70
     0
  9
$DIMTIH
 70
     0
  9
$DIMTOH
 70
     0
  9
$DIMSE1
 70
     0
  9
$DIMSE2
 70
     0
  9
$DIMTAD
 70
     1
  9
$DIMZIN
 70
     8
  9
$DIMBLK
  1

  9
$DIMASO
 70
     1
  9
$DIMSHO
 70
     1
  9
$DIMPOST
  1

  9
$DIMAPOST
  1

  9
$DIMALT
 70
     0
  9
$DIMALTD
 70
     3
  9
$DIMALTF
 40
0.03937007874016
  9
$DIMLFAC
 40
1.0
  9
$DIMTOFL
 70
     1
  9
$DIMTVP
 40
0.0
  9
$DIMTIX
 70
     0
  9
$DIMSOXD
 70
     0
  9
$DIMSAH
 70
     0
  9
$DIMBLK1
  1

  9
$DIMBLK2
  1

  9
$DIMSTYLE
  2
ISO-25
  9
$DIMCLRD
 70
     0
  9
$DIMCLRE
 70
     0
  9
$DIMCLRT
 70
     0
  9
$DIMTFAC
 40
1.0
  9
$DIMGAP
 40
0.625
  9
$LUNITS
 70
     2
  9
$LUPREC
 70
     4
  9
$SKETCHINC
 40
1.0
  9
$FILLETRAD
 40
10.0
  9
$AUNITS
 70
     0
  9
$AUPREC
 70
     0
  9
$MENU
  1
.
  9
$ELEVATION
 40
0.0
  9
$PELEVATION
 40
0.0
  9
$THICKNESS
 40
0.0
  9
$LIMCHECK
 70
     0
  9
$BLIPMODE
 70
     0
  9
$CHAMFERA
 40
10.0
  9
$CHAMFERB
 40
10.0
  9
$SKPOLY
 70
     0
  9
$TDCREATE
 40
2452048.587873715
  9
$TDUPDATE
 40
2452048.6013037842
  9
$TDINDWG
 40
0.0134319329
  9
$TDUSRTIMER
 40
0.0134319329
  9
$USRTIMER
 70
     1
  9
$ANGBASE
 50
0.0
  9
$ANGDIR
 70
     0
  9
$PDMODE
 70
     0
  9
$PDSIZE
 40
0.0
  9
$PLINEWID
 40
0.0
  9
$COORDS
 70
     1
  9
$SPLFRAME
 70
     0
  9
$SPLINETYPE
 70
     6
  9
$SPLINESEGS
 70
     8
  9
$ATTDIA
 70
     0
  9
$ATTREQ
 70
     1
  9
$HANDLING
 70
-16383
  9
$HANDSEED
  5
4D74
  9
$SURFTAB1
 70
     6
  9
$SURFTAB2
 70
     6
  9
$SURFTYPE
 70
     6
  9
$SURFU
 70
     6
  9
$SURFV
 70
     6
  9
$UCSNAME
  2

  9
$UCSORG
 10
0.0
 20
0.0
 30
0.0
  9
$UCSXDIR
 10
1.0
 20
0.0
 30
0.0
  9
$UCSYDIR
 10
0.0
 20
1.0
 30
0.0
  9
$PUCSNAME
  2

  9
$PUCSORG
 10
0.0
 20
0.0
 30
0.0
  9
$PUCSXDIR
 10
1.0
 20
0.0
 30
0.0
  9
$PUCSYDIR
 10
0.0
 20
1.0
 30
0.0
  9
$USERI1
 70
     0
  9
$USERI2
 70
     0
  9
$USERI3
 70
     0
  9
$USERI4
 70
     0
  9
$USERI5
 70
     0
  9
$USERR1
 40
0.0
  9
$USERR2
 40
0.0
  9
$USERR3
 40
0.0
  9
$USERR4
 40
0.0
  9
$USERR5
 40
0.0
  9
$WORLDVIEW
 70
     1
  9
$SHADEDGE
 70
     3
  9
$SHADEDIF
 70
    70
  9
$TILEMODE
 70
     1
  9
$MAXACTVP
 70
    64
  9
$PLIMCHECK
 70
     0
  9
$PEXTMIN
 10
1.0000000000000000E+020
 20
1.0000000000000000E+020
 30
1.0000000000000000E+020
  9
$PEXTMAX
 10
-1.0000000000000000E+020
 20
-1.0000000000000000E+020
 30
-1.0000000000000000E+020
  9
$PLIMMIN
 10
0.0
 20
0.0
  9
$PLIMMAX
 10
420.0
 20
297.0
  9
$UNITMODE
 70
     0
  9
$VISRETAIN
 70
     1
  9
$PLINEGEN
 70
     0
  9
$PSLTSCALE
 70
     1
  0
ENDSEC
  0
SECTION
  2
TABLES
  0
TABLE
  2
VPORT
 70
    25
  0
VPORT
  2
*ACTIVE
 70
     0
 10
0.0
 20
0.0
 11
1.0
 21
1.0
 12
243.19809294536361
 22
20.724196922940902
 13
0.0
 23
0.0
 14
10.0
 24
10.0
 15
10.0
 25
10.0
 16
0.0
 26
0.0
 36
1.0
 17
0.0
 27
0.0
 37
0.0
 40
1136.324782680095
 41
0.8452830188679245
 42
50.0
 43
0.0
 44
0.0
 50
0.0
 51
0.0
 71
     0
 72
   100
 73
     1
 74
     3
 75
     0
 76
     0
 77
     0
 78
     0
  0
ENDTAB
  0
TABLE
  2
LTYPE
 70
     1
  0
LTYPE
  2
CONTINUOUS
 70
     0
  3
Solid line
 72
    65
 73
     0
 40
0.0
  0
ENDTAB
  0
TABLE
  2
LAYER
 70
     2
  0
LAYER
  2
0
 70
     0
 62
     7
  6
CONTINUOUS
  0
LAYER
  2
1外形線
 70
     0
 62
     3
  6
CONTINUOUS
  0
ENDTAB
  0
TABLE
  2
STYLE
 70
     2
  0
STYLE
  2
STANDARD
 70
     0
 40
0.0
 41
1.0
 50
0.0
 71
     0
 42
2.5
  3
txt
  4

  0
STYLE
  2
KANJI
 70
     0
 40
0.0
 41
1.0
 50
0.0
 71
     0
 42
10.0
  3
simplex
  4
bigfont
  0
ENDTAB
  0
TABLE
  2
VIEW
 70
     0
  0
ENDTAB
  0
TABLE
  2
UCS
 70
     0
  0
ENDTAB
  0
TABLE
  2
APPID
 70
     1
  0
APPID
  2
ACAD
 70
     0
  0
ENDTAB
  0
TABLE
  2
DIMSTYLE
 70
     2
  0
DIMSTYLE
  2
ISO-25
 70
     0
  3

  4

  5

  6

  7

 40
1.0
 41
2.5
 42
0.625
 43
3.75
 44
1.25
 45
0.0
 46
0.0
 47
0.0
 48
0.0
140
2.5
141
2.5
142
0.0
143
0.03937007874016
144
1.0
145
0.0
146
1.0
147
0.625
 71
     0
 72
     0
 73
     0
 74
     0
 75
     0
 76
     0
 77
     1
 78
     8
170
     0
171
     3
172
     1
173
     0
174
     0
175
     0
176
     0
177
     0
178
     0
  0
DIMSTYLE
  2
STANDARD
 70
     0
  3

  4

  5

  6
1
  7
1
 40
1.0
 41
1.0
 42
1.0
 43
6.0
 44
1.0
 45
0.0
 46
0.0
 47
0.0
 48
0.0
140
2.5
141
0.0
142
0.0
143
25.399999999999999
144
1.0
145
0.0
146
1.0
147
0.5
 71
     0
 72
     0
 73
     0
 74
     0
 75
     0
 76
     0
 77
     1
 78
     8
170
     0
171
     2
172
     1
173
     1
174
     0
175
     0
176
     0
177
     0
178
     0
  0
ENDTAB
  0
ENDSEC
  0
SECTION
  2
BLOCKS
  0
BLOCK
  8
0
  2
$MODEL_SPACE
 70
     0
 10
0.0
 20
0.0
 30
0.0
  3
$MODEL_SPACE
  1

  0
ENDBLK
  5
21
  8
0
  0
BLOCK
 67
     1
  8
0
  2
$PAPER_SPACE
 70
     0
 10
0.0
 20
0.0
 30
0.0
  3
$PAPER_SPACE
  1

  0
ENDBLK
  5
1D
 67
     1
  8
0
  0
BLOCK
  8
0
  2
1
 70
     0
 10
0.0
 20
0.0
 30
0.0
  3
1
  1

  0
SOLID
  5
2C
  8
0
  6
BYBLOCK
 62
     0
 10
-1.811110924292052
 20
0.4852857095671653
 30
0.0
 11
-1.811110924292052
 21
-0.4852857095673642
 31
0.0
 12
0.0
 22
0.0
 32
0.0
 13
0.0
 23
0.0
 33
0.0
  0
ENDBLK
  5
2E
  8
0
  0
ENDSEC
  0
SECTION
  2
ENTITIES
  0
LINE
  5
4CF6
  8
1外形線
 10
162.91393014905989
 20
37.884226520018267
 30
0.0
 11
142.91393014905989
 21
37.884226520016682
 31
0.0
  0
LINE
  5
4CF7
  8
1外形線
 10
162.91393014905651
 20
79.284226520019729
 30
0.0
 11
142.91393014905651
 21
79.284226520016659
 31
0.0
  0
LINE
  5
4CF8
  8
1外形線
 10
42.411442571474481
 20
266.75718183777951
 30
0.0
 11
168.416417726643
 21
266.75718183777627
 31
0.0
  0
LINE
  5
4CF9
  8
1外形線
 10
42.411442571470502
 20
218.75718183777889
 30
0.0
 11
168.4164177266446
 21
218.75718183777511
 31
0.0
  0
LINE
  5
4CFA
  8
1外形線
 10
167.91766151543649
 20
171.8124351557866
 30
0.0
 11
42.910198782701279
 21
171.81243515578629
 31
0.0
  0
LINE
  5
4CFB
  8
1外形線
 10
168.41641772664249
 20
82.584226520014454
 30
0.0
 11
137.41393014905771
 21
82.584226520014226
 31
0.0
  0
LINE
  5
4CFC
  8
1外形線
 10
179.41393014906319
 20
127.3124351557861
 30
0.0
 11
31.413930149074641
 21
127.3124351557868
 31
0.0
  0
LINE
  5
4CFD
  8
1外形線
 10
168.41641772664519
 20
34.584226520013878
 30
0.0
 11
137.41393014905739
 21
34.584226520013537
 31
0.0
  0
LINE
  5
4CFE
  8
1外形線
 10
179.41393014906311
 20
36.584226520013999
 30
0.0
 11
31.4139301490527
 21
36.584226520012059
 31
0.0
  0
LINE
  5
4CFF
  8
1外形線
 10
179.41393014906311
 20
80.584226520013999
 30
0.0
 11
31.413930149053609
 21
80.584226520014113
 31
0.0
  0
ARC
  5
4D00
  8
1外形線
 10
105.41393014905771
 20
242.75718183777769
 30
0.0
 40
40.0
 50
216.86989764584331
 51
323.1301023541555
  0
LINE
  5
4D01
  8
1外形線
 10
31.413930149057229
 20
36.489214082127774
 30
0.0
 11
31.413930149057251
 21
80.679238957903181
 31
0.0
  0
LINE
  5
4D02
  8
1外形線
 10
46.413930149057251
 20
36.584226520013537
 30
0.0
 11
46.413930149057251
 21
80.584226520014795
 31
0.0
  0
CIRCLE
  5
4D03
  8
1外形線
 10
105.41393014905771
 20
58.584226520013999
 30
0.0
 40
20.0
  0
LINE
  5
4D04
  8
1外形線
 10
42.411442571470502
 20
34.584226520015129
 30
0.0
 11
73.413930149057592
 21
34.584226520014219
 31
0.0
  0
LINE
  5
4D05
  8
1外形線
 10
47.913930149057236
 20
37.884226520013492
 30
0.0
 11
67.913930149057251
 21
37.884226520013492
 31
0.0
  0
LINE
  5
4D06
  8
1外形線
 10
40.421368191050192
 20
34.683482715815437
 30
0.0
 11
32.31442643003151
 21
35.494176891917732
 31
0.0
  0
ARC
  5
4D07
  8
1外形線
 10
32.413930149052703
 20
36.489214082127774
 30
0.0
 40
1.0
 50
179.99999999999869
 51
264.28940686249769
  0
LINE
  5
4D08
  8
1外形線
 10
47.913930149057236
 20
37.884226520013492
 30
0.0
 11
47.913930149057236
 21
36.58422652001309
 31
0.0
  0
ARC
  5
4D09
  8
1外形線
 10
42.411442571471177
 20
54.584226520015129
 30
0.0
 40
20.0
 50
264.28940686249769
 51
269.99999999999829
  0
LINE
  5
4D0A
  8
1外形線
 10
46.413930149057251
 20
46.084226520013999
 30
0.0
 11
32.413930149057251
 21
46.084226520013878
 31
0.0
  0
ARC
  5
4D0B
  8
1外形線
 10
32.413930149057251
 20
47.084226520014447
 30
0.0
 40
1.0
 50
180.0
 51
270.0
  0
LINE
  5
4D0C
  8
1外形線
 10
67.913930149057251
 20
37.884226520013378
 30
0.0
 11
67.913930149057251
 21
36.58422652001309
 31
0.0
  0
ARC
  5
4D0D
  8
1外形線
 10
54.513930149057273
 20
58.584226520019229
 30
0.0
 40
2.0999999999999992
 50
90.0
 51
270.0
  0
ARC
  5
4D0E
  8
1外形線
 10
59.313930149057221
 20
58.584226520019229
 30
0.0
 40
2.0999999999999992
 50
270.0
 51
90.0
  0
LINE
  5
4D0F
  8
1外形線
 10
54.513930149057273
 20
56.48422652001954
 30
0.0
 11
59.313930149057221
 21
56.48422652001954
 31
0.0
  0
LINE
  5
4D10
  8
1外形線
 10
54.513930149057273
 20
60.684226520019479
 30
0.0
 11
59.313930149057221
 21
60.684226520019479
 31
0.0
  0
ARC
  5
4D11
  8
1外形線
 10
105.41393014905771
 20
58.584226520013999
 30
0.0
 40
40.0
 50
216.86989764584331
 51
323.1301023541555
  0
LINE
  5
4D12
  8
1外形線
 10
142.91393014905989
 20
37.884226520016561
 30
0.0
 11
142.91393014905989
 21
36.584226520016273
 31
0.0
  0
LINE
  5
4D13
  8
1外形線
 10
31.413930149074641
 20
127.3124351557868
 30
0.0
 11
31.413930149074641
 21
169.9074475936786
 31
0.0
  0
LINE
  5
4D14
  8
1外形線
 10
42.411442571474481
 20
82.584226520015704
 30
0.0
 11
73.413930149058501
 21
82.584226520014894
 31
0.0
  0
LINE
  5
4D15
  8
1外形線
 10
47.913930149057236
 20
79.28422652001484
 30
0.0
 11
67.913930149057251
 21
79.284226520013476
 31
0.0
  0
LINE
  5
4D16
  8
1外形線
 10
46.413930149057251
 20
71.084226520013999
 30
0.0
 11
32.413930149057251
 21
71.084226520013772
 31
0.0
  0
ARC
  5
4D17
  8
1外形線
 10
32.413930149057251
 20
70.084226520014226
 30
0.0
 40
1.0
 50
90.0
 51
180.0
  0
LINE
  5
4D18
  8
1外形線
 10
40.421368191053823
 20
82.484970324215524
 30
0.0
 11
32.31442643003254
 21
81.674276148113208
 31
0.0
  0
ARC
  5
4D19
  8
1外形線
 10
32.413930149053613
 20
80.679238957903181
 30
0.0
 40
1.0
 50
95.710593137499799
 51
179.99999999999869
  0
LINE
  5
4D1A
  8
1外形線
 10
47.913930149057023
 20
80.584226520015235
 30
0.0
 11
47.913930149057236
 21
79.28422652001484
 31
0.0
  0
ARC
  5
4D1B
  8
1外形線
 10
42.411442571474034
 20
62.584226520015697
 30
0.0
 40
20.0
 50
89.999999999998366
 51
95.710593137499799
  0
LINE
  5
4D1C
  8
1外形線
 10
67.913930149057251
 20
79.284226520013476
 30
0.0
 11
67.913930149057251
 21
80.584226520014909
 31
0.0
  0
ARC
  5
4D1D
  8
1外形線
 10
105.41393014905771
 20
58.584226520013999
 30
0.0
 40
40.0
 50
36.86989764584451
 51
143.1301023541543
  0
LINE
  5
4D1E
  8
1外形線
 10
142.91393014905651
 20
79.284226520016659
 30
0.0
 11
142.91393014905631
 21
80.584226520018092
 31
0.0
  0
LINE
  5
4D1F
  8
1外形線
 10
75.413930149057464
 20
129.6124351557869
 30
0.0
 11
135.4139301490564
 21
129.6124351557865
 31
0.0
  0
LINE
  5
4D20
  8
1外形線
 10
73.413930149057464
 20
127.6124351557869
 30
0.0
 11
73.413930149057464
 21
127.3124351557868
 31
0.0
  0
ARC
  5
4D21
  8
1外形線
 10
75.413930149057464
 20
127.6124351557869
 30
0.0
 40
2.0
 50
90.0
 51
179.9999999999996
  0
LINE
  5
4D22
  8
1外形線
 10
137.4139301490564
 20
127.6124351557869
 30
0.0
 11
137.4139301490564
 21
127.3124351557868
 31
0.0
  0
ARC
  5
4D23
  8
1外形線
 10
135.4139301490564
 20
127.6124351557869
 30
0.0
 40
2.0
 50
0.0000000000004071
 51
90.0
  0
LINE
  5
4D24
  8
1外形線
 10
39.925087212071503
 20
171.66355086209049
 30
0.0
 11
32.314426430053793
 21
170.9024847838887
 31
0.0
  0
ARC
  5
4D25
  8
1外形線
 10
32.413930149074872
 20
169.90744759367871
 30
0.0
 40
1.0
 50
95.710593137499799
 51
180.0
  0
ARC
  5
4D26
  8
1外形線
 10
42.910198782701507
 20
141.81243515579089
 30
0.0
 40
30.0
 50
90.0
 51
95.710593137499799
  0
LINE
  5
4D27
  8
1外形線
 10
31.413930149053609
 20
264.8521942756671
 30
0.0
 11
31.4139301490527
 21
220.6621693998915
 31
0.0
  0
LINE
  5
4D28
  8
1外形線
 10
40.421368191050192
 20
218.8564380335792
 30
0.0
 11
32.31442643003151
 21
219.66713220968151
 31
0.0
  0
ARC
  5
4D29
  8
1外形線
 10
32.413930149052703
 20
220.6621693998915
 30
0.0
 40
1.0
 50
179.99999999999869
 51
264.28940686249769
  0
ARC
  5
4D2A
  8
1外形線
 10
42.411442571471177
 20
238.75718183777889
 30
0.0
 40
20.0
 50
264.28940686249769
 51
269.99999999999829
  0
ARC
  5
4D2B
  8
1外形線
 10
32.413930149053613
 20
264.85219427566688
 30
0.0
 40
1.0
 50
95.710593137499799
 51
179.99999999999869
  0
LINE
  5
4D2C
  8
1外形線
 10
40.421368191053823
 20
266.65792564197932
 30
0.0
 11
32.31442643003254
 21
265.84723146587697
 31
0.0
  0
ARC
  5
4D2D
  8
1外形線
 10
42.411442571474034
 20
246.75718183777951
 30
0.0
 40
20.0
 50
89.999999999998366
 51
95.710593137499799
  0
ARC
  5
4D2E
  8
1外形線
 10
105.41393014905771
 20
242.75718183777769
 30
0.0
 40
40.0
 50
36.86989764584451
 51
143.1301023541543
  0
LINE
  5
4D2F
  8
1外形線
 10
164.41393014905989
 20
36.584226520018547
 30
0.0
 11
164.4139301490568
 21
80.584226520019925
 31
0.0
  0
LINE
  5
4D30
  8
1外形線
 10
179.4139301490591
 20
36.489214082126217
 30
0.0
 11
179.41393014905711
 21
80.679238957901759
 31
0.0
  0
LINE
  5
4D31
  8
1外形線
 10
164.41393014905921
 20
46.084226520019001
 30
0.0
 11
178.41393014905901
 21
46.084226520020017
 31
0.0
  0
LINE
  5
4D32
  8
1外形線
 10
162.91393014905989
 20
37.884226520018267
 30
0.0
 11
162.91393014905989
 21
36.584226520017857
 31
0.0
  0
LINE
  5
4D33
  8
1外形線
 10
170.4064921070657
 20
34.68348271581408
 30
0.0
 11
178.51343386808429
 21
35.494176891916247
 31
0.0
  0
ARC
  5
4D34
  8
1外形線
 10
168.41641772664519
 20
54.584226520013878
 30
0.0
 40
20.0
 50
270.0000000000008
 51
275.71059313750141
  0
ARC
  5
4D35
  8
1外形線
 10
178.41393014906311
 20
36.489214082126182
 30
0.0
 40
1.0
 50
275.71059313750061
 51
0.0
  0
ARC
  5
4D36
  8
1外形線
 10
178.41393014905901
 20
47.084226520020593
 30
0.0
 40
1.0
 50
270.00000000000489
 51
0.0000000000048853
  0
ARC
  5
4D37
  8
1外形線
 10
151.5139301490627
 20
58.584226520019229
 30
0.0
 40
2.0999999999999992
 50
90.0
 51
270.0
  0
ARC
  5
4D38
  8
1外形線
 10
156.3139301490626
 20
58.584226520019229
 30
0.0
 40
2.0999999999999992
 50
270.0
 51
90.0
  0
LINE
  5
4D39
  8
1外形線
 10
156.3139301490626
 20
56.48422652001954
 30
0.0
 11
151.5139301490627
 21
56.48422652001954
 31
0.0
  0
LINE
  5
4D3A
  8
1外形線
 10
156.3139301490626
 20
60.684226520019479
 30
0.0
 11
151.5139301490627
 21
60.684226520019479
 31
0.0
  0
LINE
  5
4D3B
  8
1外形線
 10
213.18115589933399
 20
127.3124351557869
 30
0.0
 11
213.18115589933399
 21
147.8124351557864
 31
0.0
  0
LINE
  5
4D3C
  8
1外形線
 10
215.18115589933399
 20
147.8124351557864
 30
0.0
 11
215.18115589933399
 21
127.3124351557864
 31
0.0
  0
LINE
  5
4D3D
  8
1外形線
 10
259.18115589933399
 20
147.8124351557864
 30
0.0
 11
259.18115589933382
 21
127.3124351557864
 31
0.0
  0
LINE
  5
4D3E
  8
1外形線
 10
261.18115589933399
 20
127.3124351557867
 30
0.0
 11
261.18115589933399
 21
147.8124351557864
 31
0.0
  0
LINE
  5
4D3F
  8
1外形線
 10
179.41393014906311
 20
127.3124351557868
 30
0.0
 11
179.41393014906311
 21
169.9074475936786
 31
0.0
  0
LINE
  5
4D40
  8
1外形線
 10
237.18115589933399
 20
131.81243515578711
 30
0.0
 11
226.18115589933501
 21
131.81243515578711
 31
0.0
  0
LINE
  5
4D41
  8
1外形線
 10
259.18115589933592
 20
127.3124351557874
 30
0.0
 11
215.1811558993347
 21
127.31243515578591
 31
0.0
  0
LINE
  5
4D42
  8
1外形線
 10
249.68115589933501
 20
129.812435155787
 30
0.0
 11
224.68115589933501
 21
129.81243515578711
 31
0.0
  0
LINE
  5
4D43
  8
1外形線
 10
249.68115589933501
 20
130.812435155787
 30
0.0
 11
224.68115589933501
 21
130.812435155787
 31
0.0
  0
LINE
  5
4D44
  8
1外形線
 10
277.18115589933439
 20
127.3124351557868
 30
0.0
 11
213.6811558993335
 21
127.3124351557864
 31
0.0
  0
LINE
  5
4D45
  8
1外形線
 10
197.18115589933311
 20
127.3124351557868
 30
0.0
 11
260.68115589933439
 21
127.3124351557864
 31
0.0
  0
LINE
  5
4D46
  8
1外形線
 10
164.41393014905699
 20
71.084226520019001
 30
0.0
 11
178.41393014905699
 21
71.084226520019911
 31
0.0
  0
LINE
  5
4D47
  8
1外形線
 10
162.91393014905631
 20
80.584226520020124
 30
0.0
 11
162.91393014905651
 21
79.284226520019729
 31
0.0
  0
ARC
  5
4D48
  8
1外形線
 10
178.41393014905719
 20
70.084226520020366
 30
0.0
 40
1.0
 50
0.0000000000048853
 51
90.000000000004874
  0
LINE
  5
4D49
  8
1外形線
 10
170.406492107063
 20
82.484970324214146
 30
0.0
 11
178.51343386808429
 21
81.674276148111744
 31
0.0
  0
ARC
  5
4D4A
  8
1外形線
 10
168.41641772664249
 20
62.584226520014461
 30
0.0
 40
20.0
 50
84.289406862498566
 51
90.0
  0
ARC
  5
4D4B
  8
1外形線
 10
178.41393014906311
 20
80.679238957901717
 30
0.0
 40
1.0
 50
0.0
 51
84.289406862498566
  0
LINE
  5
4D4C
  8
1外形線
 10
199.18115589933331
 20
129.6124351557869
 30
0.0
 11
213.18115589933399
 21
129.6124351557867
 31
0.0
  0
ARC
  5
4D4D
  8
1外形線
 10
199.18115589933331
 20
127.6124351557869
 30
0.0
 40
2.0
 50
90.0
 51
179.9999999999996
  0
LINE
  5
4D4E
  8
1外形線
 10
197.18115589933331
 20
127.6124351557869
 30
0.0
 11
197.18115589933331
 21
127.3124351557868
 31
0.0
  0
LINE
  5
4D4F
  8
1外形線
 10
218.68115589933461
 20
133.31243515578711
 30
0.0
 11
218.68115589933461
 21
135.601110290382
 31
0.0
  0
LINE
  5
4D50
  8
1外形線
 10
213.18115589933399
 20
127.3124351557867
 30
0.0
 11
213.6811558993335
 21
127.3124351557864
 31
0.0
  0
LINE
  5
4D51
  8
1外形線
 10
224.68115589933501
 20
133.312435155787
 30
0.0
 11
224.68115589933501
 21
129.81243515578711
 31
0.0
  0
LINE
  5
4D52
  8
1外形線
 10
226.18115589933501
 20
133.312435155787
 30
0.0
 11
226.18115589933501
 21
131.81243515578711
 31
0.0
  0
LINE
  5
4D53
  8
1外形線
 10
226.1811558993349
 20
133.3124351557872
 30
0.0
 11
218.68115589933461
 21
133.31243515578711
 31
0.0
  0
LINE
  5
4D54
  8
1外形線
 10
215.18115589933461
 20
135.31243515578711
 30
0.0
 11
217.18115589933461
 21
136.46713569416639
 31
0.0
  0
ARC
  5
4D55
  8
1外形線
 10
217.68115589933461
 20
135.601110290382
 30
0.0
 40
1.0
 50
0.0
 51
120.0
  0
LINE
  5
4D56
  8
1外形線
 10
275.18115589933439
 20
129.6124351557869
 30
0.0
 11
261.18115589933399
 21
129.6124351557867
 31
0.0
  0
LINE
  5
4D57
  8
1外形線
 10
248.18115589933501
 20
131.81243515578711
 30
0.0
 11
237.18115589933399
 21
131.81243515578711
 31
0.0
  0
LINE
  5
4D58
  8
1外形線
 10
255.68115589933589
 20
133.31243515578711
 30
0.0
 11
255.68115589933589
 21
135.601110290382
 31
0.0
  0
LINE
  5
4D59
  8
1外形線
 10
249.68115589933501
 20
133.31243515578711
 30
0.0
 11
249.68115589933501
 21
129.81243515578711
 31
0.0
  0
LINE
  5
4D5A
  8
1外形線
 10
248.18115589933501
 20
133.31243515578711
 30
0.0
 11
248.18115589933501
 21
131.81243515578711
 31
0.0
  0
LINE
  5
4D5B
  8
1外形線
 10
255.68115589933589
 20
133.31243515578711
 30
0.0
 11
248.18115589933501
 21
133.312435155787
 31
0.0
  0
ARC
  5
4D5C
  8
1外形線
 10
256.68115589933592
 20
135.601110290382
 30
0.0
 40
1.0
 50
60.000000000000071
 51
180.0
  0
LINE
  5
4D5D
  8
1外形線
 10
259.18115589933592
 20
135.31243515578711
 30
0.0
 11
257.18115589933592
 21
136.46713569416639
 31
0.0
  0
LINE
  5
4D5E
  8
1外形線
 10
259.18115589933592
 20
135.31243515578711
 30
0.0
 11
257.18115589933592
 21
136.46713569416639
 31
0.0
  0
ARC
  5
4D5F
  8
1外形線
 10
275.18115589933439
 20
127.6124351557867
 30
0.0
 40
2.0
 50
0.0000000000004071
 51
90.0
  0
LINE
  5
4D60
  8
1外形線
 10
277.18115589933439
 20
127.6124351557869
 30
0.0
 11
277.18115589933439
 21
127.3124351557868
 31
0.0
  0
ARC
  5
4D61
  8
1外形線
 10
237.18115589933399
 20
147.8124351557866
 30
0.0
 40
24.0
 50
0.0
 51
180.0
  0
ARC
  5
4D62
  8
1外形線
 10
237.18115589933399
 20
147.8124351557866
 30
0.0
 40
22.0
 50
0.0
 51
180.0
  0
LINE
  5
4D63
  8
1外形線
 10
170.90277308606639
 20
171.66355086209049
 30
0.0
 11
178.51343386808409
 21
170.9024847838887
 31
0.0
  0
ARC
  5
4D64
  8
1外形線
 10
178.41393014906311
 20
169.90744759367871
 30
0.0
 40
1.0
 50
0.0
 51
84.289406862500215
  0
ARC
  5
4D65
  8
1外形線
 10
167.91766151543649
 20
141.81243515579089
 30
0.0
 40
30.0
 50
84.289406862500215
 51
90.0
  0
LINE
  5
4D66
  8
1外形線
 10
179.41393014906311
 20
264.85219427566551
 30
0.0
 11
179.41393014906311
 21
220.6621693998899
 31
0.0
  0
LINE
  5
4D67
  8
1外形線
 10
170.4064921070657
 20
218.8564380335778
 30
0.0
 11
178.51343386808429
 21
219.66713220968001
 31
0.0
  0
ARC
  5
4D68
  8
1外形線
 10
168.41641772664519
 20
238.75718183777761
 30
0.0
 40
20.0
 50
270.0000000000008
 51
275.71059313750141
  0
ARC
  5
4D69
  8
1外形線
 10
178.41393014906311
 20
220.6621693998899
 30
0.0
 40
1.0
 50
275.71059313750061
 51
0.0
  0
ARC
  5
4D6A
  8
1外形線
 10
178.41393014906311
 20
264.85219427566551
 30
0.0
 40
1.0
 50
0.0
 51
84.289406862498566
  0
LINE
  5
4D6B
  8
1外形線
 10
170.406492107063
 20
266.6579256419779
 30
0.0
 11
178.51343386808429
 21
265.8472314658755
 31
0.0
  0
ARC
  5
4D6C
  8
1外形線
 10
168.41641772664249
 20
246.75718183777821
 30
0.0
 40
20.0
 50
84.289406862498566
 51
90.0
  0
ENDSEC
  0
EOF
