  0
SECTION
  2
HEADER
  9
$ACADVER
  1
AC1009
  9
$INSBASE
 10
0.0
 20
0.0
 30
0.0
  9
$EXTMIN
 10
24.99622914499696
 20
-25.750029856048059
 30
-0.0015258207003583
  9
$EXTMAX
 10
615.43703137683963
 20
408.08463664145091
 30
0.0000000349246037
  9
$LIMMIN
 10
0.0
 20
0.0
  9
$LIMMAX
 10
420.0
 20
297.0
  9
$ORTHOMODE
 70
     0
  9
$REGENMODE
 70
     1
  9
$FILLMODE
 70
     1
  9
$QTEXTMODE
 70
     0
  9
$MIRRTEXT
 70
     1
  9
$DRAGMODE
 70
     2
  9
$LTSCALE
 40
1.0
  9
$OSMODE
 70
    37
  9
$ATTMODE
 70
     1
  9
$TEXTSIZE
 40
2.5
  9
$TRACEWID
 40
1.0
  9
$TEXTSTYLE
  7
STANDARD
  9
$CLAYER
  8
0
  9
$CELTYPE
  6
BYLAYER
  9
$CECOLOR
 62
   256
  9
$DIMSCALE
 40
1.0
  9
$DIMASZ
 40
2.5
  9
$DIMEXO
 40
0.625
  9
$DIMDLI
 40
3.75
  9
$DIMRND
 40
0.0
  9
$DIMDLE
 40
0.0
  9
$DIMEXE
 40
1.25
  9
$DIMTP
 40
0.0
  9
$DIMTM
 40
0.0
  9
$DIMTXT
 40
2.5
  9
$DIMCEN
 40
2.5
  9
$DIMTSZ
 40
0.0
  9
$DIMTOL
 70
     0
  9
$DIMLIM
 70
     0
  9
$DIMTIH
 70
     0
  9
$DIMTOH
 70
     0
  9
$DIMSE1
 70
     0
  9
$DIMSE2
 70
     0
  9
$DIMTAD
 70
     1
  9
$DIMZIN
 70
     8
  9
$DIMBLK
  1

  9
$DIMASO
 70
     1
  9
$DIMSHO
 70
     1
  9
$DIMPOST
  1

  9
$DIMAPOST
  1

  9
$DIMALT
 70
     0
  9
$DIMALTD
 70
     3
  9
$DIMALTF
 40
0.03937007874016
  9
$DIMLFAC
 40
1.0
  9
$DIMTOFL
 70
     1
  9
$DIMTVP
 40
0.0
  9
$DIMTIX
 70
     0
  9
$DIMSOXD
 70
     0
  9
$DIMSAH
 70
     0
  9
$DIMBLK1
  1

  9
$DIMBLK2
  1

  9
$DIMSTYLE
  2
ISO-25
  9
$DIMCLRD
 70
     0
  9
$DIMCLRE
 70
     0
  9
$DIMCLRT
 70
     0
  9
$DIMTFAC
 40
1.0
  9
$DIMGAP
 40
0.625
  9
$LUNITS
 70
     2
  9
$LUPREC
 70
     4
  9
$SKETCHINC
 40
1.0
  9
$FILLETRAD
 40
10.0
  9
$AUNITS
 70
     0
  9
$AUPREC
 70
     0
  9
$MENU
  1
.
  9
$ELEVATION
 40
0.0
  9
$PELEVATION
 40
0.0
  9
$THICKNESS
 40
0.0
  9
$LIMCHECK
 70
     0
  9
$BLIPMODE
 70
     0
  9
$CHAMFERA
 40
10.0
  9
$CHAMFERB
 40
10.0
  9
$SKPOLY
 70
     0
  9
$TDCREATE
 40
2452048.587873715
  9
$TDUPDATE
 40
2452048.6016325001
  9
$TDINDWG
 40
0.0137606366
  9
$TDUSRTIMER
 40
0.0137606366
  9
$USRTIMER
 70
     1
  9
$ANGBASE
 50
0.0
  9
$ANGDIR
 70
     0
  9
$PDMODE
 70
     0
  9
$PDSIZE
 40
0.0
  9
$PLINEWID
 40
0.0
  9
$COORDS
 70
     1
  9
$SPLFRAME
 70
     0
  9
$SPLINETYPE
 70
     6
  9
$SPLINESEGS
 70
     8
  9
$ATTDIA
 70
     0
  9
$ATTREQ
 70
     1
  9
$HANDLING
 70
-16383
  9
$HANDSEED
  5
4E99
  9
$SURFTAB1
 70
     6
  9
$SURFTAB2
 70
     6
  9
$SURFTYPE
 70
     6
  9
$SURFU
 70
     6
  9
$SURFV
 70
     6
  9
$UCSNAME
  2

  9
$UCSORG
 10
0.0
 20
0.0
 30
0.0
  9
$UCSXDIR
 10
1.0
 20
0.0
 30
0.0
  9
$UCSYDIR
 10
0.0
 20
1.0
 30
0.0
  9
$PUCSNAME
  2

  9
$PUCSORG
 10
0.0
 20
0.0
 30
0.0
  9
$PUCSXDIR
 10
1.0
 20
0.0
 30
0.0
  9
$PUCSYDIR
 10
0.0
 20
1.0
 30
0.0
  9
$USERI1
 70
     0
  9
$USERI2
 70
     0
  9
$USERI3
 70
     0
  9
$USERI4
 70
     0
  9
$USERI5
 70
     0
  9
$USERR1
 40
0.0
  9
$USERR2
 40
0.0
  9
$USERR3
 40
0.0
  9
$USERR4
 40
0.0
  9
$USERR5
 40
0.0
  9
$WORLDVIEW
 70
     1
  9
$SHADEDGE
 70
     3
  9
$SHADEDIF
 70
    70
  9
$TILEMODE
 70
     1
  9
$MAXACTVP
 70
    64
  9
$PLIMCHECK
 70
     0
  9
$PEXTMIN
 10
1.0000000000000000E+020
 20
1.0000000000000000E+020
 30
1.0000000000000000E+020
  9
$PEXTMAX
 10
-1.0000000000000000E+020
 20
-1.0000000000000000E+020
 30
-1.0000000000000000E+020
  9
$PLIMMIN
 10
0.0
 20
0.0
  9
$PLIMMAX
 10
420.0
 20
297.0
  9
$UNITMODE
 70
     0
  9
$VISRETAIN
 70
     1
  9
$PLINEGEN
 70
     0
  9
$PSLTSCALE
 70
     1
  0
ENDSEC
  0
SECTION
  2
TABLES
  0
TABLE
  2
VPORT
 70
    26
  0
VPORT
  2
*ACTIVE
 70
     0
 10
0.0
 20
0.0
 11
1.0
 21
1.0
 12
243.19809294536361
 22
20.724196922940902
 13
0.0
 23
0.0
 14
10.0
 24
10.0
 15
10.0
 25
10.0
 16
0.0
 26
0.0
 36
1.0
 17
0.0
 27
0.0
 37
0.0
 40
1136.324782680095
 41
0.8452830188679245
 42
50.0
 43
0.0
 44
0.0
 50
0.0
 51
0.0
 71
     0
 72
   100
 73
     1
 74
     3
 75
     0
 76
     0
 77
     0
 78
     0
  0
ENDTAB
  0
TABLE
  2
LTYPE
 70
     1
  0
LTYPE
  2
CONTINUOUS
 70
     0
  3
Solid line
 72
    65
 73
     0
 40
0.0
  0
ENDTAB
  0
TABLE
  2
LAYER
 70
     2
  0
LAYER
  2
0
 70
     0
 62
     7
  6
CONTINUOUS
  0
LAYER
  2
1外形線
 70
     0
 62
     3
  6
CONTINUOUS
  0
ENDTAB
  0
TABLE
  2
STYLE
 70
     2
  0
STYLE
  2
STANDARD
 70
     0
 40
0.0
 41
1.0
 50
0.0
 71
     0
 42
2.5
  3
txt
  4

  0
STYLE
  2
KANJI
 70
     0
 40
0.0
 41
1.0
 50
0.0
 71
     0
 42
10.0
  3
simplex
  4
bigfont
  0
ENDTAB
  0
TABLE
  2
VIEW
 70
     0
  0
ENDTAB
  0
TABLE
  2
UCS
 70
     0
  0
ENDTAB
  0
TABLE
  2
APPID
 70
     1
  0
APPID
  2
ACAD
 70
     0
  0
ENDTAB
  0
TABLE
  2
DIMSTYLE
 70
     2
  0
DIMSTYLE
  2
ISO-25
 70
     0
  3

  4

  5

  6

  7

 40
1.0
 41
2.5
 42
0.625
 43
3.75
 44
1.25
 45
0.0
 46
0.0
 47
0.0
 48
0.0
140
2.5
141
2.5
142
0.0
143
0.03937007874016
144
1.0
145
0.0
146
1.0
147
0.625
 71
     0
 72
     0
 73
     0
 74
     0
 75
     0
 76
     0
 77
     1
 78
     8
170
     0
171
     3
172
     1
173
     0
174
     0
175
     0
176
     0
177
     0
178
     0
  0
DIMSTYLE
  2
STANDARD
 70
     0
  3

  4

  5

  6
1
  7
1
 40
1.0
 41
1.0
 42
1.0
 43
6.0
 44
1.0
 45
0.0
 46
0.0
 47
0.0
 48
0.0
140
2.5
141
0.0
142
0.0
143
25.399999999999999
144
1.0
145
0.0
146
1.0
147
0.5
 71
     0
 72
     0
 73
     0
 74
     0
 75
     0
 76
     0
 77
     1
 78
     8
170
     0
171
     2
172
     1
173
     1
174
     0
175
     0
176
     0
177
     0
178
     0
  0
ENDTAB
  0
ENDSEC
  0
SECTION
  2
BLOCKS
  0
BLOCK
  8
0
  2
$MODEL_SPACE
 70
     0
 10
0.0
 20
0.0
 30
0.0
  3
$MODEL_SPACE
  1

  0
ENDBLK
  5
21
  8
0
  0
BLOCK
 67
     1
  8
0
  2
$PAPER_SPACE
 70
     0
 10
0.0
 20
0.0
 30
0.0
  3
$PAPER_SPACE
  1

  0
ENDBLK
  5
1D
 67
     1
  8
0
  0
BLOCK
  8
0
  2
1
 70
     0
 10
0.0
 20
0.0
 30
0.0
  3
1
  1

  0
SOLID
  5
2C
  8
0
  6
BYBLOCK
 62
     0
 10
-1.811110924292052
 20
0.4852857095671653
 30
0.0
 11
-1.811110924292052
 21
-0.4852857095673642
 31
0.0
 12
0.0
 22
0.0
 32
0.0
 13
0.0
 23
0.0
 33
0.0
  0
ENDBLK
  5
2E
  8
0
  0
ENDSEC
  0
SECTION
  2
ENTITIES
  0
ARC
  5
4E05
  8
1外形線
 10
128.66703839261069
 20
81.424054277776463
 30
0.0
 40
50.0
 50
226.88685117226871
 51
313.11314882773121
  0
LINE
  5
4E06
  8
1外形線
 10
94.314309243386219
 20
45.924054277776342
 30
0.0
 11
163.01976754183519
 21
45.924054277776342
 31
0.0
  0
LINE
  5
4E07
  8
1外形線
 10
97.713686393191097
 20
42.924054277776349
 30
0.0
 11
159.62039039203029
 21
42.924054277776349
 31
0.0
  0
LINE
  5
4E08
  8
1外形線
 10
95.378752164569619
 20
44.924054277776349
 30
0.0
 11
161.95532462065179
 21
44.924054277776349
 31
0.0
  0
LINE
  5
4E09
  8
1外形線
 10
50.667038392607083
 20
46.924054277776349
 30
0.0
 11
206.66703839261439
 21
46.924054277776307
 31
0.0
  0
LINE
  5
4E0A
  8
1外形線
 10
97.713686393191097
 20
119.92405427777619
 30
0.0
 11
159.62039039203029
 21
119.92405427777619
 31
0.0
  0
LINE
  5
4E0B
  8
1外形線
 10
95.378752164569619
 20
117.92405427777619
 30
0.0
 11
161.95532462065179
 21
117.92405427777619
 31
0.0
  0
LINE
  5
4E0C
  8
1外形線
 10
94.314309243386219
 20
116.92405427777619
 30
0.0
 11
163.01976754183519
 21
116.92405427777619
 31
0.0
  0
LINE
  5
4E0D
  8
1外形線
 10
50.667038392607083
 20
115.92405427777619
 30
0.0
 11
206.66703839261439
 21
115.92405427777619
 31
0.0
  0
ARC
  5
4E0E
  8
1外形線
 10
128.66703839261069
 20
81.424054277776122
 30
0.0
 40
50.0
 50
46.886851172268727
 51
133.11314882773121
  0
LINE
  5
4E0F
  8
1外形線
 10
160.83910443628289
 20
162.16705232690211
 30
0.0
 11
96.494972348938518
 21
162.16705232690211
 31
0.0
  0
LINE
  5
4E10
  8
1外形線
 10
206.6670383926147
 20
159.8670523269021
 30
0.0
 11
50.667038392607189
 21
159.8670523269021
 31
0.0
  0
LINE
  5
4E11
  8
1外形線
 10
191.67947628052599
 20
225.8670523269019
 30
0.0
 11
65.654600504695622
 21
225.8670523269019
 31
0.0
  0
CIRCLE
  5
4E12
  8
1外形線
 10
128.66703839261069
 20
81.424054277776122
 30
0.0
 40
30.0
  0
ARC
  5
4E13
  8
1外形線
 10
79.067038392609902
 20
101.42405427777361
 30
0.0
 40
2.0999999999999992
 50
270.0
 51
90.0
  0
ARC
  5
4E14
  8
1外形線
 10
74.267038392609933
 20
101.42405427777361
 30
0.0
 40
2.0999999999999992
 50
90.0
 51
270.0
  0
LINE
  5
4E15
  8
1外形線
 10
50.667038392608902
 20
116.0193393489869
 30
0.0
 11
50.667038392608902
 21
46.828769206565653
 31
0.0
  0
LINE
  5
4E16
  8
1外形線
 10
65.667038392608902
 20
46.924054277776349
 30
0.0
 11
65.667038392609072
 21
115.92405427777619
 31
0.0
  0
LINE
  5
4E17
  8
1外形線
 10
74.267038392609933
 20
99.324054277773826
 30
0.0
 11
79.067038392609902
 21
99.324054277773826
 31
0.0
  0
LINE
  5
4E18
  8
1外形線
 10
74.267038392609933
 20
59.32405427777848
 30
0.0
 11
79.067038392609902
 21
59.32405427777843
 31
0.0
  0
LINE
  5
4E19
  8
1外形線
 10
74.267038392609933
 20
63.524054277778419
 30
0.0
 11
79.067038392609902
 21
63.524054277778419
 31
0.0
  0
LINE
  5
4E1A
  8
1外形線
 10
74.267038392609933
 20
79.324054277778487
 30
0.0
 11
79.067038392609902
 21
79.32405427777843
 31
0.0
  0
LINE
  5
4E1B
  8
1外形線
 10
74.267038392609933
 20
83.524054277778419
 30
0.0
 11
79.067038392609902
 21
83.524054277778419
 31
0.0
  0
LINE
  5
4E1C
  8
1外形線
 10
67.167038392608902
 20
49.224054277776133
 30
0.0
 11
97.167038392611644
 21
49.224054277775849
 31
0.0
  0
LINE
  5
4E1D
  8
1外形線
 10
94.494972348938518
 20
44.92378164445352
 30
0.0
 11
65.654600504695622
 21
44.92378164445352
 31
0.0
  0
ARC
  5
4E1E
  8
1外形線
 10
51.667038392607189
 20
46.828769206565653
 30
0.0
 40
1.0
 50
180.0
 51
264.28940686249928
  0
ARC
  5
4E1F
  8
1外形線
 10
65.654600504695622
 20
144.9237816444535
 30
0.0
 40
100.0
 50
264.28940686249928
 51
270.0
  0
LINE
  5
4E20
  8
1外形線
 10
55.704228602595443
 20
45.420062623454733
 30
0.0
 11
51.56753467358601
 21
45.833732016355611
 31
0.0
  0
LINE
  5
4E21
  8
1外形線
 10
65.667038392608902
 20
60.424054277776463
 30
0.0
 11
51.667038392608902
 21
60.424054277776349
 31
0.0
  0
ARC
  5
4E22
  8
1外形線
 10
51.667038392609008
 20
61.424054277776797
 30
0.0
 40
1.0
 50
180.0
 51
270.0
  0
LINE
  5
4E23
  8
1外形線
 10
67.167038392608902
 20
49.224054277776133
 30
0.0
 11
67.167038392609072
 21
46.924054277776349
 31
0.0
  0
ARC
  5
4E24
  8
1外形線
 10
74.267038392609933
 20
61.42405427777863
 30
0.0
 40
2.0999999999999992
 50
90.0
 51
270.0
  0
ARC
  5
4E25
  8
1外形線
 10
74.267038392609933
 20
81.424054277778623
 30
0.0
 40
2.0999999999999992
 50
90.0
 51
270.0
  0
LINE
  5
4E26
  8
1外形線
 10
65.667038392608902
 20
102.4240542777756
 30
0.0
 11
51.667038392608902
 21
102.4240542777757
 31
0.0
  0
ARC
  5
4E27
  8
1外形線
 10
51.667038392608902
 20
101.4240542777753
 30
0.0
 40
1.0
 50
90.0
 51
180.0
  0
ARC
  5
4E28
  8
1外形線
 10
128.66703839261069
 20
81.424054277776463
 30
0.0
 40
49.399999999999999
 50
225.9409491776803
 51
231.20130409659231
  0
LINE
  5
4E29
  8
1外形線
 10
97.167038392611644
 20
49.224054277775849
 30
0.0
 11
97.167038392611573
 21
46.924054277776349
 31
0.0
  0
ARC
  5
4E2A
  8
1外形線
 10
79.067038392609902
 20
61.42405427777863
 30
0.0
 40
2.0999999999999992
 50
270.0
 51
90.0
  0
ARC
  5
4E2B
  8
1外形線
 10
79.067038392609902
 20
81.424054277778623
 30
0.0
 40
2.0999999999999992
 50
270.0
 51
90.0
  0
LINE
  5
4E2C
  8
1外形線
 10
50.667038392607189
 20
223.9620647647898
 30
0.0
 11
50.667038392607189
 21
159.8670523269021
 31
0.0
  0
LINE
  5
4E2D
  8
1外形線
 10
74.267038392609933
 20
103.5240542777737
 30
0.0
 11
79.067038392609902
 21
103.5240542777738
 31
0.0
  0
LINE
  5
4E2E
  8
1外形線
 10
67.167038392608902
 20
113.6240542777761
 30
0.0
 11
97.167038392611644
 21
113.6240542777763
 31
0.0
  0
LINE
  5
4E2F
  8
1外形線
 10
94.494972348938518
 20
117.924326911099
 30
0.0
 11
65.654600504695622
 21
117.924326911099
 31
0.0
  0
ARC
  5
4E30
  8
1外形線
 10
65.654600504695622
 20
17.924326911099001
 30
0.0
 40
100.0
 50
90.0
 51
95.710593137500595
  0
ARC
  5
4E31
  8
1外形線
 10
51.667038392607189
 20
116.0193393489869
 30
0.0
 40
1.0
 50
95.710593137500595
 51
180.0
  0
LINE
  5
4E32
  8
1外形線
 10
55.704228602595443
 20
117.4280459320978
 30
0.0
 11
51.56753467358601
 21
117.0143765391969
 31
0.0
  0
LINE
  5
4E33
  8
1外形線
 10
67.167038392608902
 20
113.6240542777761
 30
0.0
 11
67.167038392609072
 21
115.92405427777619
 31
0.0
  0
LINE
  5
4E34
  8
1外形線
 10
97.167038392611644
 20
113.6240542777763
 30
0.0
 11
97.167038392611573
 21
115.92405427777619
 31
0.0
  0
ARC
  5
4E35
  8
1外形線
 10
128.66703839261069
 20
81.424054277776122
 30
0.0
 40
49.399999999999999
 50
128.79869590340769
 51
134.05905082231951
  0
ARC
  5
4E36
  8
1外形線
 10
96.494972348938518
 20
160.16705232690211
 30
0.0
 40
2.0
 50
90.0
 51
180.0
  0
LINE
  5
4E37
  8
1外形線
 10
94.494972348938518
 20
160.16705232690211
 30
0.0
 11
94.494972348938518
 21
159.8670523269021
 31
0.0
  0
ARC
  5
4E38
  8
1外形線
 10
65.654600504695395
 20
125.8670523269018
 30
0.0
 40
100.0
 50
90.0
 51
95.710593137500595
  0
ARC
  5
4E39
  8
1外形線
 10
51.667038392606969
 20
223.9620647647898
 30
0.0
 40
1.0
 50
95.710593137500595
 51
180.0
  0
LINE
  5
4E3A
  8
1外形線
 10
55.704228602595208
 20
225.3707713479007
 30
0.0
 11
51.567534673585783
 21
224.95710195499981
 31
0.0
  0
LINE
  5
4E3B
  8
1外形線
 10
191.6670383926126
 20
46.924054277776307
 30
0.0
 11
191.6670383926124
 21
115.92405427777619
 31
0.0
  0
LINE
  5
4E3C
  8
1外形線
 10
206.66703839261251
 20
116.0193393489869
 30
0.0
 11
206.66703839261251
 21
46.828769206565653
 31
0.0
  0
ARC
  5
4E3D
  8
1外形線
 10
183.06703839261149
 20
101.42405427777361
 30
0.0
 40
2.0999999999999992
 50
270.0
 51
90.0
  0
ARC
  5
4E3E
  8
1外形線
 10
178.26703839261151
 20
101.42405427777361
 30
0.0
 40
2.0999999999999992
 50
90.0
 51
270.0
  0
ARC
  5
4E3F
  8
1外形線
 10
191.67947628052599
 20
144.9237816444535
 30
0.0
 40
100.0
 50
270.0
 51
275.71059313750061
  0
LINE
  5
4E40
  8
1外形線
 10
191.66703839261251
 20
60.424054277776463
 30
0.0
 11
205.66703839261251
 21
60.424054277776349
 31
0.0
  0
LINE
  5
4E41
  8
1外形線
 10
191.67947628052599
 20
44.923781644453577
 30
0.0
 11
162.83910443628301
 21
44.923781644453577
 31
0.0
  0
ARC
  5
4E42
  8
1外形線
 10
128.66703839261069
 20
81.424054277776463
 30
0.0
 40
49.399999999999999
 50
308.79869590340758
 51
314.05905082231948
  0
LINE
  5
4E43
  8
1外形線
 10
190.16703839261251
 20
49.224054277776133
 30
0.0
 11
160.16703839260981
 21
49.224054277775849
 31
0.0
  0
ARC
  5
4E44
  8
1外形線
 10
178.26703839261151
 20
61.42405427777863
 30
0.0
 40
2.0999999999999992
 50
90.0
 51
270.0
  0
LINE
  5
4E45
  8
1外形線
 10
160.16703839260981
 20
49.224054277775849
 30
0.0
 11
160.16703839260981
 21
46.924054277776349
 31
0.0
  0
LINE
  5
4E46
  8
1外形線
 10
190.16703839261251
 20
49.224054277776133
 30
0.0
 11
190.1670383926124
 21
46.924054277776307
 31
0.0
  0
LINE
  5
4E47
  8
1外形線
 10
183.06703839261149
 20
63.524054277778419
 30
0.0
 11
178.26703839261151
 21
63.524054277778419
 31
0.0
  0
LINE
  5
4E48
  8
1外形線
 10
183.06703839261149
 20
59.32405427777848
 30
0.0
 11
178.26703839261151
 21
59.32405427777843
 31
0.0
  0
ARC
  5
4E49
  8
1外形線
 10
183.06703839261149
 20
61.42405427777863
 30
0.0
 40
2.0999999999999992
 50
270.0
 51
90.0
  0
ARC
  5
4E4A
  8
1外形線
 10
205.66703839261439
 20
46.828769206565653
 30
0.0
 40
1.0
 50
275.71059313750061
 51
0.0
  0
LINE
  5
4E4B
  8
1外形線
 10
201.6298481826262
 20
45.420062623454733
 30
0.0
 11
205.7665421116356
 21
45.833732016355611
 31
0.0
  0
ARC
  5
4E4C
  8
1外形線
 10
205.6670383926124
 20
61.424054277776797
 30
0.0
 40
1.0
 50
270.0
 51
0.0
  0
LINE
  5
4E4D
  8
1外形線
 10
191.66703839261251
 20
102.4240542777756
 30
0.0
 11
205.66703839261251
 21
102.4240542777757
 31
0.0
  0
ARC
  5
4E4E
  8
1外形線
 10
178.26703839261151
 20
81.424054277778623
 30
0.0
 40
2.0999999999999992
 50
90.0
 51
270.0
  0
ARC
  5
4E4F
  8
1外形線
 10
183.06703839261149
 20
81.424054277778623
 30
0.0
 40
2.0999999999999992
 50
270.0
 51
90.0
  0
LINE
  5
4E50
  8
1外形線
 10
183.06703839261149
 20
79.324054277778487
 30
0.0
 11
178.26703839261151
 21
79.32405427777843
 31
0.0
  0
LINE
  5
4E51
  8
1外形線
 10
183.06703839261149
 20
83.524054277778419
 30
0.0
 11
178.26703839261151
 21
83.524054277778419
 31
0.0
  0
LINE
  5
4E52
  8
1外形線
 10
183.06703839261149
 20
99.324054277773826
 30
0.0
 11
178.26703839261151
 21
99.324054277773826
 31
0.0
  0
ARC
  5
4E53
  8
1外形線
 10
205.66703839261251
 20
101.4240542777753
 30
0.0
 40
1.0
 50
0.0
 51
90.0
  0
LINE
  5
4E54
  8
1外形線
 10
313.35633653721987
 20
162.16705232690219
 30
0.0
 11
322.92679362071073
 21
162.16705232690219
 31
0.0
  0
LINE
  5
4E55
  8
1外形線
 10
324.90416561403919
 20
159.8670523269021
 30
0.0
 11
224.9267936207107
 21
159.8670523269021
 31
0.0
  0
LINE
  5
4E56
  8
1外形線
 10
206.6670383926147
 20
159.8670523269021
 30
0.0
 11
206.66703839261439
 21
223.9620647647898
 31
0.0
  0
LINE
  5
4E57
  8
1外形線
 10
311.4270662540336
 20
159.8670523269019
 30
0.0
 11
310.9218868897687
 21
190.46140958631841
 31
0.0
  0
LINE
  5
4E58
  8
1外形線
 10
309.42679362071073
 20
159.8670523269019
 30
0.0
 11
308.92215948593218
 21
190.4283897385734
 31
0.0
  0
LINE
  5
4E59
  8
1外形線
 10
238.4265209873877
 20
159.8670523269021
 30
0.0
 11
238.93170035165281
 21
190.46140958631841
 31
0.0
  0
LINE
  5
4E5A
  8
1外形線
 10
240.4267936207107
 20
159.8670523269019
 30
0.0
 11
240.9314277554893
 21
190.4283897385734
 31
0.0
  0
LINE
  5
4E5B
  8
1外形線
 10
236.4972507042016
 20
162.16705232690219
 30
0.0
 11
226.9267936207107
 21
162.16705232690219
 31
0.0
  0
ARC
  5
4E5C
  8
1外形線
 10
191.67947628052599
 20
17.924326911099001
 30
0.0
 40
100.0
 50
84.289406862499391
 51
90.0
  0
LINE
  5
4E5D
  8
1外形線
 10
190.16703839261251
 20
113.6240542777761
 30
0.0
 11
160.16703839260981
 21
113.6240542777763
 31
0.0
  0
LINE
  5
4E5E
  8
1外形線
 10
191.67947628052599
 20
117.9243269110989
 30
0.0
 11
162.83910443628301
 21
117.9243269110989
 31
0.0
  0
LINE
  5
4E5F
  8
1外形線
 10
160.16703839260981
 20
113.6240542777763
 30
0.0
 11
160.16703839260981
 21
115.92405427777619
 31
0.0
  0
ARC
  5
4E60
  8
1外形線
 10
128.66703839261069
 20
81.424054277776122
 30
0.0
 40
49.399999999999999
 50
45.940949177680423
 51
51.201304096592239
  0
LINE
  5
4E61
  8
1外形線
 10
183.06703839261149
 20
103.5240542777737
 30
0.0
 11
178.26703839261151
 21
103.5240542777738
 31
0.0
  0
LINE
  5
4E62
  8
1外形線
 10
190.16703839261251
 20
113.6240542777761
 30
0.0
 11
190.1670383926124
 21
115.92405427777619
 31
0.0
  0
ARC
  5
4E63
  8
1外形線
 10
205.66703839261439
 20
116.0193393489869
 30
0.0
 40
1.0
 50
0.0
 51
84.289406862499391
  0
LINE
  5
4E64
  8
1外形線
 10
201.6298481826262
 20
117.4280459320978
 30
0.0
 11
205.7665421116356
 21
117.0143765391969
 31
0.0
  0
LINE
  5
4E65
  8
1外形線
 10
162.83910443628289
 20
160.16705232690211
 30
0.0
 11
162.83910443628289
 21
159.8670523269021
 31
0.0
  0
ARC
  5
4E66
  8
1外形線
 10
160.83910443628289
 20
160.16705232690211
 30
0.0
 40
2.0
 50
0.0
 51
90.0
  0
ARC
  5
4E67
  8
1外形線
 10
226.9267936207107
 20
160.16705232690219
 30
0.0
 40
2.0
 50
90.0
 51
180.0
  0
LINE
  5
4E68
  8
1外形線
 10
224.9267936207107
 20
159.8670523269021
 30
0.0
 11
224.9267936207107
 21
160.16705232690219
 31
0.0
  0
LINE
  5
4E69
  8
1外形線
 10
294.42679362071118
 20
164.36705232690591
 30
0.0
 11
255.42679362071729
 21
164.36705232690571
 31
0.0
  0
LINE
  5
4E6A
  8
1外形線
 10
295.92679362071118
 20
162.36705232690571
 30
0.0
 11
253.92679362071729
 21
162.36705232690579
 31
0.0
  0
LINE
  5
4E6B
  8
1外形線
 10
240.55697073351379
 20
167.7507573588602
 30
0.0
 11
242.66177762994801
 21
169.19213228071899
 31
0.0
  0
ARC
  5
4E6C
  8
1外形線
 10
243.22679362071071
 20
168.36705232690699
 30
0.0
 40
1.0
 50
0.0
 51
124.40340174384281
  0
LINE
  5
4E6D
  8
1外形線
 10
255.42679362071729
 20
165.86705232690571
 30
0.0
 11
244.22679362071071
 21
165.86705232690579
 31
0.0
  0
ARC
  5
4E6E
  8
1外形線
 10
236.4972507042016
 20
164.16705232690219
 30
0.0
 40
2.0
 50
270.0
 51
359.05400806265988
  0
LINE
  5
4E6F
  8
1外形線
 10
244.22679362071071
 20
165.86705232690571
 30
0.0
 11
244.22679362071071
 21
168.36705232690699
 31
0.0
  0
LINE
  5
4E70
  8
1外形線
 10
255.42679362071729
 20
165.86705232690559
 30
0.0
 11
255.42679362071729
 21
164.36705232690571
 31
0.0
  0
LINE
  5
4E71
  8
1外形線
 10
253.92679362071729
 20
165.86705232690571
 30
0.0
 11
253.92679362071729
 21
162.36705232690571
 31
0.0
  0
LINE
  5
4E72
  8
1外形線
 10
305.62679362071083
 20
165.86705232690571
 30
0.0
 11
294.42679362071118
 21
165.86705232690559
 31
0.0
  0
LINE
  5
4E73
  8
1外形線
 10
294.42679362071118
 20
165.86705232690571
 30
0.0
 11
294.42679362071118
 21
164.36705232690591
 31
0.0
  0
ARC
  5
4E74
  8
1外形線
 10
306.62679362071083
 20
168.36705232690699
 30
0.0
 40
1.0
 50
55.596598256157108
 51
180.0
  0
LINE
  5
4E75
  8
1外形線
 10
309.29661650790757
 20
167.75075735886
 30
0.0
 11
307.19180961147379
 21
169.19213228071899
 31
0.0
  0
LINE
  5
4E76
  8
1外形線
 10
295.92679362071118
 20
165.86705232690579
 30
0.0
 11
295.92679362071118
 21
162.36705232690579
 31
0.0
  0
ARC
  5
4E77
  8
1外形線
 10
313.35633653721987
 20
164.16705232690219
 30
0.0
 40
2.0
 50
180.94599193734001
 51
270.0
  0
LINE
  5
4E78
  8
1外形線
 10
305.62679362071083
 20
165.86705232690571
 30
0.0
 11
305.62679362071083
 21
168.36705232690699
 31
0.0
  0
ARC
  5
4E79
  8
1外形線
 10
191.67947628052599
 20
125.8670523269018
 30
0.0
 40
100.0
 50
84.289406862499391
 51
90.0
  0
ARC
  5
4E7A
  8
1外形線
 10
205.66703839261439
 20
223.9620647647898
 30
0.0
 40
1.0
 50
0.0
 51
84.289406862499391
  0
LINE
  5
4E7B
  8
1外形線
 10
201.6298481826262
 20
225.3707713479007
 30
0.0
 11
205.7665421116356
 21
224.95710195499981
 31
0.0
  0
ARC
  5
4E7C
  8
1外形線
 10
274.92679362071073
 20
189.8670523269019
 30
0.0
 40
36.0
 50
0.945991937339256
 51
179.0540080626607
  0
ARC
  5
4E7D
  8
1外形線
 10
274.92679362071073
 20
189.8670523269019
 30
0.0
 40
34.0
 50
0.9459919373400703
 51
179.0540080626599
  0
ARC
  5
4E7E
  8
1外形線
 10
322.92679362071073
 20
160.16705232690219
 30
0.0
 40
2.0
 50
0.0
 51
90.0
  0
LINE
  5
4E7F
  8
1外形線
 10
324.92679362071073
 20
159.8670523269021
 30
0.0
 11
324.92679362071073
 21
160.16705232690219
 31
0.0
  0
LINE
  5
4E80
  8
1外形線
 10
191.67947628052599
 20
350.8061290763344
 30
0.0
 11
65.654600504695622
 21
350.8061290763344
 31
0.0
  0
ARC
  5
4E81
  8
1外形線
 10
128.66703839261069
 20
314.30585644301152
 30
0.0
 40
50.0
 50
46.886851172268727
 51
133.11314882773121
  0
ARC
  5
4E82
  8
1外形線
 10
128.66703839261069
 20
314.30585644301181
 30
0.0
 40
50.0
 50
226.88685117226871
 51
313.11314882773121
  0
LINE
  5
4E83
  8
1外形線
 10
191.67947628052599
 20
277.80558380968893
 30
0.0
 11
65.654600504695622
 21
277.80558380968893
 31
0.0
  0
LINE
  5
4E84
  8
1外形線
 10
50.667038392606962
 20
348.90114151422227
 30
0.0
 11
50.667038392607189
 21
279.710571371801
 31
0.0
  0
ARC
  5
4E85
  8
1外形線
 10
65.654600504695622
 20
377.80558380968893
 30
0.0
 40
100.0
 50
264.28940686249928
 51
270.0
  0
ARC
  5
4E86
  8
1外形線
 10
51.667038392607189
 20
279.710571371801
 30
0.0
 40
1.0
 50
180.0
 51
264.28940686249928
  0
LINE
  5
4E87
  8
1外形線
 10
55.704228602595443
 20
278.30186478869012
 30
0.0
 11
51.56753467358601
 21
278.71553418159101
 31
0.0
  0
ARC
  5
4E88
  8
1外形線
 10
65.654600504695622
 20
250.8061290763344
 30
0.0
 40
100.0
 50
90.0
 51
95.710593137500595
  0
ARC
  5
4E89
  8
1外形線
 10
51.667038392607189
 20
348.90114151422227
 30
0.0
 40
1.0
 50
95.710593137500595
 51
180.0
  0
LINE
  5
4E8A
  8
1外形線
 10
55.704228602595443
 20
350.3098480973332
 30
0.0
 11
51.56753467358601
 21
349.89617870443232
 31
0.0
  0
LINE
  5
4E8B
  8
1外形線
 10
206.6670383926149
 20
348.90114151422227
 30
0.0
 11
206.66703839261439
 21
279.710571371801
 31
0.0
  0
ARC
  5
4E8C
  8
1外形線
 10
191.67947628052599
 20
377.80558380968893
 30
0.0
 40
100.0
 50
270.0
 51
275.71059313750061
  0
ARC
  5
4E8D
  8
1外形線
 10
205.66703839261439
 20
279.710571371801
 30
0.0
 40
1.0
 50
275.71059313750061
 51
0.0
  0
LINE
  5
4E8E
  8
1外形線
 10
201.6298481826262
 20
278.30186478869012
 30
0.0
 11
205.7665421116356
 21
278.71553418159101
 31
0.0
  0
ARC
  5
4E8F
  8
1外形線
 10
191.67947628052599
 20
250.8061290763344
 30
0.0
 40
100.0
 50
84.289406862499391
 51
90.0
  0
ARC
  5
4E90
  8
1外形線
 10
205.66703839261439
 20
348.90114151422227
 30
0.0
 40
1.0
 50
0.0
 51
84.289406862499391
  0
LINE
  5
4E91
  8
1外形線
 10
201.6298481826262
 20
350.3098480973332
 30
0.0
 11
205.7665421116356
 21
349.89617870443232
 31
0.0
  0
ENDSEC
  0
EOF
