  0
SECTION
  2
HEADER
  9
$ACADVER
  1
AC1009
  9
$INSBASE
 10
0.0
 20
0.0
 30
0.0
  9
$EXTMIN
 10
24.99622914499696
 20
-25.750029856048059
 30
-0.0015258207003583
  9
$EXTMAX
 10
615.43703137683963
 20
408.08463664145091
 30
0.0000000349246037
  9
$LIMMIN
 10
0.0
 20
0.0
  9
$LIMMAX
 10
420.0
 20
297.0
  9
$ORTHOMODE
 70
     0
  9
$REGENMODE
 70
     1
  9
$FILLMODE
 70
     1
  9
$QTEXTMODE
 70
     0
  9
$MIRRTEXT
 70
     1
  9
$DRAGMODE
 70
     2
  9
$LTSCALE
 40
1.0
  9
$OSMODE
 70
    37
  9
$ATTMODE
 70
     1
  9
$TEXTSIZE
 40
2.5
  9
$TRACEWID
 40
1.0
  9
$TEXTSTYLE
  7
STANDARD
  9
$CLAYER
  8
0
  9
$CELTYPE
  6
BYLAYER
  9
$CECOLOR
 62
   256
  9
$DIMSCALE
 40
1.0
  9
$DIMASZ
 40
2.5
  9
$DIMEXO
 40
0.625
  9
$DIMDLI
 40
3.75
  9
$DIMRND
 40
0.0
  9
$DIMDLE
 40
0.0
  9
$DIMEXE
 40
1.25
  9
$DIMTP
 40
0.0
  9
$DIMTM
 40
0.0
  9
$DIMTXT
 40
2.5
  9
$DIMCEN
 40
2.5
  9
$DIMTSZ
 40
0.0
  9
$DIMTOL
 70
     0
  9
$DIMLIM
 70
     0
  9
$DIMTIH
 70
     0
  9
$DIMTOH
 70
     0
  9
$DIMSE1
 70
     0
  9
$DIMSE2
 70
     0
  9
$DIMTAD
 70
     1
  9
$DIMZIN
 70
     8
  9
$DIMBLK
  1

  9
$DIMASO
 70
     1
  9
$DIMSHO
 70
     1
  9
$DIMPOST
  1

  9
$DIMAPOST
  1

  9
$DIMALT
 70
     0
  9
$DIMALTD
 70
     3
  9
$DIMALTF
 40
0.03937007874016
  9
$DIMLFAC
 40
1.0
  9
$DIMTOFL
 70
     1
  9
$DIMTVP
 40
0.0
  9
$DIMTIX
 70
     0
  9
$DIMSOXD
 70
     0
  9
$DIMSAH
 70
     0
  9
$DIMBLK1
  1

  9
$DIMBLK2
  1

  9
$DIMSTYLE
  2
ISO-25
  9
$DIMCLRD
 70
     0
  9
$DIMCLRE
 70
     0
  9
$DIMCLRT
 70
     0
  9
$DIMTFAC
 40
1.0
  9
$DIMGAP
 40
0.625
  9
$LUNITS
 70
     2
  9
$LUPREC
 70
     4
  9
$SKETCHINC
 40
1.0
  9
$FILLETRAD
 40
10.0
  9
$AUNITS
 70
     0
  9
$AUPREC
 70
     0
  9
$MENU
  1
.
  9
$ELEVATION
 40
0.0
  9
$PELEVATION
 40
0.0
  9
$THICKNESS
 40
0.0
  9
$LIMCHECK
 70
     0
  9
$BLIPMODE
 70
     0
  9
$CHAMFERA
 40
10.0
  9
$CHAMFERB
 40
10.0
  9
$SKPOLY
 70
     0
  9
$TDCREATE
 40
2452048.587873715
  9
$TDUPDATE
 40
2452048.6022616429
  9
$TDINDWG
 40
0.0143897917
  9
$TDUSRTIMER
 40
0.0143897917
  9
$USRTIMER
 70
     1
  9
$ANGBASE
 50
0.0
  9
$ANGDIR
 70
     0
  9
$PDMODE
 70
     0
  9
$PDSIZE
 40
0.0
  9
$PLINEWID
 40
0.0
  9
$COORDS
 70
     1
  9
$SPLFRAME
 70
     0
  9
$SPLINETYPE
 70
     6
  9
$SPLINESEGS
 70
     8
  9
$ATTDIA
 70
     0
  9
$ATTREQ
 70
     1
  9
$HANDLING
 70
-16383
  9
$HANDSEED
  5
4F72
  9
$SURFTAB1
 70
     6
  9
$SURFTAB2
 70
     6
  9
$SURFTYPE
 70
     6
  9
$SURFU
 70
     6
  9
$SURFV
 70
     6
  9
$UCSNAME
  2

  9
$UCSORG
 10
0.0
 20
0.0
 30
0.0
  9
$UCSXDIR
 10
1.0
 20
0.0
 30
0.0
  9
$UCSYDIR
 10
0.0
 20
1.0
 30
0.0
  9
$PUCSNAME
  2

  9
$PUCSORG
 10
0.0
 20
0.0
 30
0.0
  9
$PUCSXDIR
 10
1.0
 20
0.0
 30
0.0
  9
$PUCSYDIR
 10
0.0
 20
1.0
 30
0.0
  9
$USERI1
 70
     0
  9
$USERI2
 70
     0
  9
$USERI3
 70
     0
  9
$USERI4
 70
     0
  9
$USERI5
 70
     0
  9
$USERR1
 40
0.0
  9
$USERR2
 40
0.0
  9
$USERR3
 40
0.0
  9
$USERR4
 40
0.0
  9
$USERR5
 40
0.0
  9
$WORLDVIEW
 70
     1
  9
$SHADEDGE
 70
     3
  9
$SHADEDIF
 70
    70
  9
$TILEMODE
 70
     1
  9
$MAXACTVP
 70
    64
  9
$PLIMCHECK
 70
     0
  9
$PEXTMIN
 10
1.0000000000000000E+020
 20
1.0000000000000000E+020
 30
1.0000000000000000E+020
  9
$PEXTMAX
 10
-1.0000000000000000E+020
 20
-1.0000000000000000E+020
 30
-1.0000000000000000E+020
  9
$PLIMMIN
 10
0.0
 20
0.0
  9
$PLIMMAX
 10
420.0
 20
297.0
  9
$UNITMODE
 70
     0
  9
$VISRETAIN
 70
     1
  9
$PLINEGEN
 70
     0
  9
$PSLTSCALE
 70
     1
  0
ENDSEC
  0
SECTION
  2
TABLES
  0
TABLE
  2
VPORT
 70
    27
  0
VPORT
  2
*ACTIVE
 70
     0
 10
0.0
 20
0.0
 11
1.0
 21
1.0
 12
243.19809294536361
 22
20.724196922940902
 13
0.0
 23
0.0
 14
10.0
 24
10.0
 15
10.0
 25
10.0
 16
0.0
 26
0.0
 36
1.0
 17
0.0
 27
0.0
 37
0.0
 40
1136.324782680095
 41
0.8452830188679245
 42
50.0
 43
0.0
 44
0.0
 50
0.0
 51
0.0
 71
     0
 72
   100
 73
     1
 74
     3
 75
     0
 76
     0
 77
     0
 78
     0
  0
ENDTAB
  0
TABLE
  2
LTYPE
 70
     1
  0
LTYPE
  2
CONTINUOUS
 70
     0
  3
Solid line
 72
    65
 73
     0
 40
0.0
  0
ENDTAB
  0
TABLE
  2
LAYER
 70
     2
  0
LAYER
  2
0
 70
     0
 62
     7
  6
CONTINUOUS
  0
LAYER
  2
1外形線
 70
     0
 62
     3
  6
CONTINUOUS
  0
ENDTAB
  0
TABLE
  2
STYLE
 70
     2
  0
STYLE
  2
STANDARD
 70
     0
 40
0.0
 41
1.0
 50
0.0
 71
     0
 42
2.5
  3
txt
  4

  0
STYLE
  2
KANJI
 70
     0
 40
0.0
 41
1.0
 50
0.0
 71
     0
 42
10.0
  3
simplex
  4
bigfont
  0
ENDTAB
  0
TABLE
  2
VIEW
 70
     0
  0
ENDTAB
  0
TABLE
  2
UCS
 70
     0
  0
ENDTAB
  0
TABLE
  2
APPID
 70
     1
  0
APPID
  2
ACAD
 70
     0
  0
ENDTAB
  0
TABLE
  2
DIMSTYLE
 70
     2
  0
DIMSTYLE
  2
ISO-25
 70
     0
  3

  4

  5

  6

  7

 40
1.0
 41
2.5
 42
0.625
 43
3.75
 44
1.25
 45
0.0
 46
0.0
 47
0.0
 48
0.0
140
2.5
141
2.5
142
0.0
143
0.03937007874016
144
1.0
145
0.0
146
1.0
147
0.625
 71
     0
 72
     0
 73
     0
 74
     0
 75
     0
 76
     0
 77
     1
 78
     8
170
     0
171
     3
172
     1
173
     0
174
     0
175
     0
176
     0
177
     0
178
     0
  0
DIMSTYLE
  2
STANDARD
 70
     0
  3

  4

  5

  6
1
  7
1
 40
1.0
 41
1.0
 42
1.0
 43
6.0
 44
1.0
 45
0.0
 46
0.0
 47
0.0
 48
0.0
140
2.5
141
0.0
142
0.0
143
25.399999999999999
144
1.0
145
0.0
146
1.0
147
0.5
 71
     0
 72
     0
 73
     0
 74
     0
 75
     0
 76
     0
 77
     1
 78
     8
170
     0
171
     2
172
     1
173
     1
174
     0
175
     0
176
     0
177
     0
178
     0
  0
ENDTAB
  0
ENDSEC
  0
SECTION
  2
BLOCKS
  0
BLOCK
  8
0
  2
$MODEL_SPACE
 70
     0
 10
0.0
 20
0.0
 30
0.0
  3
$MODEL_SPACE
  1

  0
ENDBLK
  5
21
  8
0
  0
BLOCK
 67
     1
  8
0
  2
$PAPER_SPACE
 70
     0
 10
0.0
 20
0.0
 30
0.0
  3
$PAPER_SPACE
  1

  0
ENDBLK
  5
1D
 67
     1
  8
0
  0
BLOCK
  8
0
  2
1
 70
     0
 10
0.0
 20
0.0
 30
0.0
  3
1
  1

  0
SOLID
  5
2C
  8
0
  6
BYBLOCK
 62
     0
 10
-1.811110924292052
 20
0.4852857095671653
 30
0.0
 11
-1.811110924292052
 21
-0.4852857095673642
 31
0.0
 12
0.0
 22
0.0
 32
0.0
 13
0.0
 23
0.0
 33
0.0
  0
ENDBLK
  5
2E
  8
0
  0
ENDSEC
  0
SECTION
  2
ENTITIES
  0
ARC
  5
4F04
  8
1外形線
 10
161.96394842514511
 20
86.163506758726612
 30
0.0
 40
1.0
 50
275.71059313750061
 51
352.45906757260411
  0
ARC
  5
4F05
  8
1外形線
 10
40.963948425141318
 20
86.163506758726612
 30
0.0
 40
1.0
 50
187.5409324273958
 51
264.28940686249888
  0
CIRCLE
  5
4F06
  8
1外形線
 10
101.4639484251432
 20
105.5585191966136
 30
0.0
 40
20.0
  0
ARC
  5
4F07
  8
1外形線
 10
101.4639484251432
 20
105.5585191966136
 30
0.0
 40
35.0
 50
217.48627947645539
 51
322.51372052354452
  0
LINE
  5
4F08
  8
1外形線
 10
39.97086733734784
 20
42.123910107362349
 30
0.0
 11
162.9570295129385
 21
42.123910107362349
 31
0.0
  0
LINE
  5
4F09
  8
1外形線
 10
39.97086733734784
 20
47.123910107362349
 30
0.0
 11
162.9570295129385
 21
47.123910107362349
 31
0.0
  0
LINE
  5
4F0A
  8
1外形線
 10
73.691480043668321
 20
84.258519196614316
 30
0.0
 11
51.460217058767853
 21
84.258519196614316
 31
0.0
  0
LINE
  5
4F0B
  8
1外形線
 10
65.113948425143235
 20
49.123910107362349
 30
0.0
 11
57.113948425143228
 21
49.123910107362349
 31
0.0
  0
LINE
  5
4F0C
  8
1外形線
 10
39.97086733734784
 20
47.123910107362349
 30
0.0
 11
39.97086733734784
 21
42.123910107362349
 31
0.0
  0
LINE
  5
4F0D
  8
1外形線
 10
49.963948425141552
 20
47.123910107362349
 30
0.0
 11
49.963948425141552
 21
42.123910107362349
 31
0.0
  0
ARC
  5
4F0E
  8
1外形線
 10
57.113948425143228
 20
48.123910107362342
 30
0.0
 40
1.0
 50
90.0
 51
180.0
  0
LINE
  5
4F0F
  8
1外形線
 10
56.113948425143228
 20
48.123910107362342
 30
0.0
 11
56.113948425143228
 21
47.123910107362349
 31
0.0
  0
ARC
  5
4F10
  8
1外形線
 10
51.460217058767853
 20
114.2585191966143
 30
0.0
 40
30.0
 50
264.28940686249888
 51
270.0
  0
LINE
  5
4F11
  8
1外形線
 10
48.475105488137267
 20
84.407403490314763
 30
0.0
 11
40.864444706120253
 21
85.168469568516556
 31
0.0
  0
ARC
  5
4F12
  8
1外形線
 10
65.113948425143235
 20
48.123910107362342
 30
0.0
 40
1.0
 50
0.0
 51
90.0
  0
LINE
  5
4F13
  8
1外形線
 10
66.113948425143235
 20
48.123910107362342
 30
0.0
 11
66.113948425143235
 21
47.123910107362349
 31
0.0
  0
LINE
  5
4F14
  8
1外形線
 10
73.691480043668321
 20
47.123910107362349
 30
0.0
 11
73.691480043668321
 21
42.123910107362349
 31
0.0
  0
LINE
  5
4F15
  8
1外形線
 10
170.60318656257161
 20
42.123910107362349
 30
0.0
 11
240.6031865625709
 21
42.123910107362349
 31
0.0
  0
LINE
  5
4F16
  8
1外形線
 10
170.60318656257161
 20
47.12391010736237
 30
0.0
 11
240.6031865625709
 21
47.12391010736232
 31
0.0
  0
LINE
  5
4F17
  8
1外形線
 10
151.46767979151861
 20
84.258519196614316
 30
0.0
 11
129.23641680661811
 21
84.258519196614316
 31
0.0
  0
LINE
  5
4F18
  8
1外形線
 10
137.81394842514311
 20
49.123910107362349
 30
0.0
 11
145.81394842514311
 21
49.123910107362349
 31
0.0
  0
LINE
  5
4F19
  8
1外形線
 10
129.23641680661811
 20
47.123910107362349
 30
0.0
 11
129.23641680661811
 21
42.123910107362349
 31
0.0
  0
ARC
  5
4F1A
  8
1外形線
 10
137.81394842514311
 20
48.123910107362342
 30
0.0
 40
1.0
 50
90.0
 51
180.0
  0
LINE
  5
4F1B
  8
1外形線
 10
136.81394842514311
 20
48.123910107362342
 30
0.0
 11
136.81394842514311
 21
47.123910107362349
 31
0.0
  0
ARC
  5
4F1C
  8
1外形線
 10
145.81394842514311
 20
48.123910107362342
 30
0.0
 40
1.0
 50
0.0
 51
90.0
  0
LINE
  5
4F1D
  8
1外形線
 10
146.81394842514311
 20
48.123910107362342
 30
0.0
 11
146.81394842514311
 21
47.123910107362349
 31
0.0
  0
LINE
  5
4F1E
  8
1外形線
 10
152.96394842514479
 20
47.123910107362349
 30
0.0
 11
152.96394842514479
 21
42.123910107362349
 31
0.0
  0
LINE
  5
4F1F
  8
1外形線
 10
170.60318656257161
 20
47.12391010736237
 30
0.0
 11
170.60318656257161
 21
42.123910107362349
 31
0.0
  0
LINE
  5
4F20
  8
1外形線
 10
162.9570295129385
 20
47.123910107362349
 30
0.0
 11
162.9570295129385
 21
42.123910107362349
 31
0.0
  0
LINE
  5
4F21
  8
1外形線
 10
186.3031865625702
 20
47.123910107362292
 30
0.0
 11
186.3031865625702
 21
42.123910107362292
 31
0.0
  0
LINE
  5
4F22
  8
1外形線
 10
184.3031865625718
 20
47.12391010736232
 30
0.0
 11
184.3031865625718
 21
42.123910107362349
 31
0.0
  0
LINE
  5
4F23
  8
1外形線
 10
188.00318656257139
 20
49.123910107362349
 30
0.0
 11
186.80318656257131
 21
49.123910107362349
 31
0.0
  0
LINE
  5
4F24
  8
1外形線
 10
188.00318656257139
 20
47.123910107362349
 30
0.0
 11
188.00318656257139
 21
49.123910107362349
 31
0.0
  0
LINE
  5
4F25
  8
1外形線
 10
186.80318656257131
 20
47.123910107362349
 30
0.0
 11
186.80318656257131
 21
49.123910107362349
 31
0.0
  0
LINE
  5
4F26
  8
1外形線
 10
154.45279136214921
 20
84.407403490314763
 30
0.0
 11
162.06345214416621
 21
85.168469568516556
 31
0.0
  0
ARC
  5
4F27
  8
1外形線
 10
151.46767979151861
 20
114.2585191966143
 30
0.0
 40
30.0
 50
270.0
 51
275.71059313750101
  0
LINE
  5
4F28
  8
1外形線
 10
226.9031865625708
 20
47.12391010736232
 30
0.0
 11
226.9031865625708
 21
42.123910107362349
 31
0.0
  0
LINE
  5
4F29
  8
1外形線
 10
224.9031865625723
 20
47.123910107362292
 30
0.0
 11
224.9031865625723
 21
42.123910107362292
 31
0.0
  0
LINE
  5
4F2A
  8
1外形線
 10
223.2031865625712
 20
49.123910107362349
 30
0.0
 11
224.40318656257119
 21
49.123910107362349
 31
0.0
  0
LINE
  5
4F2B
  8
1外形線
 10
223.2031865625712
 20
47.123910107362349
 30
0.0
 11
223.2031865625712
 21
49.123910107362349
 31
0.0
  0
LINE
  5
4F2C
  8
1外形線
 10
224.40318656257119
 20
47.123910107362349
 30
0.0
 11
224.40318656257119
 21
49.123910107362349
 31
0.0
  0
LINE
  5
4F2D
  8
1外形線
 10
240.60318656257081
 20
47.123910107362349
 30
0.0
 11
240.6031865625709
 21
42.123910107362349
 31
0.0
  0
ARC
  5
4F2E
  8
1外形線
 10
101.4639484251432
 20
105.5585191966136
 30
0.0
 40
35.0
 50
37.486279476455998
 51
142.51372052354401
  0
LINE
  5
4F2F
  8
1外形線
 10
73.691480043668548
 20
126.8585191966134
 30
0.0
 11
51.460217058769437
 21
126.8585191966134
 31
0.0
  0
LINE
  5
4F30
  8
1外形線
 10
56.113948425143349
 20
124.3585191966134
 30
0.0
 11
66.113948425143349
 21
124.3585191966134
 31
0.0
  0
LINE
  5
4F31
  8
1外形線
 10
56.113948425143349
 20
123.1585191966134
 30
0.0
 11
66.113948425143349
 21
123.1585191966134
 31
0.0
  0
LINE
  5
4F32
  8
1外形線
 10
60.614458682360457
 20
105.0585191966138
 30
0.0
 11
59.037835730055683
 21
105.0585191966138
 31
0.0
  0
LINE
  5
4F33
  8
1外形線
 10
60.614458682360578
 20
106.0585191966143
 30
0.0
 11
59.037835730055583
 21
106.0585191966143
 31
0.0
  0
LINE
  5
4F34
  8
1外形線
 10
56.113948425143349
 20
87.958519196614304
 30
0.0
 11
66.113948425143349
 21
87.958519196614304
 31
0.0
  0
LINE
  5
4F35
  8
1外形線
 10
56.113948425143349
 20
86.758519196614316
 30
0.0
 11
66.113948425143349
 21
86.758519196614316
 31
0.0
  0
LINE
  5
4F36
  8
1外形線
 10
47.96394842514087
 20
123.85851919661491
 30
0.0
 11
47.963948425141098
 21
87.258519196612795
 31
0.0
  0
CIRCLE
  5
4F37
  8
1外形線
 10
54.263948425140939
 20
105.5585191966138
 30
0.0
 40
4.800000000002683
  0
CIRCLE
  5
4F38
  8
1外形線
 10
54.263948425140939
 20
105.5585191966138
 30
0.0
 40
3.6000000000000001
  0
LINE
  5
4F39
  8
1外形線
 10
46.963948425141091
 20
86.258519196612767
 30
0.0
 11
40.170867337347993
 21
86.258519196612767
 31
0.0
  0
ARC
  5
4F3A
  8
1外形線
 10
40.170867337347993
 20
86.058519196612792
 30
0.0
 40
0.2
 50
90.0
 51
187.5409324273958
  0
ARC
  5
4F3B
  8
1外形線
 10
46.963948425141091
 20
87.258519196612795
 30
0.0
 40
1.0
 50
270.0
 51
0.0
  0
LINE
  5
4F3C
  8
1外形線
 10
56.113948425143228
 20
86.758519196614287
 30
0.0
 11
56.113948425143349
 21
87.958519196614304
 31
0.0
  0
CIRCLE
  5
4F3D
  8
1外形線
 10
54.263948425140939
 20
105.5585191966138
 30
0.0
 40
2.1000000000000001
  0
ARC
  5
4F3E
  8
1外形線
 10
51.460217058769437
 20
96.858519196613429
 30
0.0
 40
30.0
 50
90.0
 51
95.710593137501007
  0
LINE
  5
4F3F
  8
1外形線
 10
48.475105488138858
 20
126.709634902913
 30
0.0
 11
40.864444706120253
 21
125.9485688247111
 31
0.0
  0
LINE
  5
4F40
  8
1外形線
 10
46.963948425140977
 20
124.85851919661491
 30
0.0
 11
40.170867337347993
 21
124.85851919661491
 31
0.0
  0
ARC
  5
4F41
  8
1外形線
 10
40.170867337347993
 20
125.0585191966149
 30
0.0
 40
0.2
 50
172.45906757260411
 51
270.0
  0
ARC
  5
4F42
  8
1外形線
 10
40.963948425141318
 20
124.9535316345011
 30
0.0
 40
1.0
 50
95.710593137501007
 51
172.45906757260411
  0
ARC
  5
4F43
  8
1外形線
 10
46.963948425140977
 20
123.85851919661491
 30
0.0
 40
1.0
 50
0.0
 51
90.0
  0
LINE
  5
4F44
  8
1外形線
 10
56.113948425143228
 20
124.3585191966134
 30
0.0
 11
56.113948425143349
 21
123.1585191966134
 31
0.0
  0
LINE
  5
4F45
  8
1外形線
 10
66.113948425143349
 20
87.958519196614304
 30
0.0
 11
66.113948425143349
 21
86.758519196614316
 31
0.0
  0
LINE
  5
4F46
  8
1外形線
 10
81.470199402011076
 20
106.0585191966136
 30
0.0
 11
70.31343816792662
 21
106.058519196614
 31
0.0
  0
LINE
  5
4F47
  8
1外形線
 10
81.470199402011076
 20
105.0585191966138
 30
0.0
 11
70.313438167926833
 21
105.0585191966138
 31
0.0
  0
LINE
  5
4F48
  8
1外形線
 10
63.063948425143622
 20
108.0585191966133
 30
0.0
 11
67.863948425143576
 21
108.0585191966133
 31
0.0
  0
LINE
  5
4F49
  8
1外形線
 10
63.063948425143622
 20
103.0585191966134
 30
0.0
 11
67.863948425143576
 21
103.0585191966134
 31
0.0
  0
ARC
  5
4F4A
  8
1外形線
 10
63.063948425143622
 20
105.5585191966136
 30
0.0
 40
2.4999999999999991
 50
90.0
 51
270.0
  0
ARC
  5
4F4B
  8
1外形線
 10
67.863948425143576
 20
105.5585191966136
 30
0.0
 40
2.4999999999999991
 50
270.0
 51
90.0
  0
LINE
  5
4F4C
  8
1外形線
 10
66.113948425143349
 20
123.1585191966134
 30
0.0
 11
66.113948425143349
 21
124.3585191966134
 31
0.0
  0
LINE
  5
4F4D
  8
1外形線
 10
151.46767979151701
 20
126.8585191966134
 30
0.0
 11
129.23641680661791
 21
126.8585191966134
 31
0.0
  0
CIRCLE
  5
4F4E
  8
1外形線
 10
148.66394842514549
 20
105.5585191966138
 30
0.0
 40
3.6000000000000001
  0
CIRCLE
  5
4F4F
  8
1外形線
 10
148.66394842514549
 20
105.5585191966138
 30
0.0
 40
2.1000000000000001
  0
CIRCLE
  5
4F50
  8
1外形線
 10
148.66394842514549
 20
105.5585191966138
 30
0.0
 40
4.800000000002683
  0
LINE
  5
4F51
  8
1外形線
 10
121.4576974482754
 20
106.0585191966136
 30
0.0
 11
132.6144586823599
 21
106.058519196614
 31
0.0
  0
LINE
  5
4F52
  8
1外形線
 10
121.4576974482754
 20
105.0585191966138
 30
0.0
 11
132.61445868235961
 21
105.0585191966138
 31
0.0
  0
LINE
  5
4F53
  8
1外形線
 10
146.81394842514311
 20
86.758519196614316
 30
0.0
 11
136.81394842514311
 21
86.758519196614316
 31
0.0
  0
LINE
  5
4F54
  8
1外形線
 10
146.81394842514311
 20
87.958519196614304
 30
0.0
 11
136.81394842514311
 21
87.958519196614304
 31
0.0
  0
LINE
  5
4F55
  8
1外形線
 10
136.81394842514311
 20
87.958519196614304
 30
0.0
 11
136.81394842514311
 21
86.758519196614316
 31
0.0
  0
LINE
  5
4F56
  8
1外形線
 10
146.8139484251432
 20
86.758519196614287
 30
0.0
 11
146.81394842514311
 21
87.958519196614304
 31
0.0
  0
LINE
  5
4F57
  8
1外形線
 10
139.86394842514281
 20
108.0585191966133
 30
0.0
 11
135.06394842514291
 21
108.0585191966133
 31
0.0
  0
LINE
  5
4F58
  8
1外形線
 10
139.86394842514281
 20
103.0585191966134
 30
0.0
 11
135.06394842514291
 21
103.0585191966134
 31
0.0
  0
ARC
  5
4F59
  8
1外形線
 10
135.06394842514291
 20
105.5585191966136
 30
0.0
 40
2.4999999999999991
 50
90.0
 51
270.0
  0
LINE
  5
4F5A
  8
1外形線
 10
142.31343816792599
 20
105.0585191966138
 30
0.0
 11
143.8900611202308
 21
105.0585191966138
 31
0.0
  0
LINE
  5
4F5B
  8
1外形線
 10
142.31343816792591
 20
106.0585191966143
 30
0.0
 11
143.89006112023091
 21
106.0585191966143
 31
0.0
  0
ARC
  5
4F5C
  8
1外形線
 10
139.86394842514281
 20
105.5585191966136
 30
0.0
 40
2.4999999999999991
 50
270.0
 51
90.0
  0
LINE
  5
4F5D
  8
1外形線
 10
146.81394842514311
 20
123.1585191966134
 30
0.0
 11
136.81394842514311
 21
123.1585191966134
 31
0.0
  0
LINE
  5
4F5E
  8
1外形線
 10
146.81394842514311
 20
124.3585191966134
 30
0.0
 11
136.81394842514311
 21
124.3585191966134
 31
0.0
  0
LINE
  5
4F5F
  8
1外形線
 10
136.81394842514311
 20
123.1585191966134
 30
0.0
 11
136.81394842514311
 21
124.3585191966134
 31
0.0
  0
LINE
  5
4F60
  8
1外形線
 10
146.8139484251432
 20
124.3585191966134
 30
0.0
 11
146.81394842514311
 21
123.1585191966134
 31
0.0
  0
LINE
  5
4F61
  8
1外形線
 10
154.96394842514539
 20
123.85851919661491
 30
0.0
 11
154.96394842514539
 21
87.258519196612795
 31
0.0
  0
LINE
  5
4F62
  8
1外形線
 10
155.96394842514539
 20
86.258519196612767
 30
0.0
 11
162.75702951293849
 21
86.258519196612767
 31
0.0
  0
ARC
  5
4F63
  8
1外形線
 10
155.96394842514539
 20
87.258519196612795
 30
0.0
 40
1.0
 50
180.0
 51
270.0
  0
ARC
  5
4F64
  8
1外形線
 10
162.75702951293849
 20
86.058519196612792
 30
0.0
 40
0.2
 50
352.45906757260411
 51
90.0
  0
LINE
  5
4F65
  8
1外形線
 10
155.9639484251455
 20
124.85851919661491
 30
0.0
 11
162.75702951293849
 21
124.85851919661491
 31
0.0
  0
LINE
  5
4F66
  8
1外形線
 10
154.45279136214759
 20
126.709634902913
 30
0.0
 11
162.06345214416621
 21
125.9485688247111
 31
0.0
  0
ARC
  5
4F67
  8
1外形線
 10
151.46767979151701
 20
96.858519196613429
 30
0.0
 40
30.0
 50
84.289406862498979
 51
90.0
  0
ARC
  5
4F68
  8
1外形線
 10
155.9639484251455
 20
123.85851919661491
 30
0.0
 40
1.0
 50
90.0
 51
180.0
  0
ARC
  5
4F69
  8
1外形線
 10
162.75702951293849
 20
125.0585191966149
 30
0.0
 40
0.2
 50
270.0
 51
7.5409324273958473
  0
ARC
  5
4F6A
  8
1外形線
 10
161.96394842514511
 20
124.9535316345011
 30
0.0
 40
1.0
 50
7.5409324273958473
 51
84.289406862498979
  0
ENDSEC
  0
EOF
