  0
SECTION
  2
HEADER
  9
$ACADVER
  1
AC1015
  9
$ACADMAINTVER
 70
    14
  9
$DWGCODEPAGE
  3
ANSI_932
  9
$INSBASE
 10
0.0
 20
0.0
 30
0.0
  9
$EXTMIN
 10
-10.0382585381717
 20
-0.289138067850331
 30
-0.0015258207003583
  9
$EXTMAX
 10
270.0356074389628
 20
256.2546698568094
 30
0.0000000349246037
  9
$LIMMIN
 10
0.0
 20
0.0
  9
$LIMMAX
 10
420.0
 20
297.0
  9
$ORTHOMODE
 70
     1
  9
$REGENMODE
 70
     1
  9
$FILLMODE
 70
     1
  9
$QTEXTMODE
 70
     0
  9
$MIRRTEXT
 70
     1
  9
$LTSCALE
 40
1.0
  9
$ATTMODE
 70
     1
  9
$TEXTSIZE
 40
3.0
  9
$TRACEWID
 40
1.0
  9
$TEXTSTYLE
  7
KANJI
  9
$CLAYER
  8
2寸法線
  9
$CELTYPE
  6
BYLAYER
  9
$CECOLOR
 62
   256
  9
$CELTSCALE
 40
1.0
  9
$DISPSILH
 70
     0
  9
$DIMSCALE
 40
0.0
  9
$DIMASZ
 40
1.8
  9
$DIMEXO
 40
1.0
  9
$DIMDLI
 40
0.0
  9
$DIMRND
 40
0.0
  9
$DIMDLE
 40
0.0
  9
$DIMEXE
 40
1.0
  9
$DIMTP
 40
0.0
  9
$DIMTM
 40
0.0
  9
$DIMTXT
 40
2.5
  9
$DIMCEN
 40
0.0
  9
$DIMTSZ
 40
0.0
  9
$DIMTOL
 70
     0
  9
$DIMLIM
 70
     0
  9
$DIMTIH
 70
     0
  9
$DIMTOH
 70
     0
  9
$DIMSE1
 70
     0
  9
$DIMSE2
 70
     0
  9
$DIMTAD
 70
     1
  9
$DIMZIN
 70
     8
  9
$DIMBLK
  1

  9
$DIMASO
 70
     1
  9
$DIMSHO
 70
     1
  9
$DIMPOST
  1

  9
$DIMAPOST
  1

  9
$DIMALT
 70
     0
  9
$DIMALTD
 70
     2
  9
$DIMALTF
 40
25.4
  9
$DIMLFAC
 40
1.0
  9
$DIMTOFL
 70
     1
  9
$DIMTVP
 40
0.0
  9
$DIMTIX
 70
     0
  9
$DIMSOXD
 70
     0
  9
$DIMSAH
 70
     1
  9
$DIMBLK1
  1
2
  9
$DIMBLK2
  1
2
  9
$DIMSTYLE
  2
M
  9
$DIMCLRD
 70
     0
  9
$DIMCLRE
 70
     0
  9
$DIMCLRT
 70
     0
  9
$DIMTFAC
 40
1.0
  9
$DIMGAP
 40
0.5
  9
$DIMJUST
 70
     0
  9
$DIMSD1
 70
     0
  9
$DIMSD2
 70
     0
  9
$DIMTOLJ
 70
     1
  9
$DIMTZIN
 70
     8
  9
$DIMALTZ
 70
     0
  9
$DIMALTTZ
 70
     0
  9
$DIMUPT
 70
     0
  9
$DIMDEC
 70
     4
  9
$DIMTDEC
 70
     4
  9
$DIMALTU
 70
     2
  9
$DIMALTTD
 70
     2
  9
$DIMTXSTY
  7
KANJI
  9
$DIMAUNIT
 70
     0
  9
$DIMADEC
 70
     0
  9
$DIMALTRND
 40
0.0
  9
$DIMAZIN
 70
     0
  9
$DIMDSEP
 70
    46
  9
$DIMATFIT
 70
     3
  9
$DIMFRAC
 70
     0
  9
$DIMLDRBLK
  1
2
  9
$DIMLUNIT
 70
     2
  9
$DIMLWD
 70
    -2
  9
$DIMLWE
 70
    -2
  9
$DIMTMOVE
 70
     0
  9
$LUNITS
 70
     2
  9
$LUPREC
 70
     3
  9
$SKETCHINC
 40
1.0
  9
$FILLETRAD
 40
0.0
  9
$AUNITS
 70
     0
  9
$AUPREC
 70
     1
  9
$MENU
  1
.
  9
$ELEVATION
 40
0.0
  9
$PELEVATION
 40
0.0
  9
$THICKNESS
 40
0.0
  9
$LIMCHECK
 70
     0
  9
$CHAMFERA
 40
10.0
  9
$CHAMFERB
 40
10.0
  9
$CHAMFERC
 40
20.0
  9
$CHAMFERD
 40
0.0
  9
$SKPOLY
 70
     0
  9
$TDCREATE
 40
2454811.503458113
  9
$TDUCREATE
 40
2454811.128458113
  9
$TDUPDATE
 40
2455266.517012975
  9
$TDUUPDATE
 40
2455266.142012975
  9
$TDINDWG
 40
10.7684601157
  9
$TDUSRTIMER
 40
10.7684601157
  9
$USRTIMER
 70
     1
  9
$ANGBASE
 50
0.0
  9
$ANGDIR
 70
     0
  9
$PDMODE
 70
     0
  9
$PDSIZE
 40
0.0
  9
$PLINEWID
 40
0.0
  9
$SPLFRAME
 70
     0
  9
$SPLINETYPE
 70
     6
  9
$SPLINESEGS
 70
     8
  9
$HANDSEED
  5
58C0B
  9
$SURFTAB1
 70
     6
  9
$SURFTAB2
 70
     6
  9
$SURFTYPE
 70
     6
  9
$SURFU
 70
     6
  9
$SURFV
 70
     6
  9
$UCSBASE
  2

  9
$UCSNAME
  2

  9
$UCSORG
 10
0.0
 20
0.0
 30
0.0
  9
$UCSXDIR
 10
1.0
 20
0.0
 30
0.0
  9
$UCSYDIR
 10
0.0
 20
1.0
 30
0.0
  9
$UCSORTHOREF
  2

  9
$UCSORTHOVIEW
 70
     0
  9
$UCSORGTOP
 10
0.0
 20
0.0
 30
0.0
  9
$UCSORGBOTTOM
 10
0.0
 20
0.0
 30
0.0
  9
$UCSORGLEFT
 10
0.0
 20
0.0
 30
0.0
  9
$UCSORGRIGHT
 10
0.0
 20
0.0
 30
0.0
  9
$UCSORGFRONT
 10
0.0
 20
0.0
 30
0.0
  9
$UCSORGBACK
 10
0.0
 20
0.0
 30
0.0
  9
$PUCSBASE
  2

  9
$PUCSNAME
  2

  9
$PUCSORG
 10
0.0
 20
0.0
 30
0.0
  9
$PUCSXDIR
 10
1.0
 20
0.0
 30
0.0
  9
$PUCSYDIR
 10
0.0
 20
1.0
 30
0.0
  9
$PUCSORTHOREF
  2

  9
$PUCSORTHOVIEW
 70
     0
  9
$PUCSORGTOP
 10
0.0
 20
0.0
 30
0.0
  9
$PUCSORGBOTTOM
 10
0.0
 20
0.0
 30
0.0
  9
$PUCSORGLEFT
 10
0.0
 20
0.0
 30
0.0
  9
$PUCSORGRIGHT
 10
0.0
 20
0.0
 30
0.0
  9
$PUCSORGFRONT
 10
0.0
 20
0.0
 30
0.0
  9
$PUCSORGBACK
 10
0.0
 20
0.0
 30
0.0
  9
$USERI1
 70
     0
  9
$USERI2
 70
     0
  9
$USERI3
 70
     0
  9
$USERI4
 70
     0
  9
$USERI5
 70
     0
  9
$USERR1
 40
0.0
  9
$USERR2
 40
0.0
  9
$USERR3
 40
0.0
  9
$USERR4
 40
0.0
  9
$USERR5
 40
0.0
  9
$WORLDVIEW
 70
     1
  9
$SHADEDGE
 70
     3
  9
$SHADEDIF
 70
    70
  9
$TILEMODE
 70
     1
  9
$MAXACTVP
 70
    48
  9
$PINSBASE
 10
0.0
 20
0.0
 30
0.0
  9
$PLIMCHECK
 70
     0
  9
$PEXTMIN
 10
26.66999878883362
 20
20.31999878883362
 30
0.0
  9
$PEXTMAX
 10
240.0299890995025
 20
182.8799890995025
 30
0.0
  9
$PLIMMIN
 10
0.0
 20
0.0
  9
$PLIMMAX
 10
420.0
 20
297.0
  9
$UNITMODE
 70
     0
  9
$VISRETAIN
 70
     1
  9
$PLINEGEN
 70
     0
  9
$PSLTSCALE
 70
     1
  9
$TREEDEPTH
 70
  3020
  9
$CMLSTYLE
  2
STANDARD
  9
$CMLJUST
 70
     0
  9
$CMLSCALE
 40
20.0
  9
$PROXYGRAPHICS
 70
     1
  9
$MEASUREMENT
 70
     1
  9
$CELWEIGHT
370
    -1
  9
$ENDCAPS
280
     0
  9
$JOINSTYLE
280
     0
  9
$LWDISPLAY
290
     0
  9
$INSUNITS
 70
     0
  9
$HYPERLINKBASE
  1

  9
$STYLESHEET
  1
1mizukoshi.ctb
  9
$XEDIT
290
     1
  9
$CEPSNTYPE
380
     0
  9
$PSTYLEMODE
290
     1
  9
$FINGERPRINTGUID
  2
{1A717817-EF10-40FC-89A7-D7D4B6B15B08}
  9
$VERSIONGUID
  2
{8E5B1510-9CD6-46DD-826A-5842D11D601A}
  9
$EXTNAMES
290
     1
  9
$PSVPSCALE
 40
0.0
  9
$OLESTARTUP
290
     0
  0
ENDSEC
  0
SECTION
  2
CLASSES
  0
CLASS
  1
HATCH
  2
AcDbHatch
  3
AutoCAD 2000
 90
    32768
280
     0
281
     1
  0
CLASS
  1
DICTIONARYVAR
  2
AcDbDictionaryVar
  3
AutoCAD 2000
 90
        0
280
     0
281
     0
  0
CLASS
  1
ACDBDICTIONARYWDFLT
  2
AcDbDictionaryWithDefault
  3
AutoCAD 2000
 90
        0
280
     0
281
     0
  0
CLASS
  1
ACDBPLACEHOLDER
  2
AcDbPlaceHolder
  3
AutoCAD 2000
 90
        0
280
     0
281
     0
  0
CLASS
  1
LAYOUT
  2
AcDbLayout
  3
AutoCAD 2000
 90
        0
280
     0
281
     0
  0
CLASS
  1
PLOTSETTINGS
  2
AcDbPlotSettings
  3
AutoCAD 2000
 90
        0
280
     0
281
     0
  0
CLASS
  1
SORTENTSTABLE
  2
AcDbSortentsTable
  3
AutoCAD 2000
 90
    32768
280
     0
281
     0
  0
ENDSEC
  0
SECTION
  2
TABLES
  0
TABLE
  2
VPORT
  5
8
330
0
100
AcDbSymbolTable
 70
     6
  0
VPORT
  5
58C0A
330
8
100
AcDbSymbolTableRecord
100
AcDbViewportTableRecord
  2
*Active
 70
     0
 10
0.0
 20
0.0
 11
1.0
 21
1.0
 12
129.9986744503955
 22
127.9827658944795
 13
0.0
 23
0.0
 14
10.0
 24
10.0
 15
10.0
 25
10.0
 16
0.0
 26
0.0
 36
1.0
 17
0.0
 27
0.0
 37
0.0
 40
323.1656495174977
 41
1.222509702457956
 42
50.0
 43
0.0
 44
0.0
 50
0.0
 51
0.0
 71
     0
 72
   100
 73
     1
 74
     1
 75
     0
 76
     0
 77
     0
 78
     0
281
     0
 65
     1
110
0.0
120
0.0
130
0.0
111
1.0
121
0.0
131
0.0
112
0.0
122
1.0
132
0.0
 79
     0
146
0.0
  0
ENDTAB
  0
TABLE
  2
LTYPE
  5
5
330
0
100
AcDbSymbolTable
 70
     2
  0
LTYPE
  5
12
330
5
100
AcDbSymbolTableRecord
100
AcDbLinetypeTableRecord
  2
BYBLOCK
 70
     0
  3

 72
    65
 73
     0
 40
0.0
  0
LTYPE
  5
13
330
5
100
AcDbSymbolTableRecord
100
AcDbLinetypeTableRecord
  2
BYLAYER
 70
     0
  3

 72
    65
 73
     0
 40
0.0
  0
LTYPE
  5
14
330
5
100
AcDbSymbolTableRecord
100
AcDbLinetypeTableRecord
  2
CONTINUOUS
 70
     0
  3
Solid line
 72
    65
 73
     0
 40
0.0
  0
LTYPE
  5
28
330
5
100
AcDbSymbolTableRecord
100
AcDbLinetypeTableRecord
  2
CENTER
 70
     0
  3
Center ____ _ ____ _ ____ _ ____ _ ____ _ ____
 72
    65
 73
     4
 40
50.8
 49
31.75
 74
     0
 49
-6.349999999999999
 74
     0
 49
6.349999999999999
 74
     0
 49
-6.349999999999999
 74
     0
  0
ENDTAB
  0
TABLE
  2
LAYER
  5
2
102
{ACAD_XDICTIONARY
360
8B35
102
}
330
0
100
AcDbSymbolTable
 70
     8
  0
LAYER
  5
E
330
2
100
AcDbSymbolTableRecord
100
AcDbLayerTableRecord
  2
0
 70
     0
 62
     7
  6
CONTINUOUS
370
    -3
390
15D
  0
LAYER
  5
20
330
2
100
AcDbSymbolTableRecord
100
AcDbLayerTableRecord
  2
1外形線
 70
     0
 62
     3
  6
CONTINUOUS
370
    -3
390
15D
  0
LAYER
  5
21
330
2
100
AcDbSymbolTableRecord
100
AcDbLayerTableRecord
  2
2寸法線
 70
     0
 62
     2
  6
CONTINUOUS
370
    -3
390
15D
  0
LAYER
  5
94
330
2
100
AcDbSymbolTableRecord
100
AcDbLayerTableRecord
  2
DEFPOINTS
 70
     0
 62
     7
  6
CONTINUOUS
290
     0
370
    -3
390
15D
  0
LAYER
  5
1E5
330
2
100
AcDbSymbolTableRecord
100
AcDbLayerTableRecord
  2
C4
 70
     0
 62
     3
  6
CONTINUOUS
370
    -3
390
15D
  0
LAYER
  5
32E3
102
{ACAD_XDICTIONARY
360
32E4
102
}
330
2
100
AcDbSymbolTableRecord
100
AcDbLayerTableRecord
  2
1
 70
     0
 62
     7
  6
CONTINUOUS
370
    -3
390
15D
  0
LAYER
  5
DE2C
102
{ACAD_XDICTIONARY
360
DE2D
102
}
330
2
100
AcDbSymbolTableRecord
100
AcDbLayerTableRecord
  2
001
 70
     0
 62
     7
  6
CONTINUOUS
370
    -3
390
15D
  0
LAYER
  5
DE2F
102
{ACAD_XDICTIONARY
360
DE30
102
}
330
2
100
AcDbSymbolTableRecord
100
AcDbLayerTableRecord
  2
009
 70
     0
 62
     7
  6
CONTINUOUS
370
    -3
390
15D
  0
ENDTAB
  0
TABLE
  2
STYLE
  5
3
330
0
100
AcDbSymbolTable
 70
     6
  0
STYLE
  5
F
330
3
100
AcDbSymbolTableRecord
100
AcDbTextStyleTableRecord
  2
STANDARD
 70
     0
 40
0.0
 41
1.0
 50
0.0
 71
     0
 42
2.5
  3
txt
  4

  0
STYLE
  5
27
330
3
100
AcDbSymbolTableRecord
100
AcDbTextStyleTableRecord
  2

 70
     1
 40
0.0
 41
1.0
 50
0.0
 71
     0
 42
2.5
  3
ltypeshp.shx
  4

  0
STYLE
  5
30
330
3
100
AcDbSymbolTableRecord
100
AcDbTextStyleTableRecord
  2
KANJI
 70
     0
 40
0.0
 41
1.0
 50
0.0
 71
     0
 42
3.0
  3
simplex.shx
  4
bigfont.shx
  0
STYLE
  5
32EA
330
3
100
AcDbSymbolTableRecord
100
AcDbTextStyleTableRecord
  2
ｺﾞｼｯｸ
 70
     0
 40
0.0
 41
1.0
 50
0.0
 71
     0
 42
2.5
  3
MS PGothic.ttf
  4

1001
ACAD
1000
MS PGothic
1071
    32818
  0
STYLE
  5
DE32
330
3
100
AcDbSymbolTableRecord
100
AcDbTextStyleTableRecord
  2
MDRAFSTD
 70
     0
 40
0.0
 41
1.0
 50
0.0
 71
     0
 42
4.5
  3
TXT
  4
BIGFONT
  0
STYLE
  5
3E7B9
330
3
100
AcDbSymbolTableRecord
100
AcDbTextStyleTableRecord
  2
35FONT
 70
     0
 40
3.5
 41
0.75
 50
15.0
 71
     0
 42
3.5
  3
simplex
  4
bigfont
  0
ENDTAB
  0
TABLE
  2
VIEW
  5
6
330
0
100
AcDbSymbolTable
 70
     0
  0
ENDTAB
  0
TABLE
  2
UCS
  5
7
330
0
100
AcDbSymbolTable
 70
     0
  0
ENDTAB
  0
TABLE
  2
APPID
  5
9
330
0
100
AcDbSymbolTable
 70
    19
  0
APPID
  5
10
330
9
100
AcDbSymbolTableRecord
100
AcDbRegAppTableRecord
  2
ACAD
 70
     0
  0
APPID
  5
3DB
330
9
100
AcDbSymbolTableRecord
100
AcDbRegAppTableRecord
  2
ACAD_PSEXT
 70
     0
  0
APPID
  5
32F3
330
9
100
AcDbSymbolTableRecord
100
AcDbRegAppTableRecord
  2
GENIUS_GENDIM_13
 70
     0
  0
APPID
  5
32F4
330
9
100
AcDbSymbolTableRecord
100
AcDbRegAppTableRecord
  2
GENIUS_GENDTOL_13
 70
     0
  0
APPID
  5
32F5
330
9
100
AcDbSymbolTableRecord
100
AcDbRegAppTableRecord
  2
GENIUS_GE3DTOL_13
 70
     0
  0
APPID
  5
32F6
330
9
100
AcDbSymbolTableRecord
100
AcDbRegAppTableRecord
  2
MCAD_NO_VIS
 70
     0
  0
APPID
  5
32F7
330
9
100
AcDbSymbolTableRecord
100
AcDbRegAppTableRecord
  2
ACAD_TEMP_GRAPHIC
 70
     0
  0
APPID
  5
32F8
330
9
100
AcDbSymbolTableRecord
100
AcDbRegAppTableRecord
  2
AD_DRAW
 70
     0
  0
APPID
  5
32F9
330
9
100
AcDbSymbolTableRecord
100
AcDbRegAppTableRecord
  2
ACATTRIBSERVICES
 70
     0
  0
APPID
  5
32FA
330
9
100
AcDbSymbolTableRecord
100
AcDbRegAppTableRecord
  2
ASURF_PCURVE_APPNAME
 70
     0
  0
APPID
  5
32FB
330
9
100
AcDbSymbolTableRecord
100
AcDbRegAppTableRecord
  2
AMG_3D2D_5.0
 70
     0
  0
APPID
  5
32FC
330
9
100
AcDbSymbolTableRecord
100
AcDbRegAppTableRecord
  2
DESIGNERASSEMBLIES
 70
     0
  0
APPID
  5
32FD
330
9
100
AcDbSymbolTableRecord
100
AcDbRegAppTableRecord
  2
ACADM_DIM_EDIT
 70
     0
  0
APPID
  5
32FE
330
9
100
AcDbSymbolTableRecord
100
AcDbRegAppTableRecord
  2
AMDT_DM_ADJ
 70
     0
  0
APPID
  5
32FF
330
9
100
AcDbSymbolTableRecord
100
AcDbRegAppTableRecord
  2
GENIUS_GENSCREG_15
 70
     0
  0
APPID
  5
3300
330
9
100
AcDbSymbolTableRecord
100
AcDbRegAppTableRecord
  2
GENIUS_GENOBJ-N-SDF_13
 70
     0
  0
APPID
  5
3301
330
9
100
AcDbSymbolTableRecord
100
AcDbRegAppTableRecord
  2
GENIUS_GENODEF_13
 70
     0
  0
APPID
  5
DE36
330
9
100
AcDbSymbolTableRecord
100
AcDbRegAppTableRecord
  2
ACAD_EXEMPT_FROM_CAD_STANDARDS
 70
     0
  0
APPID
  5
57FD5
330
9
100
AcDbSymbolTableRecord
100
AcDbRegAppTableRecord
  2
DCO15
 70
     0
  0
ENDTAB
  0
TABLE
  2
DIMSTYLE
  5
A
330
0
100
AcDbSymbolTable
 70
     4
100
AcDbDimStyleTable
 71
     1
340
E2
  0
DIMSTYLE
105
1D
330
A
100
AcDbSymbolTableRecord
100
AcDbDimStyleTableRecord
  2
STANDARD
 70
     0
 73
     0
 74
     0
172
     1
340
F
  0
DIMSTYLE
105
E2
330
A
100
AcDbSymbolTableRecord
100
AcDbDimStyleTableRecord
  2
M
 70
     0
 40
0.0
 41
2.0
 42
1.0
 43
0.0
 44
1.0
 73
     0
 74
     0
 77
     1
 78
     8
140
2.5
141
0.0
147
0.5
172
     1
173
     1
284
     8
340
30
341
74
343
74
344
74
  0
DIMSTYLE
105
32ED
330
A
100
AcDbSymbolTableRecord
100
AcDbDimStyleTableRecord
  2
AM_ANSI
 70
     0
  4
mm
 41
0.1
 42
0.05
 43
0.5
 44
0.1
 47
0.1
 48
0.1
 78
     7
 79
     2
140
0.12
141
0.0
146
0.71
147
0.06
176
   256
177
   256
178
     2
274
     4
284
     7
340
F
371
    -1
372
    -1
  0
DIMSTYLE
105
65CF
330
A
100
AcDbSymbolTableRecord
100
AcDbDimStyleTableRecord
  2
AM_ISO
 70
     0
  4
"
 41
2.5
 42
1.0
 43
10.0
 44
1.0
 47
0.1
 48
0.1
 73
     0
 74
     0
 77
     1
 78
     8
 79
     2
140
3.5
141
0.0
143
0.0393701
146
0.71
147
1.5
172
     1
176
   256
177
   256
178
     2
271
     2
272
     3
274
     4
283
     0
284
     8
340
F
371
    -1
372
    -1
  0
ENDTAB
  0
TABLE
  2
BLOCK_RECORD
  5
1
330
0
100
AcDbSymbolTable
 70
     1
  0
BLOCK_RECORD
  5
18
330
1
100
AcDbSymbolTableRecord
100
AcDbBlockTableRecord
  2
*MODEL_SPACE
340
160
  0
BLOCK_RECORD
  5
15
330
1
100
AcDbSymbolTableRecord
100
AcDbBlockTableRecord
  2
*PAPER_SPACE
340
161
  0
BLOCK_RECORD
  5
74
330
1
100
AcDbSymbolTableRecord
100
AcDbBlockTableRecord
  2
2
340
0
  0
ENDTAB
  0
ENDSEC
  0
SECTION
  2
BLOCKS
  0
BLOCK
  5
19
330
18
100
AcDbEntity
  8
0
100
AcDbBlockBegin
  2
*MODEL_SPACE
 70
     0
 10
0.0
 20
0.0
 30
0.0
  3
*MODEL_SPACE
  1

  0
ENDBLK
  5
1A
330
18
100
AcDbEntity
  8
0
100
AcDbBlockEnd
  0
BLOCK
  5
16
330
15
100
AcDbEntity
 67
     1
  8
0
100
AcDbBlockBegin
  2
*PAPER_SPACE
 70
     0
 10
0.0
 20
0.0
 30
0.0
  3
*PAPER_SPACE
  1

  0
ENDBLK
  5
17
330
15
100
AcDbEntity
 67
     1
  8
0
100
AcDbBlockEnd
  0
BLOCK
  5
130
330
74
100
AcDbEntity
  8
0
 48
3.0
100
AcDbBlockBegin
  2
2
 70
     0
 10
0.0
 20
0.0
 30
0.0
  3
2
  1

  0
HATCH
  5
131
330
74
100
AcDbEntity
  8
0
  6
ByBlock
 62
     0
 48
3.0
100
AcDbHatch
 10
0.0
 20
0.0
 30
0.0
210
0.0
220
0.0
230
1.0
  2
SOLID
 70
     1
 71
     0
 91
        1
 92
        1
 93
        3
 72
     1
 10
-0.9999999999983515
 20
0.2679491924306774
 11
0.0
 21
0.0
 72
     1
 10
0.0
 20
0.0
 11
-0.9999999999983515
 21
-0.2679491924306765
 72
     1
 10
-0.9999999999983524
 20
-0.267949192430676
 11
-0.9999999999983524
 21
0.2679491924306774
 97
        0
 75
     0
 76
     1
 98
        1
 10
2.995745117231336
 20
-4.124946096263201
  0
ENDBLK
  5
132
330
74
100
AcDbEntity
  8
0
 48
3.0
100
AcDbBlockEnd
  0
ENDSEC
  0
SECTION
  2
ENTITIES
  0
TEXT
  5
3CF7
330
18
100
AcDbEntity
  8
2寸法線
 48
3.0
100
AcDbText
 10
1808.635703067499
 20
254.4654473953765
 30
0.0
 40
3.0
  1

  7
KANJI
100
AcDbText
  0
TEXT
  5
3CF8
330
18
100
AcDbEntity
  8
2寸法線
 48
3.0
100
AcDbText
 10
1808.635703067499
 20
248.4654473953765
 30
0.0
 40
3.0
  1

  7
KANJI
100
AcDbText
  0
TEXT
  5
719D
330
18
100
AcDbEntity
  8
2寸法線
 48
3.0
100
AcDbText
 10
1552.485409353969
 20
12.74061821534121
 30
0.0
 40
3.0
  1

  7
KANJI
100
AcDbText
  0
TEXT
  5
719E
330
18
100
AcDbEntity
  8
2寸法線
 48
3.0
100
AcDbText
 10
1552.485409353969
 20
6.740618215341214
 30
0.0
 40
3.0
  1

  7
KANJI
100
AcDbText
  0
TEXT
  5
D86A
330
18
100
AcDbEntity
  8
1外形線
100
AcDbText
 10
2062.699159997691
 20
-1346.309771822728
 30
0.0
 40
10.0
  1

  7
KANJI
100
AcDbText
  0
LINE
  5
58A8A
330
18
100
AcDbEntity
  8
2寸法線
100
AcDbLine
 10
259.9999999999927
 20
31.80000000000018
 30
0.0
 11
224.9999999999963
 21
31.79999999999973
 31
0.0
  0
LINE
  5
58A8C
330
18
100
AcDbEntity
  8
2寸法線
100
AcDbLine
 10
270.0
 20
15.89999999999986
 30
0.0
 11
195.9814696913854
 21
15.89999999999963
 31
0.0
  0
LINE
  5
58A8E
330
18
100
AcDbEntity
  8
2寸法線
100
AcDbLine
 10
259.9999999999927
 20
0.0
 30
0.0
 11
224.9999999999963
 21
0.0000000000004547
 31
0.0
  0
ARC
  5
58A92
330
18
100
AcDbEntity
  8
2寸法線
100
AcDbCircle
 10
130.0
 20
2.000000000000227
 30
0.0
 40
42.99999999999977
100
AcDbArc
 50
50.00000000003993
 51
90.0
  0
LINE
  5
58A93
330
18
100
AcDbEntity
  8
2寸法線
100
AcDbLine
 10
165.996106142411
 20
44.89848881469334
 30
0.0
 11
176.6978414007899
 21
35.91866670643048
 31
0.0
  0
LINE
  5
58A96
330
18
100
AcDbEntity
  8
2寸法線
100
AcDbLine
 10
94.00389385758172
 20
44.89848881469334
 30
0.0
 11
83.30215859920281
 21
35.91866670643048
 31
0.0
  0
ARC
  5
58A97
330
18
100
AcDbEntity
  8
2寸法線
100
AcDbCircle
 10
129.9999999999927
 20
2.000000000000227
 30
0.0
 40
42.99999999999977
100
AcDbArc
 50
90.0
 51
129.9999999999601
  0
LINE
  5
58A99
330
18
100
AcDbEntity
  8
2寸法線
100
AcDbLine
 10
-10.00000000000363
 20
15.89999999999986
 30
0.0
 11
64.01853030860729
 21
15.90000000000009
 31
0.0
  0
ARC
  5
58A9B
330
18
100
AcDbEntity
  8
2寸法線
100
AcDbCircle
 10
130.0
 20
2.000000000000227
 30
0.0
 40
30.0
100
AcDbArc
 50
50.00000000003993
 51
90.0
  0
LINE
  5
58A9C
330
18
100
AcDbEntity
  8
2寸法線
100
AcDbLine
 10
157.6398672165414
 20
34.93991105411464
 30
0.0
 11
168.341602474873
 21
25.96008894589203
 31
0.0
  0
LINE
  5
58A9D
330
18
100
AcDbEntity
  8
2寸法線
100
AcDbLine
 10
149.2836282906173
 20
24.98133329356596
 30
0.0
 11
159.9853635489489
 21
16.00151118534449
 31
0.0
  0
LINE
  5
58AA0
330
18
100
AcDbEntity
  8
2寸法線
100
AcDbLine
 10
224.9999999999963
 20
31.79999999999973
 30
0.0
 11
215.0
 21
28.89999999999963
 31
0.0
  0
LINE
  5
58AA1
330
18
100
AcDbEntity
  8
2寸法線
100
AcDbLine
 10
195.9814696913854
 20
28.90000000000054
 30
0.0
 11
215.0
 21
28.89999999999963
 31
0.0
  0
ARC
  5
58AA2
330
18
100
AcDbEntity
  8
2寸法線
100
AcDbCircle
 10
195.9814696913854
 20
58.90000000000054
 30
0.0
 40
30.0
100
AcDbArc
 50
230.0000000000399
 51
270.0
  0
ARC
  5
58AA4
330
18
100
AcDbEntity
  8
2寸法線
100
AcDbCircle
 10
195.9814696913854
 20
58.90000000000054
 30
0.0
 40
43.00000000000068
100
AcDbArc
 50
230.0000000000399
 51
270.0
  0
ARC
  5
58AA7
330
18
100
AcDbEntity
  8
2寸法線
100
AcDbCircle
 10
129.9999999999927
 20
2.000000000000227
 30
0.0
 40
30.0
100
AcDbArc
 50
90.0
 51
129.9999999999601
  0
LINE
  5
58AA9
330
18
100
AcDbEntity
  8
2寸法線
100
AcDbLine
 10
0.0
 20
31.80000000000018
 30
0.0
 11
34.99999999999636
 21
31.79999999999973
 31
0.0
  0
LINE
  5
58AAA
330
18
100
AcDbEntity
  8
2寸法線
100
AcDbLine
 10
0.0
 20
31.80000000000018
 30
0.0
 11
-0.000000000003638
 21
15.90000000000009
 31
0.0
  0
LINE
  5
58AAD
330
18
100
AcDbEntity
  8
2寸法線
100
AcDbLine
 10
64.01853030860729
 20
28.90000000000032
 30
0.0
 11
44.99999999999272
 21
28.89999999999986
 31
0.0
  0
LINE
  5
58AAE
330
18
100
AcDbEntity
  8
2寸法線
100
AcDbLine
 10
34.99999999999636
 20
31.79999999999973
 30
0.0
 11
44.99999999999272
 21
28.89999999999986
 31
0.0
  0
LINE
  5
58AAF
330
18
100
AcDbEntity
  8
2寸法線
100
AcDbLine
 10
102.3601327834512
 20
34.93991105411464
 30
0.0
 11
91.65839752511965
 21
25.96008894589203
 31
0.0
  0
ARC
  5
58AB0
330
18
100
AcDbEntity
  8
2寸法線
100
AcDbCircle
 10
64.01853030860729
 20
58.90000000000054
 30
0.0
 40
43.00000000000068
100
AcDbArc
 50
270.0
 51
309.99999999996
  0
ARC
  5
58AB2
330
18
100
AcDbEntity
  8
2寸法線
100
AcDbCircle
 10
64.01853030860729
 20
58.90000000000054
 30
0.0
 40
30.0
100
AcDbArc
 50
270.0
 51
309.99999999996
  0
LINE
  5
58AB4
330
18
100
AcDbEntity
  8
2寸法線
100
AcDbLine
 10
110.7163717093753
 20
24.98133329356596
 30
0.0
 11
100.0146364510437
 21
16.00151118534449
 31
0.0
  0
LINE
  5
58AB5
330
18
100
AcDbEntity
  8
2寸法線
100
AcDbLine
 10
224.9999999999963
 20
0.0000000000004547
 30
0.0
 11
215.0
 21
2.900000000000318
 31
0.0
  0
LINE
  5
58AB6
330
18
100
AcDbEntity
  8
2寸法線
100
AcDbLine
 10
195.9814696913854
 20
2.899999999999863
 30
0.0
 11
215.0
 21
2.900000000000318
 31
0.0
  0
LINE
  5
58AB9
330
18
100
AcDbEntity
  8
2寸法線
100
AcDbLine
 10
0.0
 20
0.0
 30
0.0
 11
34.99999999999636
 21
0.0000000000004547
 31
0.0
  0
LINE
  5
58ABB
330
18
100
AcDbEntity
  8
2寸法線
100
AcDbLine
 10
64.01853030860729
 20
2.899999999999863
 30
0.0
 11
44.99999999999272
 21
2.900000000000318
 31
0.0
  0
LINE
  5
58ABC
330
18
100
AcDbEntity
  8
2寸法線
100
AcDbLine
 10
34.99999999999636
 20
0.0000000000004547
 30
0.0
 11
44.99999999999272
 21
2.900000000000318
 31
0.0
  0
LINE
  5
58ABF
330
18
100
AcDbEntity
  8
2寸法線
100
AcDbLine
 10
0.0
 20
0.0
 30
0.0
 11
-0.000000000003638
 21
15.90000000000009
 31
0.0
  0
ARC
  5
58AC0
330
18
100
AcDbEntity
  8
2寸法線
100
AcDbCircle
 10
195.9814696913854
 20
58.90000000000054
 30
0.0
 40
56.00000000000068
100
AcDbArc
 50
230.0000000000399
 51
270.0
  0
ARC
  5
58AC3
330
18
100
AcDbEntity
  8
2寸法線
100
AcDbCircle
 10
64.01853030860729
 20
58.90000000000054
 30
0.0
 40
56.00000000000068
100
AcDbArc
 50
270.0
 51
309.99999999996
  0
ARC
  5
58AC6
330
18
100
AcDbEntity
  8
2寸法線
100
AcDbCircle
 10
44.19720455949504
 20
224.5998969826842
 30
0.0
 40
47.99999999999818
100
AcDbArc
 50
270.0
 51
309.9999999999559
  0
ARC
  5
58AC7
330
18
100
AcDbEntity
  8
2寸法線
100
AcDbCircle
 10
155.7972263643889
 20
224.5998969826842
 30
0.0
 40
47.99999999999818
100
AcDbArc
 50
230.0000000000441
 51
270.0
  0
ARC
  5
58AC9
330
18
100
AcDbEntity
  8
2寸法線
100
AcDbCircle
 10
130.0
 20
2.000000000000227
 30
0.0
 40
56.00000000000386
100
AcDbArc
 50
50.00000000004411
 51
90.0
  0
ARC
  5
58ACA
330
18
100
AcDbEntity
  8
2寸法線
100
AcDbCircle
 10
129.9999999999927
 20
2.000000000000227
 30
0.0
 40
56.00000000000386
100
AcDbArc
 50
90.0
 51
129.9999999999559
  0
LINE
  5
58ACC
330
18
100
AcDbEntity
  8
2寸法線
100
AcDbLine
 10
-10.00278453805435
 20
185.5998969826869
 30
0.0
 11
44.19720455949504
 21
185.5998969826871
 31
0.0
  0
ARC
  5
58ACF
330
18
100
AcDbEntity
  8
2寸法線
100
AcDbCircle
 10
99.99721546194201
 20
169.5998969826944
 30
0.0
 40
30.0
100
AcDbArc
 50
50.00000000003573
 51
90.0
  0
ARC
  5
58AD1
330
18
100
AcDbEntity
  8
2寸法線
100
AcDbCircle
 10
99.99721546194201
 20
169.5998969826944
 30
0.0
 40
39.00000000000386
100
AcDbArc
 50
50.00000000003573
 51
90.0
  0
LINE
  5
58AD4
330
18
100
AcDbEntity
  8
2寸法線
100
AcDbLine
 10
125.0659322396888
 20
199.4756302643622
 30
0.0
 11
130.7285095866348
 21
194.7241637010279
 31
0.0
  0
LINE
  5
58AD6
330
18
100
AcDbEntity
  8
2寸法線
100
AcDbLine
 10
119.2808437525084
 20
192.5812302762903
 30
0.0
 11
124.9434210994543
 21
187.829763712956
 31
0.0
  0
LINE
  5
58AD7
330
18
100
AcDbEntity
  8
2寸法線
100
AcDbLine
 10
130.8510207268657
 20
206.3700302524314
 30
0.0
 11
136.5135980738116
 21
201.618563689097
 31
0.0
  0
LINE
  5
58AD8
330
18
100
AcDbEntity
  8
2寸法線
100
AcDbLine
 10
163.9972154619456
 20
194.5998969826873
 30
0.0
 11
155.7972263643889
 21
194.5998969826882
 31
0.0
  0
ARC
  5
58ADA
330
18
100
AcDbEntity
  8
2寸法線
100
AcDbCircle
 10
155.7972263643889
 20
224.5998969826842
 30
0.0
 40
30.0
100
AcDbArc
 50
230.0000000000441
 51
270.0
  0
ARC
  5
58ADC
330
18
100
AcDbEntity
  8
2寸法線
100
AcDbCircle
 10
155.7972263643889
 20
224.5998969826842
 30
0.0
 40
38.99999999999727
100
AcDbArc
 50
230.0000000000441
 51
270.0
  0
LINE
  5
58ADE
330
18
100
AcDbEntity
  8
2寸法線
100
AcDbLine
 10
199.997215461942
 20
196.5998969826869
 30
0.0
 11
173.9972154619456
 21
196.5998969826869
 31
0.0
  0
LINE
  5
58ADF
330
18
100
AcDbEntity
  8
2寸法線
100
AcDbLine
 10
163.9972154619456
 20
194.5998969826873
 30
0.0
 11
173.9972154619456
 21
196.5998969826869
 31
0.0
  0
LINE
  5
58AE1
330
18
100
AcDbEntity
  8
2寸法線
100
AcDbLine
 10
209.997215461942
 20
185.5998969826869
 30
0.0
 11
155.7972263643889
 21
185.5998969826871
 31
0.0
  0
ARC
  5
58AE2
330
18
100
AcDbEntity
  8
2寸法線
100
AcDbCircle
 10
99.99721546194201
 20
169.5998969826944
 30
0.0
 40
48.00000000001159
100
AcDbArc
 50
50.00000000004411
 51
90.0
  0
LINE
  5
58AE3
330
18
100
AcDbEntity
  8
2寸法線
100
AcDbLine
 10
80.7135871713756
 20
192.5812302762903
 30
0.0
 11
75.05100982442968
 21
187.829763712956
 31
0.0
  0
LINE
  5
58AE5
330
18
100
AcDbEntity
  8
2寸法線
100
AcDbLine
 10
74.92849868419511
 20
199.4756302643622
 30
0.0
 11
69.26592133724921
 21
194.7241637010279
 31
0.0
  0
ARC
  5
58AE6
330
18
100
AcDbEntity
  8
2寸法線
100
AcDbCircle
 10
44.19720455949504
 20
224.5998969826842
 30
0.0
 40
38.99999999999727
100
AcDbArc
 50
270.0
 51
309.9999999999559
  0
ARC
  5
58AE9
330
18
100
AcDbEntity
  8
2寸法線
100
AcDbCircle
 10
44.19720455949504
 20
224.5998969826842
 30
0.0
 40
30.0
100
AcDbArc
 50
270.0
 51
309.9999999999559
  0
LINE
  5
58AEA
330
18
100
AcDbEntity
  8
2寸法線
100
AcDbLine
 10
69.14341019701828
 20
206.3700302524314
 30
0.0
 11
63.48083285007238
 21
201.618563689097
 31
0.0
  0
LINE
  5
58AEC
330
18
100
AcDbEntity
  8
2寸法線
100
AcDbLine
 10
35.99721546193836
 20
194.5998969826873
 30
0.0
 11
44.19720455949504
 21
194.5998969826882
 31
0.0
  0
LINE
  5
58AEE
330
18
100
AcDbEntity
  8
2寸法線
100
AcDbLine
 10
35.99721546193836
 20
194.5998969826873
 30
0.0
 11
25.99721546193836
 21
196.5998969826869
 31
0.0
  0
LINE
  5
58AEF
330
18
100
AcDbEntity
  8
2寸法線
100
AcDbLine
 10
-0.0027845380579947
 20
196.5998969826869
 30
0.0
 11
25.99721546193836
 21
196.5998969826869
 31
0.0
  0
ARC
  5
58AF1
330
18
100
AcDbEntity
  8
2寸法線
100
AcDbCircle
 10
99.99721546194201
 20
169.5998969826944
 30
0.0
 40
48.00000000001159
100
AcDbArc
 50
90.0
 51
129.9999999999559
  0
ARC
  5
58AF3
330
18
100
AcDbEntity
  8
2寸法線
100
AcDbCircle
 10
99.99721546194201
 20
169.5998969826944
 30
0.0
 40
39.00000000000386
100
AcDbArc
 50
90.0
 51
129.9999999999642
  0
ARC
  5
58AF5
330
18
100
AcDbEntity
  8
2寸法線
100
AcDbCircle
 10
99.99721546194201
 20
169.5998969826944
 30
0.0
 40
30.0
100
AcDbArc
 50
90.0
 51
129.9999999999642
  0
LINE
  5
58AF7
330
18
100
AcDbEntity
  8
2寸法線
100
AcDbLine
 10
163.9972154619456
 20
176.5998969826864
 30
0.0
 11
155.7972263643925
 21
176.599896982686
 31
0.0
  0
LINE
  5
58AF9
330
18
100
AcDbEntity
  8
2寸法線
100
AcDbLine
 10
199.997215461942
 20
174.5998969826869
 30
0.0
 11
173.9972154619456
 21
174.5998969826869
 31
0.0
  0
LINE
  5
58AFB
330
18
100
AcDbEntity
  8
2寸法線
100
AcDbLine
 10
163.9972154619456
 20
176.5998969826864
 30
0.0
 11
173.9972154619456
 21
174.5998969826869
 31
0.0
  0
LINE
  5
58AFC
330
18
100
AcDbEntity
  8
2寸法線
100
AcDbLine
 10
35.99721546193836
 20
176.5998969826864
 30
0.0
 11
44.19720455949141
 21
176.599896982686
 31
0.0
  0
LINE
  5
58AFE
330
18
100
AcDbEntity
  8
2寸法線
100
AcDbLine
 10
35.99721546193836
 20
176.5998969826864
 30
0.0
 11
25.99721546193836
 21
174.5998969826869
 31
0.0
  0
LINE
  5
58B00
330
18
100
AcDbEntity
  8
2寸法線
100
AcDbLine
 10
-0.0027845380579947
 20
174.5998969826869
 30
0.0
 11
25.99721546193836
 21
174.5998969826869
 31
0.0
  0
LINE
  5
58B03
330
18
100
AcDbEntity
  8
2寸法線
100
AcDbLine
 10
-0.0027845380579947
 20
174.5998969826869
 30
0.0
 11
-0.0027845380579947
 21
196.5998969826869
 31
0.0
  0
LINE
  5
58B05
330
18
100
AcDbEntity
  8
2寸法線
100
AcDbLine
 10
199.997215461942
 20
174.5998969826869
 30
0.0
 11
199.997215461942
 21
196.5998969826869
 31
0.0
  0
LINE
  5
58B08
330
18
100
AcDbEntity
  8
2寸法線
100
AcDbLine
 10
259.9999999999927
 20
31.80000000000018
 30
0.0
 11
259.9999999999963
 21
15.90000000000009
 31
0.0
  0
LINE
  5
58B09
330
18
100
AcDbEntity
  8
2寸法線
100
AcDbLine
 10
259.9999999999927
 20
0.0
 30
0.0
 11
259.9999999999963
 21
15.90000000000009
 31
0.0
  0
LINE
  5
58BE4
330
18
100
AcDbEntity
  8
2寸法線
100
AcDbLine
 10
25.99721546193836
 20
196.5998969826869
 30
0.0
 11
25.99721546193836
 21
174.5998969826869
 31
0.0
  0
LINE
  5
58BE5
330
18
100
AcDbEntity
  8
2寸法線
100
AcDbLine
 10
35.99721546193836
 20
194.5998969826873
 30
0.0
 11
35.99721546193836
 21
176.5998969826864
 31
0.0
  0
LINE
  5
58BE6
330
18
100
AcDbEntity
  8
2寸法線
100
AcDbLine
 10
173.9972154619456
 20
196.5998969826869
 30
0.0
 11
173.9972154619456
 21
174.5998969826869
 31
0.0
  0
LINE
  5
58BE7
330
18
100
AcDbEntity
  8
2寸法線
100
AcDbLine
 10
163.9972154619456
 20
194.5998969826873
 30
0.0
 11
163.9972154619456
 21
176.5998969826864
 31
0.0
  0
LINE
  5
58BE8
330
18
100
AcDbEntity
  8
2寸法線
100
AcDbLine
 10
34.99999999999636
 20
31.79999999999973
 30
0.0
 11
34.99999999999636
 21
0.0000000000004547
 31
0.0
  0
LINE
  5
58BE9
330
18
100
AcDbEntity
  8
2寸法線
100
AcDbLine
 10
44.99999999999272
 20
28.89999999999986
 30
0.0
 11
44.99999999999272
 21
2.900000000000318
 31
0.0
  0
LINE
  5
58BEA
330
18
100
AcDbEntity
  8
2寸法線
100
AcDbLine
 10
215.0
 20
28.89999999999963
 30
0.0
 11
215.0
 21
2.900000000000318
 31
0.0
  0
LINE
  5
58BEB
330
18
100
AcDbEntity
  8
2寸法線
100
AcDbLine
 10
224.9999999999963
 20
31.79999999999973
 30
0.0
 11
224.9999999999963
 21
0.0000000000004547
 31
0.0
  0
TEXT
  5
58C06
330
18
100
AcDbEntity
  8
2寸法線
100
AcDbText
 10
-0.6583571683340779
 20
246.2426747040706
 30
0.0
 40
10.0
  1
JXB-13
  7
KANJI
100
AcDbText
  0
TEXT
  5
58C07
330
18
100
AcDbEntity
  8
2寸法線
100
AcDbText
 10
-0.6583571683340779
 20
77.28151847155209
 30
0.0
 40
10.0
  1
JXB-20
  7
KANJI
100
AcDbText
  0
ENDSEC
  0
SECTION
  2
OBJECTS
  0
DICTIONARY
  5
C
330
0
100
AcDbDictionary
281
     1
  3
ACAD_GROUP
350
D
  3
ACAD_LAYOUT
350
15E
  3
ACAD_MLINESTYLE
350
1B
  3
ACAD_PLOTSETTINGS
350
15F
  3
ACAD_PLOTSTYLENAME
350
15C
  3
ACDBVARIABLEDICTIONARY
350
12D
  3
ASE_INDEX_DICTIONARY
350
57FD4
  0
DICTIONARY
  5
8B35
330
2
100
AcDbDictionary
280
     1
281
     1
  3
ACAD_LAYERSTATES
360
8B36
  0
DICTIONARY
  5
32E4
330
32E3
100
AcDbDictionary
280
     1
281
     1
  3
ACAD_XREC_ROUNDTRIP
360
32E5
  0
DICTIONARY
  5
DE2D
330
DE2C
100
AcDbDictionary
280
     1
281
     1
  3
ACAD_XREC_ROUNDTRIP
360
DE2E
  0
DICTIONARY
  5
DE30
330
DE2F
100
AcDbDictionary
280
     1
281
     1
  3
ACAD_XREC_ROUNDTRIP
360
DE31
  0
DICTIONARY
  5
D
102
{ACAD_REACTORS
330
C
102
}
330
C
100
AcDbDictionary
281
     1
  3
*A1
350
DE37
  3
*A10
350
4D4E6
  3
*A11
350
4D4E7
  3
*A12
350
4D4E8
  3
*A2
350
4F44D
  3
*A3
350
4F44E
  3
*A4
350
4F44F
  3
*A5
350
4F450
  3
*A6
350
DE38
  3
*A7
350
DE39
  3
*A8
350
DE3A
  3
*A9
350
4D4E5
  0
DICTIONARY
  5
15E
102
{ACAD_REACTORS
330
C
102
}
330
C
100
AcDbDictionary
281
     1
  3
Model
350
160
  3
ﾚｲｱｳﾄ1
350
161
  0
DICTIONARY
  5
1B
102
{ACAD_REACTORS
330
C
102
}
330
C
100
AcDbDictionary
281
     1
  3
STANDARD
350
1C
  0
DICTIONARY
  5
15F
102
{ACAD_REACTORS
330
C
102
}
330
C
100
AcDbDictionary
281
     1
  3
A3
350
16D
  3
A3 to A4
350
16E
  3
A4
350
16F
  0
ACDBDICTIONARYWDFLT
  5
15C
102
{ACAD_REACTORS
330
C
102
}
330
C
100
AcDbDictionary
281
     1
  3
Normal
350
15D
100
AcDbDictionaryWithDefault
340
15D
  0
DICTIONARY
  5
12D
102
{ACAD_REACTORS
330
C
102
}
330
C
100
AcDbDictionary
281
     1
  3
DIMASSOC
350
167
  3
SORTENTS
350
12E
  0
DICTIONARY
  5
57FD4
102
{ACAD_REACTORS
330
C
102
}
330
C
100
AcDbDictionary
281
     1
  3
ASEBlockHierarchyIndexRecord
350
57FD6
1001
DCO15
1040
1681139175.343
  0
DICTIONARY
  5
8B36
102
{ACAD_REACTORS
330
8B35
102
}
330
8B35
100
AcDbDictionary
281
     1
  0
XRECORD
  5
32E5
102
{ACAD_REACTORS
330
32E4
102
}
330
32E4
100
AcDbXrecord
280
     1
102
MATERIAL
340
0
  0
XRECORD
  5
DE2E
102
{ACAD_REACTORS
330
DE2D
102
}
330
DE2D
100
AcDbXrecord
280
     1
102
MATERIAL
340
0
  0
XRECORD
  5
DE31
102
{ACAD_REACTORS
330
DE30
102
}
330
DE30
100
AcDbXrecord
280
     1
102
MATERIAL
340
0
  0
GROUP
  5
DE37
102
{ACAD_REACTORS
330
D
102
}
330
D
100
AcDbGroup
300

 70
     1
 71
     1
  0
GROUP
  5
4D4E6
102
{ACAD_REACTORS
330
D
102
}
330
D
100
AcDbGroup
300

 70
     1
 71
     1
  0
GROUP
  5
4D4E7
102
{ACAD_REACTORS
330
D
102
}
330
D
100
AcDbGroup
300

 70
     1
 71
     1
  0
GROUP
  5
4D4E8
102
{ACAD_REACTORS
330
D
102
}
330
D
100
AcDbGroup
300

 70
     1
 71
     1
  0
GROUP
  5
4F44D
102
{ACAD_REACTORS
330
D
102
}
330
D
100
AcDbGroup
300

 70
     1
 71
     1
  0
GROUP
  5
4F44E
102
{ACAD_REACTORS
330
D
102
}
330
D
100
AcDbGroup
300

 70
     1
 71
     1
  0
GROUP
  5
4F44F
102
{ACAD_REACTORS
330
D
102
}
330
D
100
AcDbGroup
300

 70
     1
 71
     1
  0
GROUP
  5
4F450
102
{ACAD_REACTORS
330
D
102
}
330
D
100
AcDbGroup
300

 70
     1
 71
     1
  0
GROUP
  5
DE38
102
{ACAD_REACTORS
330
D
102
}
330
D
100
AcDbGroup
300

 70
     1
 71
     1
  0
GROUP
  5
DE39
102
{ACAD_REACTORS
330
D
102
}
330
D
100
AcDbGroup
300

 70
     1
 71
     1
  0
GROUP
  5
DE3A
102
{ACAD_REACTORS
330
D
102
}
330
D
100
AcDbGroup
300

 70
     1
 71
     1
  0
GROUP
  5
4D4E5
102
{ACAD_REACTORS
330
D
102
}
330
D
100
AcDbGroup
300

 70
     1
 71
     1
  0
LAYOUT
  5
160
102
{ACAD_REACTORS
330
15E
102
}
330
15E
100
AcDbPlotSettings
  1

  2
LBP3970(開発用)
  4
A4
  6
OLE1
 40
5.873749732971191
 41
5.873747825622558
 42
5.873748779296875
 43
5.873748779296875
 44
209.9733276367187
 45
296.9259948730469
 46
40.04999999999999
 47
0.0
 48
23787.70747711788
 49
1515.906910668287
140
24488.72121971358
141
1806.271944985113
142
1.0
143
2.458157774351533
 70
 11956
 72
     1
 73
     1
 74
     4
  7
1mizukoshi.ctb
 75
     0
147
0.4068087127824014
148
-23787.70747711788
149
-1515.906910668287
100
AcDbLayout
  1
Model
 70
     1
 71
     0
 10
0.0
 20
0.0
 11
12.0
 21
9.0
 12
0.0
 22
0.0
 32
0.0
 14
0.0
 24
0.0
 34
0.0
 15
0.0
 25
0.0
 35
0.0
146
0.0
 13
0.0
 23
0.0
 33
0.0
 16
1.0
 26
0.0
 36
0.0
 17
0.0
 27
1.0
 37
0.0
 76
     0
330
18
  0
LAYOUT
  5
161
102
{ACAD_REACTORS
330
15E
102
}
330
15E
100
AcDbPlotSettings
  1

  2
Canon LASER SHOT LBP-1710
  4

  6

 40
0.0
 41
0.0
 42
0.0
 43
0.0
 44
0.0
 45
0.0
 46
0.0
 47
0.0
 48
0.0
 49
0.0
140
0.0
141
0.0
142
1.0
143
1.0
 70
   688
 72
     0
 73
     0
 74
     5
  7
1mizukoshi.ctb
 75
    16
147
1.0
148
0.0
149
0.0
100
AcDbLayout
  1
ﾚｲｱｳﾄ1
 70
     1
 71
     1
 10
0.0
 20
0.0
 11
420.0
 21
297.0
 12
0.0
 22
0.0
 32
0.0
 14
26.66999878883362
 24
20.31999878883362
 34
0.0
 15
240.0299890995025
 25
182.8799890995025
 35
0.0
146
0.0
 13
0.0
 23
0.0
 33
0.0
 16
1.0
 26
0.0
 36
0.0
 17
0.0
 27
1.0
 37
0.0
 76
     0
330
15
  0
MLINESTYLE
  5
1C
102
{ACAD_REACTORS
330
1B
102
}
330
1B
100
AcDbMlineStyle
  2
STANDARD
 70
     0
  3

 62
   256
 51
90.0
 52
90.0
 71
     2
 49
0.5
 62
   256
  6
BYLAYER
 49
-0.5
 62
   256
  6
BYLAYER
  0
PLOTSETTINGS
  5
16D
102
{ACAD_REACTORS
330
15F
102
}
330
15F
100
AcDbPlotSettings
  1
A3
  2
LBP3970(開発用)
  4
A3
  6

 40
5.873749732971191
 41
5.873747825622558
 42
5.873748779296875
 43
5.873748779296875
 44
296.9259948730469
 45
419.9466552734374
 46
-150.6899999999999
 47
-263.3299999999999
 48
0.0
 49
0.0
140
0.0
141
0.0
142
1.0
143
1.0
 70
  1716
 72
     1
 73
     1
 74
     0
  7
1mizukoshi.ctb
 75
    16
147
1.0
148
375.874602794677
149
225.3755849730944
  0
PLOTSETTINGS
  5
16E
102
{ACAD_REACTORS
330
15F
102
}
330
15F
100
AcDbPlotSettings
  1
A3 to A4
  2
LBP3970(開発用)
  4
A4
  6

 40
5.873749732971191
 41
5.873747825622558
 42
5.873748779296875
 43
5.873748779296875
 44
209.9733276367187
 45
296.9259948730469
 46
-107.42
 47
-186.59
 48
0.0
 49
0.0
140
0.0
141
0.0
142
1.0
143
1.419999999999999
 70
  1700
 72
     1
 73
     1
 74
     0
  7
1mizukoshi.ctb
 75
     0
147
0.7042253521126761
148
375.874602794677
149
225.3755849730944
  0
PLOTSETTINGS
  5
16F
102
{ACAD_REACTORS
330
15F
102
}
330
15F
100
AcDbPlotSettings
  1
A4
  2
LBP3970(開発用)
  4
A4
  6

 40
5.873749732971191
 41
5.873747825622558
 42
5.873748779296875
 43
5.873748779296875
 44
209.9733276367187
 45
296.9259948730469
 46
-368.3199999999999
 47
-150.6899999999999
 48
0.0
 49
0.0
140
0.0
141
0.0
142
1.0
143
1.0
 70
  1716
 72
     1
 73
     0
 74
     0
  7
1mizukoshi.ctb
 75
    16
147
1.0
148
375.874602794677
149
225.3755849730944
  0
ACDBPLACEHOLDER
  5
15D
102
{ACAD_REACTORS
330
15C
102
}
330
15C
  0
DICTIONARYVAR
  5
167
102
{ACAD_REACTORS
330
12D
102
}
330
12D
100
DictionaryVariables
280
     0
  1
1
  0
DICTIONARYVAR
  5
12E
102
{ACAD_REACTORS
330
12D
102
}
330
12D
100
DictionaryVariables
280
     0
  1
96
  0
XRECORD
  5
57FD6
102
{ACAD_REACTORS
330
57FD4
102
}
330
57FD4
100
AcDbXrecord
280
     1
330
0
330
0
330
0
330
0
330
0
330
0
330
0
330
0
330
0
330
0
330
0
330
0
330
0
330
0
330
0
330
0
330
0
330
0
330
0
330
0
330
0
330
0
330
0
330
0
330
0
330
0
330
0
330
0
330
0
330
0
330
0
330
0
330
0
330
0
330
0
330
0
330
0
330
0
330
0
330
0
330
0
330
0
330
0
330
0
330
0
330
0
330
0
330
0
330
0
330
0
330
0
330
0
330
0
330
0
330
0
330
0
330
0
330
0
330
0
330
0
330
0
330
0
330
0
330
0
330
0
330
0
330
0
330
0
330
0
330
0
330
0
330
0
330
0
330
0
330
0
330
0
330
0
330
0
330
0
330
0
330
0
330
0
330
0
330
0
330
0
330
0
330
0
330
0
330
0
330
0
330
0
330
0
330
0
330
0
330
0
330
0
330
0
330
0
330
0
330
0
330
0
330
0
330
0
330
0
330
0
330
0
330
0
330
0
330
0
330
0
330
0
330
0
330
0
330
0
330
0
330
0
330
0
330
0
330
0
330
0
330
0
330
0
330
0
330
0
330
0
330
0
330
0
330
0
330
0
330
0
330
0
330
0
330
0
330
0
330
0
330
0
330
0
330
0
330
0
330
0
330
0
330
0
330
0
330
0
330
0
330
0
330
0
330
0
330
0
330
0
330
0
330
0
330
0
330
0
330
0
330
0
330
0
330
0
330
0
330
0
330
0
330
0
330
0
330
0
330
0
330
0
330
0
330
0
330
0
330
0
330
0
330
0
330
0
330
0
330
0
330
0
330
0
330
0
330
0
330
0
330
0
330
0
330
0
330
0
330
0
330
0
330
0
330
0
330
0
330
0
330
0
330
0
330
0
330
0
330
0
330
0
330
0
330
0
330
0
330
0
330
0
330
0
330
0
330
0
330
0
330
0
330
0
330
0
330
0
330
0
330
0
330
0
330
0
330
0
330
0
330
0
330
0
330
0
330
0
330
0
330
0
330
0
330
0
330
0
330
0
330
0
330
0
330
0
330
0
330
0
330
0
330
0
330
0
330
0
330
0
330
0
330
0
330
0
330
0
330
0
330
0
330
0
330
0
330
0
330
0
330
0
330
0
330
0
330
0
330
0
330
0
330
0
330
0
330
0
330
0
330
0
330
0
330
0
330
0
330
0
330
0
330
0
330
0
330
0
330
0
330
0
330
0
330
0
330
0
330
0
330
0
330
0
330
0
330
0
330
0
330
0
330
0
330
0
330
0
330
0
330
0
330
0
330
0
330
0
330
0
330
0
330
0
330
0
330
0
330
0
330
0
330
0
330
0
330
0
330
0
330
0
330
0
330
0
330
0
330
0
330
0
330
0
330
0
330
0
330
0
330
0
330
0
330
0
330
0
330
0
330
0
330
0
330
0
330
0
330
0
330
0
330
0
330
0
330
0
330
0
330
0
330
0
330
0
330
0
330
0
330
0
330
0
330
0
330
0
330
0
330
0
330
0
330
0
330
0
330
0
330
0
330
0
330
0
330
0
330
0
330
0
330
0
330
0
330
0
330
0
330
0
330
0
330
0
330
0
330
0
330
0
330
0
330
0
330
0
330
0
330
0
330
0
330
0
330
0
330
0
330
0
330
0
330
0
330
0
330
0
330
0
330
0
330
0
330
0
330
0
330
0
330
0
330
0
330
0
330
0
330
0
330
0
330
0
330
0
330
0
330
0
330
0
330
0
330
0
330
0
330
0
330
0
330
0
330
0
330
0
330
0
330
0
330
0
330
0
330
0
330
0
330
0
330
0
330
0
330
0
330
0
330
0
330
0
330
0
330
0
330
0
330
0
330
0
330
0
330
0
330
0
330
0
330
0
330
0
330
0
330
0
330
0
330
0
330
0
330
0
330
0
330
0
330
0
330
0
330
0
330
0
330
0
330
0
330
0
330
0
330
0
330
0
330
0
330
0
330
0
330
0
330
0
330
0
330
0
330
0
330
0
330
0
330
0
330
0
330
0
330
0
330
0
330
0
330
0
330
0
330
0
330
0
330
0
330
0
330
0
330
0
330
0
330
0
330
0
330
0
330
0
330
0
330
0
330
0
330
0
330
0
330
0
330
0
330
0
330
0
330
0
330
0
330
0
330
0
330
0
330
0
330
0
330
0
330
0
330
0
330
0
330
0
330
0
330
0
330
0
330
0
330
0
330
0
330
0
330
0
330
0
330
0
330
0
330
0
330
0
330
0
330
0
330
0
330
0
330
0
330
0
330
0
330
0
330
0
330
0
330
0
330
0
330
0
330
0
330
0
330
0
330
0
330
0
330
0
330
0
330
0
330
0
330
0
330
0
330
0
330
0
330
0
330
0
330
0
330
0
330
0
330
0
330
0
330
0
330
0
330
0
330
0
330
0
330
0
330
0
330
0
330
0
330
0
330
0
330
0
330
0
330
0
330
0
330
0
330
0
330
0
330
0
330
0
330
0
330
0
330
0
330
0
330
0
330
0
330
0
330
0
330
0
330
0
330
0
330
0
330
0
330
0
330
0
330
0
330
0
330
0
330
0
330
0
330
0
330
0
330
0
330
0
330
0
330
0
330
0
330
0
330
0
330
0
330
0
330
0
330
0
330
0
330
0
330
0
330
0
330
0
330
0
330
0
330
0
330
0
330
0
330
0
330
0
330
0
330
0
330
0
330
0
330
0
330
0
330
0
330
0
330
0
330
0
330
0
330
0
330
0
330
0
330
0
330
0
330
0
330
0
330
0
330
0
330
0
330
0
330
0
330
0
330
0
330
0
330
0
330
0
330
0
330
0
330
0
330
0
330
0
330
0
330
0
330
0
330
0
330
0
330
0
330
0
330
0
330
0
330
0
330
0
330
0
330
0
330
0
330
0
330
0
330
0
330
0
330
0
330
0
330
0
330
0
330
0
330
0
330
0
330
0
330
0
330
0
330
0
330
0
330
0
330
0
330
0
330
0
330
0
330
0
330
0
330
0
330
0
330
0
330
0
330
0
330
0
330
0
330
0
330
0
330
0
330
0
330
0
330
0
330
0
330
0
330
0
330
0
330
0
330
0
330
0
330
0
330
0
330
0
330
0
330
0
330
0
330
0
330
0
330
0
330
0
330
0
330
0
330
0
330
0
330
0
330
0
330
0
330
0
330
0
330
0
330
0
330
0
330
0
330
0
330
0
330
0
330
0
330
0
330
0
330
0
330
0
330
0
330
0
330
0
330
0
330
0
330
0
330
0
330
0
330
0
330
0
330
0
330
0
330
0
330
0
330
0
330
0
330
0
330
0
330
0
330
0
330
0
330
0
330
0
330
0
330
0
330
0
330
0
330
0
330
0
330
0
330
0
330
0
330
0
330
0
330
0
330
0
330
0
330
0
330
0
330
0
330
0
330
0
330
0
330
0
330
0
330
0
330
0
330
0
330
0
330
0
330
0
330
0
330
0
330
0
330
0
330
0
330
0
330
0
330
0
330
0
330
0
330
0
330
0
330
0
330
0
330
0
330
0
330
0
330
0
330
0
330
0
330
0
330
0
330
0
330
0
330
0
330
0
330
0
330
0
330
0
330
0
330
0
330
0
330
0
330
0
330
0
330
0
330
0
330
0
330
0
330
0
330
0
330
0
330
0
330
0
330
0
330
0
330
0
330
0
330
0
330
0
330
0
330
0
330
0
330
0
330
0
330
0
330
0
330
0
330
0
330
0
330
0
330
0
330
0
330
0
330
0
330
0
330
0
330
0
330
0
330
0
330
0
330
0
330
0
330
0
330
0
330
0
330
0
330
0
330
0
330
0
330
0
330
0
330
0
330
0
330
0
330
0
330
0
330
0
330
0
330
0
330
0
330
0
330
0
330
0
330
0
330
0
330
0
330
0
330
0
330
0
330
0
330
0
330
0
330
0
330
0
330
0
330
0
330
0
330
0
330
0
330
0
330
0
330
0
330
0
330
0
330
0
330
0
330
0
330
0
330
0
330
0
330
0
330
0
330
0
330
0
330
0
330
0
330
0
330
0
330
0
330
0
330
0
330
0
330
0
330
0
330
0
330
0
330
0
330
0
330
0
330
0
330
0
330
0
330
0
330
0
330
0
330
0
330
0
330
0
330
0
330
0
330
0
330
0
330
0
330
0
330
0
330
0
330
0
330
0
330
0
330
0
330
0
330
0
330
0
330
0
330
0
330
0
330
0
330
0
330
0
330
0
330
0
330
0
330
0
330
0
330
0
330
0
330
0
330
0
330
0
330
0
330
0
330
0
330
0
330
0
330
0
330
0
330
0
330
0
330
0
330
0
330
0
330
0
330
0
330
0
330
0
330
0
330
0
330
0
330
0
330
0
330
0
330
0
330
0
330
0
330
0
  0
ENDSEC
  0
EOF
