  0
SECTION
  2
HEADER
  9
$ACADVER
  1
AC1015
  9
$ACADMAINTVER
 70
    20
  9
$DWGCODEPAGE
  3
ANSI_932
  9
$INSBASE
 10
0.0
 20
0.0
 30
0.0
  9
$EXTMIN
 10
540.6245787519292
 20
-188.6898771961991
 30
-0.0015258207003583
  9
$EXTMAX
 10
884.9101484137809
 20
426.2639737452263
 30
0.0000000349246037
  9
$LIMMIN
 10
0.0
 20
0.0
  9
$LIMMAX
 10
420.0
 20
297.0
  9
$ORTHOMODE
 70
     0
  9
$REGENMODE
 70
     1
  9
$FILLMODE
 70
     1
  9
$QTEXTMODE
 70
     0
  9
$MIRRTEXT
 70
     1
  9
$LTSCALE
 40
1.0
  9
$ATTMODE
 70
     1
  9
$TEXTSIZE
 40
2.5
  9
$TRACEWID
 40
1.0
  9
$TEXTSTYLE
  7
STANDARD
  9
$CLAYER
  8
2寸法線
  9
$CELTYPE
  6
ByLayer
  9
$CECOLOR
 62
   256
  9
$CELTSCALE
 40
1.0
  9
$DISPSILH
 70
     0
  9
$DIMSCALE
 40
1.0
  9
$DIMASZ
 40
2.5
  9
$DIMEXO
 40
0.625
  9
$DIMDLI
 40
3.75
  9
$DIMRND
 40
0.0
  9
$DIMDLE
 40
0.0
  9
$DIMEXE
 40
1.25
  9
$DIMTP
 40
0.0
  9
$DIMTM
 40
0.0
  9
$DIMTXT
 40
2.5
  9
$DIMCEN
 40
2.5
  9
$DIMTSZ
 40
0.0
  9
$DIMTOL
 70
     0
  9
$DIMLIM
 70
     0
  9
$DIMTIH
 70
     0
  9
$DIMTOH
 70
     0
  9
$DIMSE1
 70
     0
  9
$DIMSE2
 70
     0
  9
$DIMTAD
 70
     1
  9
$DIMZIN
 70
     8
  9
$DIMBLK
  1

  9
$DIMASO
 70
     1
  9
$DIMSHO
 70
     1
  9
$DIMPOST
  1

  9
$DIMAPOST
  1

  9
$DIMALT
 70
     0
  9
$DIMALTD
 70
     3
  9
$DIMALTF
 40
0.03937007874016
  9
$DIMLFAC
 40
1.0
  9
$DIMTOFL
 70
     1
  9
$DIMTVP
 40
0.0
  9
$DIMTIX
 70
     0
  9
$DIMSOXD
 70
     0
  9
$DIMSAH
 70
     0
  9
$DIMBLK1
  1

  9
$DIMBLK2
  1

  9
$DIMSTYLE
  2
ISO-25
  9
$DIMCLRD
 70
     0
  9
$DIMCLRE
 70
     0
  9
$DIMCLRT
 70
     0
  9
$DIMTFAC
 40
1.0
  9
$DIMGAP
 40
0.625
  9
$DIMJUST
 70
     0
  9
$DIMSD1
 70
     0
  9
$DIMSD2
 70
     0
  9
$DIMTOLJ
 70
     1
  9
$DIMTZIN
 70
     0
  9
$DIMALTZ
 70
     0
  9
$DIMALTTZ
 70
     0
  9
$DIMUPT
 70
     0
  9
$DIMDEC
 70
     4
  9
$DIMTDEC
 70
     4
  9
$DIMALTU
 70
     2
  9
$DIMALTTD
 70
     2
  9
$DIMTXSTY
  7
STANDARD
  9
$DIMAUNIT
 70
     0
  9
$DIMADEC
 70
     0
  9
$DIMALTRND
 40
0.0
  9
$DIMAZIN
 70
     0
  9
$DIMDSEP
 70
    46
  9
$DIMATFIT
 70
     3
  9
$DIMFRAC
 70
     0
  9
$DIMLDRBLK
  1

  9
$DIMLUNIT
 70
     2
  9
$DIMLWD
 70
    -2
  9
$DIMLWE
 70
    -2
  9
$DIMTMOVE
 70
     0
  9
$LUNITS
 70
     2
  9
$LUPREC
 70
     4
  9
$SKETCHINC
 40
1.0
  9
$FILLETRAD
 40
8.0
  9
$AUNITS
 70
     0
  9
$AUPREC
 70
     0
  9
$MENU
  1
.
  9
$ELEVATION
 40
0.0
  9
$PELEVATION
 40
0.0
  9
$THICKNESS
 40
0.0
  9
$LIMCHECK
 70
     0
  9
$CHAMFERA
 40
10.0
  9
$CHAMFERB
 40
10.0
  9
$CHAMFERC
 40
0.0
  9
$CHAMFERD
 40
0.0
  9
$SKPOLY
 70
     0
  9
$TDCREATE
 40
2452263.783811482
  9
$TDUCREATE
 40
2452263.408811482
  9
$TDUPDATE
 40
2456770.632756134
  9
$TDUUPDATE
 40
2456770.257756134
  9
$TDINDWG
 40
0.8144567593
  9
$TDUSRTIMER
 40
0.8142499884
  9
$USRTIMER
 70
     1
  9
$ANGBASE
 50
0.0
  9
$ANGDIR
 70
     0
  9
$PDMODE
 70
     0
  9
$PDSIZE
 40
0.0
  9
$PLINEWID
 40
0.0
  9
$SPLFRAME
 70
     0
  9
$SPLINETYPE
 70
     6
  9
$SPLINESEGS
 70
     8
  9
$HANDSEED
  5
2E61
  9
$SURFTAB1
 70
     6
  9
$SURFTAB2
 70
     6
  9
$SURFTYPE
 70
     6
  9
$SURFU
 70
     6
  9
$SURFV
 70
     6
  9
$UCSBASE
  2

  9
$UCSNAME
  2

  9
$UCSORG
 10
0.0
 20
0.0
 30
0.0
  9
$UCSXDIR
 10
1.0
 20
0.0
 30
0.0
  9
$UCSYDIR
 10
0.0
 20
1.0
 30
0.0
  9
$UCSORTHOREF
  2

  9
$UCSORTHOVIEW
 70
     0
  9
$UCSORGTOP
 10
0.0
 20
0.0
 30
0.0
  9
$UCSORGBOTTOM
 10
0.0
 20
0.0
 30
0.0
  9
$UCSORGLEFT
 10
0.0
 20
0.0
 30
0.0
  9
$UCSORGRIGHT
 10
0.0
 20
0.0
 30
0.0
  9
$UCSORGFRONT
 10
0.0
 20
0.0
 30
0.0
  9
$UCSORGBACK
 10
0.0
 20
0.0
 30
0.0
  9
$PUCSBASE
  2

  9
$PUCSNAME
  2

  9
$PUCSORG
 10
0.0
 20
0.0
 30
0.0
  9
$PUCSXDIR
 10
1.0
 20
0.0
 30
0.0
  9
$PUCSYDIR
 10
0.0
 20
1.0
 30
0.0
  9
$PUCSORTHOREF
  2

  9
$PUCSORTHOVIEW
 70
     0
  9
$PUCSORGTOP
 10
0.0
 20
0.0
 30
0.0
  9
$PUCSORGBOTTOM
 10
0.0
 20
0.0
 30
0.0
  9
$PUCSORGLEFT
 10
0.0
 20
0.0
 30
0.0
  9
$PUCSORGRIGHT
 10
0.0
 20
0.0
 30
0.0
  9
$PUCSORGFRONT
 10
0.0
 20
0.0
 30
0.0
  9
$PUCSORGBACK
 10
0.0
 20
0.0
 30
0.0
  9
$USERI1
 70
     0
  9
$USERI2
 70
     0
  9
$USERI3
 70
     0
  9
$USERI4
 70
     0
  9
$USERI5
 70
     0
  9
$USERR1
 40
0.0
  9
$USERR2
 40
0.0
  9
$USERR3
 40
0.0
  9
$USERR4
 40
0.0
  9
$USERR5
 40
0.0
  9
$WORLDVIEW
 70
     1
  9
$SHADEDGE
 70
     3
  9
$SHADEDIF
 70
    70
  9
$TILEMODE
 70
     1
  9
$MAXACTVP
 70
    64
  9
$PINSBASE
 10
0.0
 20
0.0
 30
0.0
  9
$PLIMCHECK
 70
     0
  9
$PEXTMIN
 10
1.000000000000000E+20
 20
1.000000000000000E+20
 30
1.000000000000000E+20
  9
$PEXTMAX
 10
-1.000000000000000E+20
 20
-1.000000000000000E+20
 30
-1.000000000000000E+20
  9
$PLIMMIN
 10
0.0
 20
0.0
  9
$PLIMMAX
 10
420.0
 20
297.0
  9
$UNITMODE
 70
     0
  9
$VISRETAIN
 70
     1
  9
$PLINEGEN
 70
     0
  9
$PSLTSCALE
 70
     1
  9
$TREEDEPTH
 70
  3020
  9
$CMLSTYLE
  2
Standard
  9
$CMLJUST
 70
     0
  9
$CMLSCALE
 40
1.0
  9
$PROXYGRAPHICS
 70
     1
  9
$MEASUREMENT
 70
     0
  9
$CELWEIGHT
370
    -1
  9
$ENDCAPS
280
     0
  9
$JOINSTYLE
280
     0
  9
$LWDISPLAY
290
     0
  9
$INSUNITS
 70
     0
  9
$HYPERLINKBASE
  1

  9
$STYLESHEET
  1
INABA-CAD-CANON.CTB
  9
$XEDIT
290
     1
  9
$CEPSNTYPE
380
     0
  9
$PSTYLEMODE
290
     1
  9
$FINGERPRINTGUID
  2
{F28305D8-7C18-4369-90EB-BFABBADB8EAD}
  9
$VERSIONGUID
  2
{43DEFCAC-7432-4097-935A-78278ABFC061}
  9
$EXTNAMES
290
     1
  9
$PSVPSCALE
 40
0.0
  9
$OLESTARTUP
290
     0
  0
ENDSEC
  0
SECTION
  2
CLASSES
  0
CLASS
  1
ACDBDICTIONARYWDFLT
  2
AcDbDictionaryWithDefault
  3
ObjectDBX Classes
 90
        0
280
     0
281
     0
  0
CLASS
  1
ACDBPLACEHOLDER
  2
AcDbPlaceHolder
  3
ObjectDBX Classes
 90
        0
280
     0
281
     0
  0
CLASS
  1
LAYOUT
  2
AcDbLayout
  3
ObjectDBX Classes
 90
        0
280
     0
281
     0
  0
CLASS
  1
DICTIONARYVAR
  2
AcDbDictionaryVar
  3
ObjectDBX Classes
 90
        0
280
     0
281
     0
  0
CLASS
  1
MATERIAL
  2
AcDbMaterial
  3
ObjectDBX Classes
 90
     1153
280
     0
281
     0
  0
CLASS
  1
VISUALSTYLE
  2
AcDbVisualStyle
  3
ObjectDBX Classes
 90
     4095
280
     0
281
     0
  0
CLASS
  1
TABLESTYLE
  2
AcDbTableStyle
  3
ObjectDBX Classes
 90
     4095
280
     0
281
     0
  0
CLASS
  1
SCALE
  2
AcDbScale
  3
ObjectDBX Classes
 90
     1153
280
     0
281
     0
  0
CLASS
  1
MLEADERSTYLE
  2
AcDbMLeaderStyle
  3
ACDB_MLEADERSTYLE_CLASS
 90
     4095
280
     0
281
     0
  0
CLASS
  1
SORTENTSTABLE
  2
AcDbSortentsTable
  3
ObjectDBX Classes
 90
        0
280
     0
281
     0
  0
CLASS
  1
CELLSTYLEMAP
  2
AcDbCellStyleMap
  3
ObjectDBX Classes
 90
     1152
280
     0
281
     0
  0
ENDSEC
  0
SECTION
  2
TABLES
  0
TABLE
  2
VPORT
  5
1A4
330
0
100
AcDbSymbolTable
 70
     1
  0
VPORT
  5
1E2D
330
1A4
100
AcDbSymbolTableRecord
100
AcDbViewportTableRecord
  2
*Active
 70
     0
 10
0.0
 20
0.0
 11
1.0
 21
1.0
 12
712.7673635828549
 22
118.7870482745136
 13
0.0
 23
0.0
 14
10.0
 24
10.0
 15
10.0
 25
10.0
 16
0.0
 26
0.0
 36
1.0
 17
0.0
 27
0.0
 37
0.0
 40
619.5090646521028
 41
2.34610630407911
 42
50.0
 43
0.0
 44
0.0
 50
0.0
 51
0.0
 71
     0
 72
   100
 73
     1
 74
     3
 75
     0
 76
     0
 77
     0
 78
     0
281
     0
 65
     1
110
0.0
120
0.0
130
0.0
111
1.0
121
0.0
131
0.0
112
0.0
122
1.0
132
0.0
 79
     0
146
0.0
1001
ACAD_NAV_VCDISPLAY
1070
     3
  0
ENDTAB
  0
TABLE
  2
LTYPE
  5
1A1
330
0
100
AcDbSymbolTable
 70
     3
  0
LTYPE
  5
1AF
330
1A1
100
AcDbSymbolTableRecord
100
AcDbLinetypeTableRecord
  2
ByBlock
 70
     0
  3

 72
    65
 73
     0
 40
0.0
  0
LTYPE
  5
1B0
330
1A1
100
AcDbSymbolTableRecord
100
AcDbLinetypeTableRecord
  2
ByLayer
 70
     0
  3

 72
    65
 73
     0
 40
0.0
  0
LTYPE
  5
1B1
330
1A1
100
AcDbSymbolTableRecord
100
AcDbLinetypeTableRecord
  2
CONTINUOUS
 70
     0
  3
Solid line
 72
    65
 73
     0
 40
0.0
  0
ENDTAB
  0
TABLE
  2
LAYER
  5
19E
102
{ACAD_XDICTIONARY
360
37A
102
}
330
0
100
AcDbSymbolTable
 70
     8
  0
LAYER
  5
1AC
102
{ACAD_XDICTIONARY
360
47C
102
}
330
19E
100
AcDbSymbolTableRecord
100
AcDbLayerTableRecord
  2
0
 70
     0
 62
     7
  6
CONTINUOUS
370
    -3
390
1AB
  0
LAYER
  5
1BF
102
{ACAD_XDICTIONARY
360
47E
102
}
330
19E
100
AcDbSymbolTableRecord
100
AcDbLayerTableRecord
  2
1外形線
 70
     0
 62
     3
  6
CONTINUOUS
370
    -3
390
1AB
  0
LAYER
  5
1CB
102
{ACAD_XDICTIONARY
360
482
102
}
330
19E
100
AcDbSymbolTableRecord
100
AcDbLayerTableRecord
  2
2寸法線
 70
     0
 62
     2
  6
CONTINUOUS
370
    -3
390
1AB
  0
LAYER
  5
218
330
19E
100
AcDbSymbolTableRecord
100
AcDbLayerTableRecord
  2
Defpoints
 70
     0
 62
     7
  6
CONTINUOUS
290
     0
370
    -3
390
1AB
  0
ENDTAB
  0
TABLE
  2
STYLE
  5
19F
330
0
100
AcDbSymbolTable
 70
     3
  0
STYLE
  5
1AD
330
19F
100
AcDbSymbolTableRecord
100
AcDbTextStyleTableRecord
  2
STANDARD
 70
     0
 40
0.0
 41
1.0
 50
0.0
 71
     0
 42
2.5
  3
txt
  4

  0
STYLE
  5
1C1
330
19F
100
AcDbSymbolTableRecord
100
AcDbTextStyleTableRecord
  2
KANJI
 70
     0
 40
0.0
 41
1.0
 50
0.0
 71
     0
 42
2.5
  3
simplex.shx
  4
extfont.shx
  0
ENDTAB
  0
TABLE
  2
VIEW
  5
1A2
330
0
100
AcDbSymbolTable
 70
     0
  0
ENDTAB
  0
TABLE
  2
UCS
  5
1A3
330
0
100
AcDbSymbolTable
 70
     0
  0
ENDTAB
  0
TABLE
  2
APPID
  5
1A5
330
0
100
AcDbSymbolTable
 70
    12
  0
APPID
  5
1AE
330
1A5
100
AcDbSymbolTableRecord
100
AcDbRegAppTableRecord
  2
ACAD
 70
     0
  0
APPID
  5
375
330
1A5
100
AcDbSymbolTableRecord
100
AcDbRegAppTableRecord
  2
ACAD_PSEXT
 70
     0
  0
APPID
  5
376
330
1A5
100
AcDbSymbolTableRecord
100
AcDbRegAppTableRecord
  2
ACAD_NAV_VCDISPLAY
 70
     0
  0
APPID
  5
377
330
1A5
100
AcDbSymbolTableRecord
100
AcDbRegAppTableRecord
  2
ACAD_DSTYLE_DIMJAG
 70
     0
  0
APPID
  5
378
330
1A5
100
AcDbSymbolTableRecord
100
AcDbRegAppTableRecord
  2
ACAD_DSTYLE_DIMBREAK
 70
     0
  0
APPID
  5
379
330
1A5
100
AcDbSymbolTableRecord
100
AcDbRegAppTableRecord
  2
ACAD_DSTYLE_DIMTALN
 70
     0
  0
APPID
  5
47A
330
1A5
100
AcDbSymbolTableRecord
100
AcDbRegAppTableRecord
  2
ACAD_EXEMPT_FROM_CAD_STANDARDS
 70
     0
  0
APPID
  5
4C6
330
1A5
100
AcDbSymbolTableRecord
100
AcDbRegAppTableRecord
  2
ACAD_MLEADERVER
 70
     0
  0
APPID
  5
690
330
1A5
100
AcDbSymbolTableRecord
100
AcDbRegAppTableRecord
  2
ACAD_DSTYLE_DIMRADIAL_EXTENSION
 70
     0
  0
APPID
  5
26DD
330
1A5
100
AcDbSymbolTableRecord
100
AcDbRegAppTableRecord
  2
GradientColor1ACI
 70
     0
  0
APPID
  5
26DE
330
1A5
100
AcDbSymbolTableRecord
100
AcDbRegAppTableRecord
  2
GradientColor2ACI
 70
     0
  0
APPID
  5
2E49
330
1A5
100
AcDbSymbolTableRecord
100
AcDbRegAppTableRecord
  2
ACAD_DSTYLE_DIMFLIPARROW_WHICH_SYMBOL
 70
     0
  0
ENDTAB
  0
TABLE
  2
DIMSTYLE
  5
1A6
330
0
100
AcDbSymbolTable
 70
     9
100
AcDbDimStyleTable
 71
     1
340
1C2
  0
DIMSTYLE
105
1C2
330
1A6
100
AcDbSymbolTableRecord
100
AcDbDimStyleTableRecord
  2
ISO-25
 70
     0
 41
2.5
 42
0.625
 43
3.75
 44
1.25
 73
     0
 74
     0
 77
     1
 78
     8
140
2.5
141
2.5
143
0.03937007874016
147
0.625
171
     3
172
     1
274
     3
279
     2
284
     8
285
     8
286
     8
340
1AD
  0
DIMSTYLE
105
1C3
330
1A6
100
AcDbSymbolTableRecord
100
AcDbDimStyleTableRecord
  2
STANDARD
 70
     0
274
     3
279
     2
284
     8
285
     8
286
     8
340
1AD
  0
ENDTAB
  0
TABLE
  2
BLOCK_RECORD
  5
19D
330
0
100
AcDbSymbolTable
 70
   160
  0
BLOCK_RECORD
  5
1BA
102
{ACAD_XDICTIONARY
360
4CE
102
}
330
19D
100
AcDbSymbolTableRecord
100
AcDbBlockTableRecord
  2
*Model_Space
340
1BD
  0
BLOCK_RECORD
  5
1B6
330
19D
100
AcDbSymbolTableRecord
100
AcDbBlockTableRecord
  2
*Paper_Space
340
1B9
  0
ENDTAB
  0
ENDSEC
  0
SECTION
  2
BLOCKS
  0
BLOCK
  5
1BB
330
1BA
100
AcDbEntity
  8
0
100
AcDbBlockBegin
  2
*Model_Space
 70
     0
 10
0.0
 20
0.0
 30
0.0
  3
*Model_Space
  1

  0
ENDBLK
  5
1BC
330
1BA
100
AcDbEntity
  8
0
100
AcDbBlockEnd
  0
BLOCK
  5
1B7
330
1B6
100
AcDbEntity
 67
     1
  8
0
100
AcDbBlockBegin
  2
*Paper_Space
 70
     0
 10
0.0
 20
0.0
 30
0.0
  3
*Paper_Space
  1

  0
ENDBLK
  5
1B8
330
1B6
100
AcDbEntity
 67
     1
  8
0
100
AcDbBlockEnd
  0
ENDSEC
  0
SECTION
  2
ENTITIES
  0
LINE
  5
3FE
330
1BA
100
AcDbEntity
  8
1外形線
  6
Continuous
 62
     3
370
    15
100
AcDbLine
 10
730.019091876466
 20
159.1757450002667
 30
0.0
 11
796.519088989417
 21
159.1757450002658
 31
0.0
  0
LINE
  5
3FF
330
1BA
100
AcDbEntity
  8
1外形線
  6
Continuous
 62
     3
370
    15
100
AcDbLine
 10
801.5190966490941
 20
264.8757447146597
 30
0.0
 11
752.9126991308534
 21
264.8757443887086
 31
0.0
  0
ARC
  5
400
330
1BA
100
AcDbEntity
  8
1外形線
 62
     3
370
    15
100
AcDbCircle
 10
752.9126991938887
 20
255.475744388709
 30
0.0
 40
9.4
100
AcDbArc
 50
90.00000038415645
 51
134.9999999998526
  0
LINE
  5
401
330
1BA
100
AcDbEntity
  8
1外形線
  6
Continuous
 62
     3
370
    15
100
AcDbLine
 10
797.0190916712295
 20
195.1757443419662
 30
0.0
 11
804.5190917089989
 21
195.1757443419662
 31
0.0
  0
ARC
  5
402
330
1BA
100
AcDbEntity
  8
1外形線
  6
Continuous
 62
     3
370
    15
100
AcDbCircle
 10
797.0190916712295
 20
194.6757443419662
 30
0.0
 40
0.5
100
AcDbArc
 50
90.0
 51
179.9999956716218
  0
LINE
  5
403
330
1BA
100
AcDbEntity
  8
1外形線
  6
Continuous
 62
     3
370
    15
100
AcDbLine
 10
796.5190916712296
 20
194.6757443797375
 30
0.0
 11
796.519088989417
 21
159.1757450002658
 31
0.0
  0
LINE
  5
404
330
1BA
100
AcDbEntity
  8
1外形線
  6
Continuous
 62
     3
370
    15
100
AcDbLine
 10
804.5190968233351
 20
262.8757447481892
 30
0.0
 11
804.5190917089989
 21
195.1757443419681
 31
0.0
  0
LINE
  5
405
330
1BA
100
AcDbEntity
  8
1外形線
 62
     3
100
AcDbLine
 10
729.0190909921608
 20
162.1757450083185
 30
0.0
 11
729.0190915211082
 21
240.9821367791117
 31
0.0
  0
ARC
  5
406
330
1BA
100
AcDbEntity
  8
1外形線
 62
     3
100
AcDbCircle
 10
738.4190915211097
 20
240.9821367160191
 30
0.0
 40
9.4
100
AcDbArc
 50
134.9999999998526
 51
179.9999996154267
  0
LINE
  5
407
330
1BA
100
AcDbEntity
  8
1外形線
 62
     3
100
AcDbLine
 10
746.2658954507555
 20
262.1225481318822
 30
0.0
 11
731.7722877779765
 21
247.6289404591914
 31
0.0
  0
LINE
  5
408
330
1BA
100
AcDbEntity
  8
1外形線
 62
     3
100
AcDbLine
 10
750.2767618781384
 20
250.5770653731804
 30
0.0
 11
741.1177704202223
 21
241.4180739153214
 31
0.0
  0
ARC
  5
409
330
1BA
100
AcDbEntity
  8
1外形線
 62
     3
100
AcDbCircle
 10
753.8122957840593
 20
247.0415314672371
 30
0.0
 40
5.0
100
AcDbArc
 50
90.0
 51
134.9999999998526
  0
LINE
  5
40A
330
1BA
100
AcDbEntity
  8
1外形線
 62
     3
100
AcDbLine
 10
804.5190966571377
 20
262.675744840182
 30
0.0
 11
804.5190966571377
 21
263.875744714657
 31
0.0
  0
LINE
  5
40B
330
1BA
100
AcDbEntity
  8
1外形線
 62
     3
100
AcDbLine
 10
729.0190909921608
 20
162.1757450083185
 30
0.0
 11
796.5190892160484
 21
162.1757399090982
 31
0.0
  0
LINE
  5
40C
330
1BA
100
AcDbEntity
  8
1外形線
 62
     3
100
AcDbLine
 10
801.5190966490902
 20
264.8757447146597
 30
0.0
 11
801.5190966490902
 21
195.1757443419662
 31
0.0
  0
LINE
  5
40D
330
1BA
100
AcDbEntity
  8
1外形線
 62
     3
100
AcDbLine
 10
804.5190960048735
 20
252.041531467238
 30
0.0
 11
753.8122957840593
 21
252.0415314672371
 31
0.0
  0
LINE
  5
40E
330
1BA
100
AcDbEntity
  8
1外形線
 62
     3
100
AcDbLine
 10
739.6533043261465
 20
184.4727337860465
 30
0.0
 11
739.6533043261427
 21
237.8825400093781
 31
0.0
  0
ARC
  5
40F
330
1BA
100
AcDbEntity
  8
1外形線
 62
     3
100
AcDbCircle
 10
744.6533043261429
 20
237.8825400093781
 30
0.0
 40
5.0
100
AcDbArc
 50
134.9999999998526
 51
180.0
  0
LINE
  5
410
330
1BA
100
AcDbEntity
  8
1外形線
 62
     3
100
AcDbLine
 10
796.5190909004546
 20
184.4727334043616
 30
0.0
 11
729.0190911418199
 21
184.4727338574226
 31
0.0
  0
LINE
  5
411
330
1BA
100
AcDbEntity
  8
1外形線
 62
     3
100
AcDbLine
 10
796.5190902736671
 20
176.1757450002658
 30
0.0
 11
729.0190910861297
 21
176.1757450002658
 31
0.0
  0
LINE
  5
412
330
1BA
100
AcDbEntity
  8
1外形線
 62
     3
100
AcDbLine
 10
740.5129101313746
 20
176.1757450002658
 30
0.0
 11
739.6533043261465
 21
184.4727337860456
 31
0.0
  0
LINE
  5
413
330
1BA
100
AcDbEntity
  8
1外形線
 62
     3
100
AcDbLine
 10
740.5129101313746
 20
176.1757450002658
 30
0.0
 11
740.5129088471207
 21
159.1757450002658
 31
0.0
  0
LINE
  5
414
330
1BA
100
AcDbEntity
  8
1外形線
 62
     3
100
AcDbLine
 10
804.5190966571304
 20
263.8757447146597
 30
0.0
 11
801.5190966490902
 21
264.8757447146597
 31
0.0
  0
LINE
  5
415
330
1BA
100
AcDbEntity
  8
1外形線
 62
     3
100
AcDbLine
 10
730.0190918764624
 20
159.1757450002667
 30
0.0
 11
729.0190909921608
 21
162.1757450083112
 31
0.0
  0
LINE
  5
416
330
1BA
100
AcDbEntity
  8
1外形線
  6
Continuous
 62
     3
370
    15
100
AcDbLine
 10
642.1150707127112
 20
187.0331567512364
 30
0.0
 11
644.878653886934
 21
178.1511636391931
 31
0.0
  0
ARC
  5
417
330
1BA
100
AcDbEntity
  8
1外形線
  6
Continuous
 62
     3
370
    15
100
AcDbCircle
 10
636.2850242577283
 20
175.4773031723814
 30
0.0
 40
9.0
100
AcDbArc
 50
0.0
 51
17.28324180040077
  0
LINE
  5
418
330
1BA
100
AcDbEntity
  8
1外形線
  6
Continuous
 62
     3
370
    15
100
AcDbLine
 10
645.2850242577283
 20
175.4773031723814
 30
0.0
 11
645.2850242577283
 21
162.1760357457021
 31
0.0
  0
ARC
  5
41A
330
1BA
100
AcDbEntity
  8
1外形線
  6
Continuous
 62
     3
370
    15
100
AcDbCircle
 10
650.7087003419169
 20
189.7070172180498
 30
0.0
 40
9.0
100
AcDbArc
 50
179.0002157233304
 51
197.2832418003499
  0
LINE
  5
41B
330
1BA
100
AcDbEntity
  8
1外形線
  6
Continuous
 62
     3
370
    15
100
AcDbLine
 10
646.126154598564
 20
159.1762136653594
 30
0.0
 11
645.2850138515664
 21
162.175996227557
 31
0.0
  0
LINE
  5
41C
330
1BA
100
AcDbEntity
  8
1外形線
  6
Continuous
 62
     3
370
    15
100
AcDbLine
 10
627.6267392446847
 20
162.1763002200766
 30
0.0
 11
667.62472136527
 21
162.1755275808825
 31
0.0
  0
LINE
  5
41D
330
1BA
100
AcDbEntity
  8
1外形線
  6
Continuous
 62
     3
370
    15
100
AcDbLine
 10
667.6247213652843
 20
159.1757450002658
 30
0.0
 11
628.8262801450278
 21
159.1764944390249
 31
0.0
  0
LINE
  5
41E
330
1BA
100
AcDbEntity
  8
1外形線
  6
Continuous
 62
     3
370
    15
100
AcDbLine
 10
627.6266668609772
 20
174.939027776061
 30
0.0
 11
627.6266668609772
 21
162.1764812368635
 31
0.0
  0
LINE
  5
41F
330
1BA
100
AcDbEntity
  8
1外形線
  6
Continuous
 62
     3
370
    15
100
AcDbLine
 10
627.3062322905774
 20
177.3713741200624
 30
0.0
 11
625.5055989283014
 21
184.3984679051775
 31
0.0
  0
ELLIPSE
  5
420
330
1BA
100
AcDbEntity
  8
1外形線
  6
Continuous
 62
     3
370
    15
100
AcDbEllipse
 10
618.2247944253781
 20
174.9386833166643
 30
0.0
 11
9.321045507707452
 21
1.22698766027753
 31
0.0
210
0.0
220
0.0
230
1.0
 40
0.999845056
 41
6.152305664565682
 42
6.414064949791716
  0
LINE
  5
422
330
1BA
100
AcDbEntity
  8
1外形線
  6
Continuous
 62
     3
370
    15
100
AcDbLine
 10
641.6019214129637
 20
264.8762567865495
 30
0.0
 11
667.6247213652843
 21
264.8757610764585
 31
0.0
  0
LINE
  5
423
330
1BA
100
AcDbEntity
  8
1外形線
  6
Continuous
 62
     3
370
    15
100
AcDbLine
 10
636.6519080715383
 20
262.8258717229345
 30
0.0
 11
627.5565680395255
 21
253.730044615335
 31
0.0
  0
LINE
  5
424
330
1BA
100
AcDbEntity
  8
1外形線
  6
Continuous
 62
     3
370
    15
100
AcDbLine
 10
629.8143957427843
 20
255.9879932302645
 30
0.0
 11
629.1163061431894
 21
255.2903804676641
 31
0.0
  0
ELLIPSE
  5
425
330
1BA
100
AcDbEntity
  8
1外形線
  6
Continuous
 62
     3
370
    15
100
AcDbEllipse
 10
635.7628672185842
 20
248.6434037268625
 30
0.0
 11
6.649007819122517
 21
6.648795699855613
 31
0.0
210
0.0
220
0.0
230
1.0
 40
0.9996844565999998
 41
1.570796326791166
 42
1.571019209422779
  0
LINE
  5
426
330
1BA
100
AcDbEntity
  8
1外形線
 62
     3
100
AcDbLine
 10
627.6266668609772
 20
162.1764812368635
 30
0.0
 11
628.826389150987
 21
159.176221837464
 31
0.0
  0
LINE
  5
427
330
1BA
100
AcDbEntity
  8
1外形線
 62
     3
100
AcDbLine
 10
644.6517020908673
 20
244.338210614769
 30
0.0
 11
667.6247213652843
 21
244.338210614769
 31
0.0
  0
LINE
  5
42A
330
1BA
100
AcDbEntity
  8
1外形線
 62
     3
100
AcDbLine
 10
626.1562404344608
 20
237.0164537736034
 30
0.0
 11
640.5666933099369
 21
243.4657898809144
 31
0.0
  0
ARC
  5
42B
330
1BA
100
AcDbEntity
  8
1外形線
 62
     3
100
AcDbCircle
 10
644.6517020908673
 20
234.338210614769
 30
0.0
 40
10.0
100
AcDbArc
 50
90.0
 51
114.1106970396986
  0
LINE
  5
42C
330
1BA
100
AcDbEntity
  8
1外形線
  6
Continuous
 62
     3
370
    15
100
AcDbLine
 10
693.1312931778253
 20
187.0359758006796
 30
0.0
 11
690.368691621074
 21
178.1536773232308
 31
0.0
  0
ARC
  5
42D
330
1BA
100
AcDbEntity
  8
1外形線
  6
Continuous
 62
     3
370
    15
100
AcDbCircle
 10
698.9626167016417
 20
175.4807666046324
 30
0.0
 40
9.0
100
AcDbArc
 50
162.7230902887372
 51
180.0063320891229
  0
LINE
  5
42E
330
1BA
100
AcDbEntity
  8
1外形線
  6
Continuous
 62
     3
370
    15
100
AcDbLine
 10
689.9626167566043
 20
175.4797719623964
 30
0.0
 11
689.9640867568692
 21
162.1785046169677
 31
0.0
  0
ARC
  5
431
330
1BA
100
AcDbEntity
  8
1外形線
  6
Continuous
 62
     3
370
    15
100
AcDbCircle
 10
684.5373680972575
 20
189.7088865192779
 30
0.0
 40
9.0
100
AcDbArc
 50
342.7230902887372
 51
1.006116365859674
  0
LINE
  5
432
330
1BA
100
AcDbEntity
  8
1外形線
  6
Continuous
 62
     3
370
    15
100
AcDbLine
 10
689.1232879489202
 20
159.1785895967475
 30
0.0
 11
689.9640971674037
 21
162.1784650999723
 31
0.0
  0
LINE
  5
433
330
1BA
100
AcDbEntity
  8
1外形線
  6
Continuous
 62
     3
370
    15
100
AcDbLine
 10
707.622371632848
 20
162.180720610904
 30
0.0
 11
667.6243898419147
 21
162.1755275625635
 31
0.0
  0
LINE
  5
434
330
1BA
100
AcDbEntity
  8
1外形線
  6
Continuous
 62
     3
370
    15
100
AcDbLine
 10
667.6247213652843
 20
159.1757450002676
 30
0.0
 11
706.4231622657849
 21
159.1807822799453
 31
0.0
  0
LINE
  5
435
330
1BA
100
AcDbEntity
  8
1外形線
  6
Continuous
 62
     3
370
    15
100
AcDbLine
 10
707.621033533464
 20
174.9434480969482
 30
0.0
 11
707.622443996554
 21
162.180901635689
 31
0.0
  0
ELLIPSE
  5
436
330
1BA
100
AcDbEntity
  8
1外形線
  6
Continuous
 62
     3
370
    15
100
AcDbEllipse
 10
717.0229059497162
 20
174.9441426930441
 30
0.0
 11
-9.32118105231277
 21
1.225957529946303
 31
0.0
210
0.0
220
0.0
230
-1.0
 40
0.999845056
 41
6.152305664565682
 42
6.414064949791716
  0
LINE
  5
438
330
1BA
100
AcDbEntity
  8
1外形線
  6
Continuous
 62
     3
370
    15
100
AcDbLine
 10
693.6358395816502
 20
264.8791320717091
 30
0.0
 11
667.6130398430273
 21
264.8757604309628
 31
0.0
  0
LINE
  5
439
330
1BA
100
AcDbEntity
  8
1外形線
  6
Continuous
 62
     3
370
    15
100
AcDbLine
 10
698.5860794928012
 20
262.8292940753188
 30
0.0
 11
707.6689646056279
 21
253.7479300442478
 31
0.0
  0
LINE
  5
43A
330
1BA
100
AcDbEntity
  8
1外形線
  6
Continuous
 62
     3
370
    15
100
AcDbLine
 10
705.4243474734342
 20
255.9921712775793
 30
0.0
 11
706.1225141659982
 21
255.2946356691734
 31
0.0
  0
ELLIPSE
  5
43B
330
1BA
100
AcDbEntity
  8
1外形線
  6
Continuous
 62
     3
370
    15
100
AcDbEllipse
 10
699.4766877271781
 20
248.6469244189227
 30
0.0
 11
-6.649742575520114
 21
6.648060838807507
 31
0.0
210
0.0
220
0.0
230
-1.0
 40
0.9996844565999998
 41
1.570796326791166
 42
1.571019209422779
  0
LINE
  5
43C
330
1BA
100
AcDbEntity
  8
1外形線
 62
     3
100
AcDbLine
 10
707.622443996554
 20
162.180901635689
 30
0.0
 11
706.4230532899478
 21
159.180509666339
 31
0.0
  0
LINE
  5
43D
330
1BA
100
AcDbEntity
  8
1外形線
 62
     3
100
AcDbLine
 10
690.5883287010606
 20
244.3407489763883
 30
0.0
 11
667.615309566931
 21
244.3382100946944
 31
0.0
  0
LINE
  5
43E
330
1BA
100
AcDbEntity
  8
1外形線
 62
     3
100
AcDbLine
 10
696.2392284263644
 20
264.1637038905153
 30
0.0
 11
693.5359805348793
 21
243.8967870599541
 31
0.0
  0
LINE
  5
43F
330
1BA
100
AcDbEntity
  8
1外形線
 62
     3
100
AcDbLine
 10
709.0845994143551
 20
237.0210362207506
 30
0.0
 11
694.6734338733172
 21
243.4687797058921
 31
0.0
  0
ARC
  5
440
330
1BA
100
AcDbEntity
  8
1外形線
 62
     3
100
AcDbCircle
 10
690.5894338590974
 20
234.3407490374555
 30
0.0
 40
10.0
100
AcDbArc
 50
65.89563504920452
 51
90.00633208896655
  0
LINE
  5
441
330
1BA
100
AcDbEntity
  8
1外形線
 62
     3
100
AcDbLine
 10
627.6266668609772
 20
175.9345945395469
 30
0.0
 11
645.1901292289208
 21
176.7808005648164
 31
0.0
  0
LINE
  5
442
330
1BA
100
AcDbEntity
  8
1外形線
 62
     3
100
AcDbLine
 10
625.5064480374735
 20
184.398637265185
 30
0.0
 11
641.9267698685821
 21
187.6737707219215
 31
0.0
  0
LINE
  5
443
330
1BA
100
AcDbEntity
  8
1外形線
 62
     3
100
AcDbLine
 10
707.6163633957277
 20
175.9498908136136
 30
0.0
 11
690.0582223846964
 21
176.7891097738045
 31
0.0
  0
LINE
  5
444
330
1BA
100
AcDbEntity
  8
1外形線
 62
     3
100
AcDbLine
 10
709.7333449394377
 20
184.4147438108355
 30
0.0
 11
693.3117717144946
 21
187.6835969758665
 31
0.0
  0
LINE
  5
446
330
1BA
100
AcDbEntity
  8
0
  6
Continuous
 62
     3
370
    15
100
AcDbLine
 10
625.7181309101364
 20
297.5155102269679
 30
0.0
 11
633.2126882282664
 21
290.1676443000287
 31
0.0
  0
LINE
  5
448
330
1BA
100
AcDbEntity
  8
0
  6
Continuous
 62
     3
370
    15
100
AcDbLine
 10
698.4268217180661
 20
290.1676443000301
 30
0.0
 11
705.919484986491
 21
297.5136532496102
 31
0.0
  0
LINE
  5
44A
330
1BA
100
AcDbEntity
  8
0
  6
Continuous
 62
     3
370
    15
100
AcDbLine
 10
634.1415618545197
 20
360.6660707520532
 30
0.0
 11
640.7886718399148
 21
360.6660707520532
 31
0.0
  0
LINE
  5
44B
330
1BA
100
AcDbEntity
  8
0
  6
Continuous
 62
     3
370
    15
100
AcDbLine
 10
640.7886718399148
 20
363.6660693810554
 30
0.0
 11
634.9903319961067
 21
363.6660693810554
 31
0.0
  0
LINE
  5
44C
330
1BA
100
AcDbEntity
  8
0
  6
Continuous
 62
     3
370
    15
100
AcDbLine
 10
695.3095410082442
 20
360.6660707520532
 30
0.0
 11
640.7886718399148
 21
360.6660707520532
 31
0.0
  0
LINE
  5
44D
330
1BA
100
AcDbEntity
  8
0
  6
Continuous
 62
     3
370
    15
100
AcDbLine
 10
640.7886718399148
 20
363.6660693810554
 30
0.0
 11
694.4607708666426
 21
363.6660693810554
 31
0.0
  0
LINE
  5
450
330
1BA
100
AcDbEntity
  8
0
  6
Continuous
 62
     3
370
    15
100
AcDbLine
 10
627.3075317031088
 20
360.6660707520532
 30
0.0
 11
634.1415618545197
 21
360.6660707520532
 31
0.0
  0
LINE
  5
451
330
1BA
100
AcDbEntity
  8
0
  6
Continuous
 62
     3
370
    15
100
AcDbLine
 10
634.9903319961067
 20
363.6660693810554
 30
0.0
 11
628.1563018447103
 21
363.6660693810554
 31
0.0
  0
LINE
  5
452
330
1BA
100
AcDbEntity
  8
0
  6
Continuous
 62
     3
370
    15
100
AcDbLine
 10
708.0188964493189
 20
360.666070752053
 30
0.0
 11
695.3095410082442
 21
360.6660707520532
 31
0.0
  0
LINE
  5
453
330
1BA
100
AcDbEntity
  8
0
  6
Continuous
 62
     3
370
    15
100
AcDbLine
 10
694.4607708666426
 20
363.6660693810554
 30
0.0
 11
703.4851287491092
 21
363.6660693810554
 31
0.0
  0
LINE
  5
454
330
1BA
100
AcDbEntity
  8
0
  6
Continuous
 62
     3
370
    15
100
AcDbLine
 10
624.5552276259167
 20
360.6660707520532
 30
0.0
 11
627.3075317031088
 21
360.6660707520532
 31
0.0
  0
LINE
  5
455
330
1BA
100
AcDbEntity
  8
0
  6
Continuous
 62
     3
370
    15
100
AcDbLine
 10
628.1563018447103
 20
363.6660693810554
 30
0.0
 11
625.7549499161158
 21
363.6660693810554
 31
0.0
  0
LINE
  5
456
330
1BA
100
AcDbEntity
  8
0
  6
Continuous
 62
     3
370
    15
100
AcDbLine
 10
707.08429561911
 20
360.6660707520532
 30
0.0
 11
704.3319915421069
 21
360.6660707520532
 31
0.0
  0
LINE
  5
457
330
1BA
100
AcDbEntity
  8
0
  6
Continuous
 62
     3
370
    15
100
AcDbLine
 10
703.4851287491092
 20
363.6660693810554
 30
0.0
 11
705.8845733291145
 21
363.6660693810554
 31
0.0
  0
LINE
  5
458
330
1BA
100
AcDbEntity
  8
0
  6
Continuous
 62
     3
370
    15
100
AcDbLine
 10
623.6187194473077
 20
360.6660707520532
 30
0.0
 11
624.5552276259167
 21
360.6660707520532
 31
0.0
  0
LINE
  5
459
330
1BA
100
AcDbEntity
  8
0
  6
Continuous
 62
     3
370
    15
100
AcDbLine
 10
623.6187194473077
 20
360.6660707520532
 30
0.0
 11
623.6187194473077
 21
302.5139331771941
 31
0.0
  0
LINE
  5
45B
330
1BA
100
AcDbEntity
  8
0
  6
Continuous
 62
     3
370
    15
100
AcDbLine
 10
624.8184417373177
 20
363.6660693810554
 30
0.0
 11
623.6187194473077
 21
360.6660707520532
 31
0.0
  0
LINE
  5
45C
330
1BA
100
AcDbEntity
  8
0
  6
Continuous
 62
     3
370
    15
100
AcDbLine
 10
625.7549499161158
 20
363.6660693810554
 30
0.0
 11
624.8184417373177
 21
363.6660693810554
 31
0.0
  0
ELLIPSE
  5
45D
330
1BA
100
AcDbEntity
  8
0
  6
Continuous
 62
     3
370
    15
100
AcDbEllipse
 10
708.0283598777078
 20
356.1660674738558
 30
0.0
 11
-0.0000000000000001
 21
-0.5
 31
0.0
210
0.0
220
0.0
230
1.0
 40
0.0174391139
 41
4.71238898038469
 42
6.283179715857162
  0
LINE
  5
45E
330
1BA
100
AcDbEntity
  8
0
  6
Continuous
 62
     3
370
    15
100
AcDbLine
 10
708.0188964493189
 20
360.6660707520532
 30
0.0
 11
707.08429561911
 21
360.6660707520532
 31
0.0
  0
LINE
  5
45F
330
1BA
100
AcDbEntity
  8
0
  6
Continuous
 62
     3
370
    15
100
AcDbLine
 10
708.0188964493189
 20
360.6660707520532
 30
0.0
 11
708.0188964493189
 21
302.5120761998351
 31
0.0
  0
LINE
  5
460
330
1BA
100
AcDbEntity
  8
0
  6
Continuous
 62
     3
370
    15
100
AcDbLine
 10
706.8191741591198
 20
363.6660693810554
 30
0.0
 11
708.0188964493189
 21
360.6660707520532
 31
0.0
  0
LINE
  5
461
330
1BA
100
AcDbEntity
  8
0
  6
Continuous
 62
     3
370
    15
100
AcDbLine
 10
705.8845733291145
 20
363.6660693810554
 30
0.0
 11
706.8191741591198
 21
363.6660693810554
 31
0.0
  0
LINE
  5
462
330
1BA
100
AcDbEntity
  8
0
  6
Continuous
 62
     3
370
    15
100
AcDbLine
 10
693.5262331808935
 20
288.1660672502548
 30
0.0
 11
638.1132767654376
 21
288.1660672502548
 31
0.0
  0
LINE
  5
463
330
1BA
100
AcDbEntity
  8
0
  6
Continuous
 62
     3
370
    15
100
AcDbLine
 10
639.0930389053154
 20
288.1660672502548
 30
0.0
 11
639.9952148087086
 21
288.1660672502548
 31
0.0
  0
LINE
  5
465
330
1BA
100
AcDbEntity
  8
0
  6
Continuous
 62
     3
370
    15
100
AcDbLine
 10
692.5464843399148
 20
288.1660672502548
 30
0.0
 11
691.6443084365072
 21
288.1660672502548
 31
0.0
  0
LINE
  5
467
330
1BA
100
AcDbEntity
  8
0
  6
Continuous
 62
     3
370
    15
100
AcDbLine
 10
632.5050567275084
 20
290.8615131528531
 30
0.0
 11
632.5126861221122
 21
290.8539452256555
 31
0.0
  0
LINE
  5
468
330
1BA
100
AcDbEntity
  8
0
  6
Continuous
 62
     3
370
    15
100
AcDbLine
 10
699.1325591689148
 20
290.8615131528531
 30
0.0
 11
699.1268371231179
 21
290.8539582642551
 31
0.0
  0
LINE
  5
469
330
1BA
100
AcDbEntity
  8
1外形線
 62
     3
100
AcDbLine
 10
696.1000404915665
 20
288.8639463397193
 30
0.0
 11
695.3076336596258
 21
306.346129734231
 31
0.0
  0
LINE
  5
46A
330
1BA
100
AcDbEntity
  8
0
  6
Continuous
 62
     3
370
    15
100
AcDbLine
 10
697.8595886335656
 20
308.0547922795453
 30
0.0
 11
707.3970800369916
 21
320.0429249550198
 31
0.0
  0
LINE
  5
46D
330
1BA
100
AcDbEntity
  8
0
  6
Continuous
 62
     3
370
    15
100
AcDbLine
 10
692.3817100242554
 20
305.4128705190521
 30
0.0
 11
639.2578132209583
 21
305.4128705190543
 31
0.0
  0
LINE
  5
46F
330
1BA
100
AcDbEntity
  8
0
  6
Continuous
 62
     3
370
    15
100
AcDbLine
 10
633.7799346116485
 20
308.0547922795473
 30
0.0
 11
624.2424432082242
 21
320.0429249550198
 31
0.0
  0
LINE
  5
470
330
1BA
100
AcDbEntity
  8
1外形線
 62
     3
100
AcDbLine
 10
635.5394827536492
 20
288.8639463397193
 30
0.0
 11
636.33188958559
 21
306.346129734231
 31
0.0
  0
LINE
  5
473
330
1BA
100
AcDbEntity
  8
0
  6
Continuous
 62
     3
370
    15
100
AcDbLine
 10
637.1806597271911
 20
363.6660693810554
 30
0.0
 11
636.33188958559
 21
360.6660707520532
 31
0.0
  0
LINE
  5
474
330
1BA
100
AcDbEntity
  8
1外形線
 62
     3
100
AcDbLine
 10
625.5064480374735
 20
184.398637265185
 30
0.0
 11
625.5064480374735
 21
248.78042968022
 31
0.0
  0
LINE
  5
477
330
1BA
100
AcDbEntity
  8
1外形線
 62
     3
100
AcDbLine
 10
709.7196316485811
 20
184.398637265185
 30
0.0
 11
709.7196316485811
 21
248.7977680993929
 31
0.0
  0
LINE
  5
478
330
1BA
100
AcDbEntity
  8
1外形線
  6
Continuous
 62
     3
370
    15
100
AcDbLine
 10
707.9432104399625
 20
177.3713741200624
 30
0.0
 11
709.7438438022386
 21
184.3984679051775
 31
0.0
  0
TEXT
  5
479
330
1BA
100
AcDbEntity
  8
1外形線
100
AcDbText
 10
604.8665189350304
 20
395.7936749563921
 30
0.0
 40
10.0
  1
MCOM-75
  7
KANJI
100
AcDbText
  0
ARC
  5
4CD
330
1BA
100
AcDbEntity
  8
0
  6
Continuous
 62
     3
370
    15
100
AcDbCircle
 10
693.5262331808935
 20
295.1660672502549
 30
0.0
 40
7.0
100
AcDbArc
 50
270.0
 51
314.433749878538
  0
ARC
  5
4D0
330
1BA
100
AcDbEntity
  8
0
  6
Continuous
 62
     3
370
    15
100
AcDbCircle
 10
701.0188964493189
 20
302.5120761998351
 30
0.0
 40
7.0
100
AcDbArc
 50
314.433749878538
 51
0.0
  0
ARC
  5
4D2
330
1BA
100
AcDbEntity
  8
0
  6
Continuous
 62
     3
370
    15
100
AcDbCircle
 10
638.1132767654376
 20
295.1660672502549
 30
0.0
 40
7.0
100
AcDbArc
 50
225.5662501214937
 51
270.0
  0
ARC
  5
4D3
330
1BA
100
AcDbEntity
  8
0
  6
Continuous
 62
     3
370
    15
100
AcDbCircle
 10
630.6187194473077
 20
302.5139331771941
 30
0.0
 40
7.0
100
AcDbArc
 50
180.0
 51
225.5662501214937
  0
ARC
  5
4D4
330
1BA
100
AcDbEntity
  8
0
  6
Continuous
 62
     3
370
    15
100
AcDbCircle
 10
692.3817100242557
 20
312.4128705190522
 30
0.0
 40
7.0
100
AcDbArc
 50
270.0
 51
321.4950237271572
  0
ARC
  5
4D5
330
1BA
100
AcDbEntity
  8
0
  6
Continuous
 62
     3
370
    15
100
AcDbCircle
 10
639.2578132209588
 20
312.4128705190543
 30
0.0
 40
7.0
100
AcDbArc
 50
218.5049762728431
 51
270.0
  0
ARC
  5
4D6
330
1BA
100
AcDbEntity
  8
1外形線
  6
Continuous
 62
     3
370
    15
100
AcDbCircle
 10
693.6367465357546
 20
257.8791321304639
 30
0.0
 40
7.0
100
AcDbArc
 50
45.00479797232394
 51
90.00742352036128
  0
ARC
  5
4D7
330
1BA
100
AcDbEntity
  8
1外形線
  6
Continuous
 62
     3
370
    15
100
AcDbCircle
 10
641.6017880694862
 20
257.8762567878195
 30
0.0
 40
7.0
100
AcDbArc
 50
89.99890856878884
 51
135.0015341168155
  0
ARC
  5
4D8
330
1BA
100
AcDbEntity
  8
1外形線
 62
     3
100
AcDbCircle
 10
632.5064480374735
 20
248.78042968022
 30
0.0
 40
7.0
100
AcDbArc
 50
135.0015341168154
 51
180.0
  0
ARC
  5
4D9
330
1BA
100
AcDbEntity
  8
1外形線
 62
     3
370
    15
100
AcDbCircle
 10
702.719631648581
 20
248.7977680993929
 30
0.0
 40
7.0
100
AcDbArc
 50
0.0
 51
45.00479797232389
  0
LINE
  5
4E0
330
1BA
100
AcDbEntity
  8
1外形線
100
AcDbLine
 10
693.5359805348793
 20
189.8669187864913
 30
0.0
 11
693.5359805348793
 21
243.8967870599547
 31
0.0
  0
LINE
  5
4E1
330
1BA
100
AcDbEntity
  8
1外形線
 62
     3
100
AcDbLine
 10
639.0102143042042
 20
264.1637038905153
 30
0.0
 11
641.7134621956897
 21
243.8967870599541
 31
0.0
  0
LINE
  5
4E2
330
1BA
100
AcDbEntity
  8
1外形線
100
AcDbLine
 10
641.7134621956897
 20
189.8669187864913
 30
0.0
 11
641.7134621956897
 21
243.8967870599547
 31
0.0
  0
LINE
  5
4E3
330
1BA
100
AcDbEntity
  8
1外形線
100
AcDbLine
 10
636.33188958559
 20
306.3461297342363
 30
0.0
 11
636.33188958559
 21
360.6660707520532
 31
0.0
  0
LINE
  5
4E4
330
1BA
100
AcDbEntity
  8
0
  6
Continuous
 62
     3
370
    15
100
AcDbLine
 10
694.4607708666426
 20
363.6660693810554
 30
0.0
 11
695.3095410082442
 21
360.6660707520532
 31
0.0
  0
LINE
  5
4E5
330
1BA
100
AcDbEntity
  8
1外形線
100
AcDbLine
 10
695.3095410082442
 20
306.3461297342363
 30
0.0
 11
695.3095410082442
 21
360.6660707520532
 31
0.0
  0
LWPOLYLINE
  5
525
330
1BA
100
AcDbEntity
  8
2寸法線
100
AcDbPolyline
 90
        4
 70
     1
 43
0.0
 10
540.6389953896157
 20
426.2516007630936
 10
884.8709133664453
 20
426.2516007630936
 10
884.8709133664453
 20
118.8028373913718
 10
540.6389953896157
 20
118.8028373913718
  0
LWPOLYLINE
  5
526
330
1BA
100
AcDbEntity
  8
2寸法線
100
AcDbPolyline
 90
        4
 70
     1
 43
0.0
 10
540.6389953896157
 20
118.8028373913718
 10
884.8709133664453
 20
118.8028373913718
 10
884.8709133664453
 20
-188.64592598035
 10
540.6389953896157
 20
-188.64592598035
  0
TEXT
  5
527
330
1BA
100
AcDbEntity
  8
1外形線
100
AcDbText
 10
604.8665189350304
 20
85.15891419773721
 30
0.0
 40
10.0
  1
MCOM-85
  7
KANJI
100
AcDbText
  0
LINE
  5
1B0D
330
1BA
100
AcDbEntity
  8
2寸法線
100
AcDbLine
 10
709.7196316485811
 20
248.7977680993929
 30
0.0
 11
709.7196316485811
 21
248.7977680993929
 31
0.0
  0
LINE
  5
1FB6
330
1BA
100
AcDbEntity
  8
1外形線
100
AcDbLine
 10
809.1813199991756
 20
-37.12715598587966
 30
0.0
 11
756.8175681726005
 21
-37.12715598588147
 31
0.0
  0
LINE
  5
1FB7
330
1BA
100
AcDbEntity
  8
1外形線
100
AcDbLine
 10
812.181319999183
 20
-38.12715598587966
 30
0.0
 11
812.181319999183
 21
-111.7078937516198
 31
0.0
  0
LINE
  5
1FB8
330
1BA
100
AcDbEntity
  8
1外形線
100
AcDbLine
 10
812.181319999183
 20
-111.7078937516198
 30
0.0
 11
804.6551520210615
 21
-112.1023235018583
 31
0.0
  0
LINE
  5
1FB9
330
1BA
100
AcDbEntity
  8
1外形線
 62
     4
100
AcDbLine
 10
804.6551520210615
 20
-112.1023235018674
 30
0.0
 11
804.181319999183
 21
-112.1271559858869
 31
0.0
  0
LINE
  5
1FBA
330
1BA
100
AcDbEntity
  8
1外形線
100
AcDbLine
 10
804.1813199991791
 20
-148.1271559858851
 30
0.0
 11
732.6813199991792
 21
-148.1271559858851
 31
0.0
  0
LINE
  5
1FBB
330
1BA
100
AcDbEntity
  8
1外形線
100
AcDbLine
 10
804.181319999183
 20
-112.6016382692432
 30
0.0
 11
804.181319999183
 21
-148.1271559858851
 31
0.0
  0
ARC
  5
1FBC
330
1BA
100
AcDbEntity
  8
1外形線
100
AcDbCircle
 10
804.6813199991827
 20
-112.6016382692432
 30
0.0
 40
0.5
100
AcDbArc
 50
93.00000000000556
 51
180.0
  0
LINE
  5
1FBD
330
1BA
100
AcDbEntity
  8
1外形線
100
AcDbLine
 10
731.6813199991791
 20
-145.1271559858905
 30
0.0
 11
731.6813199991791
 21
-62.26340415930462
 31
0.0
  0
ARC
  5
1FBE
330
1BA
100
AcDbEntity
  8
1外形線
100
AcDbCircle
 10
744.0813199991808
 20
-62.26340415930462
 30
0.0
 40
12.4
100
AcDbArc
 50
134.9999999999197
 51
180.0
  0
LINE
  5
1FBF
330
1BA
100
AcDbEntity
  8
1外形線
100
AcDbLine
 10
748.0494440858874
 20
-40.75903189916971
 30
0.0
 11
735.3131959124674
 21
-53.49528007259142
 31
0.0
  0
ARC
  5
1FC0
330
1BA
100
AcDbEntity
  8
1外形線
100
AcDbCircle
 10
756.8175681726005
 20
-49.52715598588111
 30
0.0
 40
12.4
100
AcDbArc
 50
90.0
 51
134.9999999999197
  0
LINE
  5
1FC1
330
1BA
100
AcDbEntity
  8
1外形線
100
AcDbLine
 10
731.6813199991791
 20
-145.1271559858869
 30
0.0
 11
732.6813199991792
 21
-148.1271559858869
 31
0.0
  0
LINE
  5
1FC2
330
1BA
100
AcDbEntity
  8
1外形線
100
AcDbLine
 10
731.6813199991791
 20
-145.1271559858869
 30
0.0
 11
804.181319999183
 21
-145.1271559858869
 31
0.0
  0
LINE
  5
1FC3
330
1BA
100
AcDbEntity
  8
1外形線
100
AcDbLine
 10
809.1813199991792
 20
-37.12715598587966
 30
0.0
 11
812.181319999183
 21
-38.12715598587966
 31
0.0
  0
LINE
  5
1FC4
330
1BA
100
AcDbEntity
  8
1外形線
100
AcDbLine
 10
809.1813199991756
 20
-37.12715598587966
 30
0.0
 11
809.1813199991756
 21
-111.86511708947
 31
0.0
  0
LINE
  5
1FC5
330
1BA
100
AcDbEntity
  8
1外形線
 62
     4
100
AcDbLine
 10
804.181319999183
 20
-112.6016382692432
 30
0.0
 11
804.181319999183
 21
-112.127155985885
 31
0.0
  0
LINE
  5
1FC9
330
1BA
100
AcDbEntity
  8
1外形線
100
AcDbLine
 10
709.0614872449021
 20
-112.127155985885
 30
0.0
 11
707.8545190110727
 21
-59.76330337947729
 31
0.0
  0
LINE
  5
1FCA
330
1BA
100
AcDbEntity
  8
1外形線
100
AcDbLine
 10
704.2259357599814
 20
-51.28091900090476
 30
0.0
 11
693.7040486582462
 21
-40.75903189916971
 31
0.0
  0
ARC
  5
1FCB
330
1BA
100
AcDbEntity
  8
1外形線
100
AcDbCircle
 10
695.4578116732682
 20
-60.04904308761616
 30
0.0
 40
12.4
100
AcDbArc
 50
1.320413594112577
 51
45.0000000000803
  0
LINE
  5
1FCC
330
1BA
100
AcDbEntity
  8
1外形線
100
AcDbLine
 10
661.7109029077417
 20
-37.12715598588511
 30
0.0
 11
684.9359245715333
 21
-37.12715598588329
 31
0.0
  0
ARC
  5
1FCD
330
1BA
100
AcDbEntity
  8
1外形線
100
AcDbCircle
 10
684.9359245715333
 20
-49.52715598588293
 30
0.0
 40
12.4
100
AcDbArc
 50
45.0000000000803
 51
90.0
  0
LINE
  5
1FCE
330
1BA
100
AcDbEntity
  8
1外形線
100
AcDbLine
 10
705.7109029077309
 20
-148.127155985896
 30
0.0
 11
661.7109029077383
 21
-148.1271559858851
 31
0.0
  0
LINE
  5
1FCF
330
1BA
100
AcDbEntity
  8
1外形線
100
AcDbLine
 10
708.6389674908769
 20
-123.9315210013283
 30
0.0
 11
707.1334226617491
 21
-129.550290796702
 31
0.0
  0
LINE
  5
1FD0
330
1BA
100
AcDbEntity
  8
1外形線
100
AcDbLine
 10
709.0614872448987
 20
-112.1271559858978
 30
0.0
 11
709.061487244895
 21
-120.7221648420564
 31
0.0
  0
ARC
  5
1FD1
330
1BA
100
AcDbEntity
  8
1外形線
100
AcDbCircle
 10
696.6614872448936
 20
-120.7221648420527
 30
0.0
 40
12.4
100
AcDbArc
 50
344.9999999999771
 51
0.0
  0
LINE
  5
1FD2
330
1BA
100
AcDbEntity
  8
1外形線
100
AcDbLine
 10
705.7109029077272
 20
-148.127155985896
 30
0.0
 11
706.7109029077272
 21
-145.127155985896
 31
0.0
  0
LINE
  5
1FD3
330
1BA
100
AcDbEntity
  8
1外形線
100
AcDbLine
 10
706.7109029077272
 20
-145.127155985896
 30
0.0
 11
706.7109029077308
 21
-132.7596469559721
 31
0.0
  0
ARC
  5
1FD4
330
1BA
100
AcDbEntity
  8
1外形線
100
AcDbCircle
 10
719.1109029077323
 20
-132.7596469559757
 30
0.0
 40
12.4
100
AcDbArc
 50
164.9999999999771
 51
180.0
  0
LINE
  5
1FD5
330
1BA
100
AcDbEntity
  8
1外形線
100
AcDbLine
 10
614.360318570567
 20
-112.127155985885
 30
0.0
 11
615.5672868043966
 21
-59.76330337947729
 31
0.0
  0
LINE
  5
1FD6
330
1BA
100
AcDbEntity
  8
1外形線
100
AcDbLine
 10
619.1958700554877
 20
-51.28091900090476
 30
0.0
 11
629.7177571572229
 21
-40.75903189916971
 31
0.0
  0
ARC
  5
1FD7
330
1BA
100
AcDbEntity
  8
1外形線
100
AcDbCircle
 10
627.963994142201
 20
-60.04904308761616
 30
0.0
 40
12.4
100
AcDbArc
 50
134.9999999999197
 51
178.6795864058874
  0
LINE
  5
1FD8
330
1BA
100
AcDbEntity
  8
1外形線
100
AcDbLine
 10
661.7109029077274
 20
-37.12715598588511
 30
0.0
 11
638.4858812439362
 21
-37.12715598588329
 31
0.0
  0
ARC
  5
1FD9
330
1BA
100
AcDbEntity
  8
1外形線
100
AcDbCircle
 10
638.4858812439362
 20
-49.52715598588293
 30
0.0
 40
12.4
100
AcDbArc
 50
90.0
 51
134.9999999999197
  0
LINE
  5
1FDA
330
1BA
100
AcDbEntity
  8
1外形線
100
AcDbLine
 10
617.7109029077382
 20
-148.127155985896
 30
0.0
 11
661.710902907731
 21
-148.1271559858851
 31
0.0
  0
LINE
  5
1FDB
330
1BA
100
AcDbEntity
  8
1外形線
100
AcDbLine
 10
614.7828383245922
 20
-123.9315210013283
 30
0.0
 11
616.2883831537201
 21
-129.550290796702
 31
0.0
  0
LINE
  5
1FDC
330
1BA
100
AcDbEntity
  8
1外形線
100
AcDbLine
 10
614.3603185705706
 20
-112.1271559858978
 30
0.0
 11
614.3603185705742
 21
-120.7221648420582
 31
0.0
  0
ARC
  5
1FDD
330
1BA
100
AcDbEntity
  8
1外形線
100
AcDbCircle
 10
626.7603185705756
 20
-120.7221648420545
 30
0.0
 40
12.4
100
AcDbArc
 50
180.0
 51
195.0000000000229
  0
LINE
  5
1FDE
330
1BA
100
AcDbEntity
  8
1外形線
100
AcDbLine
 10
617.7109029077418
 20
-148.127155985896
 30
0.0
 11
616.7109029077417
 21
-145.127155985896
 31
0.0
  0
LINE
  5
1FDF
330
1BA
100
AcDbEntity
  8
1外形線
100
AcDbLine
 10
616.7109029077417
 20
-145.127155985896
 30
0.0
 11
616.7109029077383
 21
-132.7596469559739
 31
0.0
  0
ARC
  5
1FE0
330
1BA
100
AcDbEntity
  8
1外形線
100
AcDbCircle
 10
604.3109029077367
 20
-132.7596469559776
 30
0.0
 40
12.4
100
AcDbArc
 50
0.0
 51
15.00000000002287
  0
LINE
  5
1FE1
330
1BA
100
AcDbEntity
  8
1外形線
100
AcDbLine
 10
706.7109029077272
 20
-145.127155985896
 30
0.0
 11
616.7109029077417
 21
-145.127155985896
 31
0.0
  0
LINE
  5
2044
330
1BA
100
AcDbEntity
  8
1外形線
100
AcDbLine
 10
747.2262442646223
 20
-145.1271559858869
 30
0.0
 11
747.2262442646223
 21
-75.80235117231494
 31
0.0
  0
ARC
  5
2045
330
1BA
100
AcDbEntity
  8
1外形線
100
AcDbCircle
 10
755.2262442646223
 20
-75.80235117231494
 30
0.0
 40
8.0
100
AcDbArc
 50
134.9999999999197
 51
180.0
  0
LINE
  5
2046
330
1BA
100
AcDbEntity
  8
1外形線
100
AcDbLine
 10
809.1813199991756
 20
-55.17208025133549
 30
0.0
 11
767.8565151855999
 21
-55.17208025133732
 31
0.0
  0
LINE
  5
2047
330
1BA
100
AcDbEntity
  8
1外形線
100
AcDbLine
 10
688.3178819865079
 20
-145.127155985896
 30
0.0
 11
688.3178819865079
 21
-132.0849373950423
 31
0.0
  0
ARC
  5
2048
330
1BA
100
AcDbEntity
  8
1外形線
100
AcDbCircle
 10
700.7178819865092
 20
-132.0849373950423
 30
0.0
 40
12.4
100
AcDbArc
 50
171.1664373933272
 51
180.0
  0
LINE
  5
2049
330
1BA
100
AcDbEntity
  8
1外形線
100
AcDbLine
 10
706.818833381707
 20
-131.1271559858978
 30
0.0
 11
688.3549270495914
 21
-131.1271559858905
 31
0.0
  0
LINE
  5
204A
330
1BA
100
AcDbEntity
  8
1外形線
100
AcDbLine
 10
689.5800693686451
 20
-118.1909119854044
 30
0.0
 11
688.4649633940333
 21
-130.1807352087871
 31
0.0
  0
LINE
  5
204B
330
1BA
100
AcDbEntity
  8
1外形線
100
AcDbLine
 10
689.5919139550333
 20
-118.1910485501357
 30
0.0
 11
688.4224804395216
 21
-57.51812959797826
 31
0.0
  0
LINE
  5
204C
330
1BA
100
AcDbEntity
  8
1外形線
100
AcDbLine
 10
689.6811991328595
 20
-38.07104978274221
 30
0.0
 11
688.4224804395216
 21
-57.51812959797826
 31
0.0
  0
LINE
  5
204D
330
1BA
100
AcDbEntity
  8
1外形線
100
AcDbLine
 10
685.4583778037504
 20
-57.51812959797826
 30
0.0
 11
661.7109029077346
 21
-57.51812959797826
 31
0.0
  0
ARC
  5
204E
330
1BA
100
AcDbEntity
  8
1外形線
100
AcDbCircle
 10
685.4583778037504
 20
-65.51812959797826
 30
0.0
 40
8.0
100
AcDbArc
 50
52.7193122671859
 51
90.0
  0
LINE
  5
204F
330
1BA
100
AcDbEntity
  8
1外形線
100
AcDbLine
 10
804.181319999183
 20
-131.1913206303215
 30
0.0
 11
747.2262442646223
 21
-131.1411221724338
 31
0.0
  0
LINE
  5
2050
330
1BA
100
AcDbEntity
  8
1外形線
100
AcDbLine
 10
804.181319999183
 20
-123.181672395991
 30
0.0
 11
747.2262442646259
 21
-123.1816723959891
 31
0.0
  0
LINE
  5
2051
330
1BA
100
AcDbEntity
  8
1外形線
100
AcDbLine
 10
689.5800693686451
 20
-118.1909119854044
 30
0.0
 11
708.953556770919
 21
-122.3546558121343
 31
0.0
  0
LINE
  5
2052
330
1BA
100
AcDbEntity
  8
1外形線
100
AcDbLine
 10
747.2262442646223
 20
-131.1411221724338
 30
0.0
 11
731.6813199991757
 21
-131.141122172432
 31
0.0
  0
LINE
  5
2053
330
1BA
100
AcDbEntity
  8
1外形線
100
AcDbLine
 10
731.6813199991791
 20
-118.6763275011981
 30
0.0
 11
747.2262442646223
 21
-123.1816723959891
 31
0.0
  0
LINE
  5
2054
330
1BA
100
AcDbEntity
  8
1外形線
100
AcDbLine
 10
635.1039238289468
 20
-145.127155985896
 30
0.0
 11
635.1039238289468
 21
-132.0849373950423
 31
0.0
  0
ARC
  5
2055
330
1BA
100
AcDbEntity
  8
1外形線
100
AcDbCircle
 10
622.7039238289452
 20
-132.0849373950423
 30
0.0
 40
12.4
100
AcDbArc
 50
0.0
 51
8.833562606672726
  0
LINE
  5
2056
330
1BA
100
AcDbEntity
  8
1外形線
100
AcDbLine
 10
616.6029724337477
 20
-131.1271559858978
 30
0.0
 11
635.0668787658633
 21
-131.1271559858905
 31
0.0
  0
LINE
  5
2057
330
1BA
100
AcDbEntity
  8
1外形線
100
AcDbLine
 10
633.7406066825951
 20
-38.07104978274221
 30
0.0
 11
634.999325375933
 21
-57.51812959797826
 31
0.0
  0
LINE
  5
2058
330
1BA
100
AcDbEntity
  8
1外形線
100
AcDbLine
 10
749.5693900151291
 20
-70.14549692282344
 30
0.0
 11
762.1996609361067
 21
-57.51522600184397
 31
0.0
  0
ARC
  5
2059
330
1BA
100
AcDbEntity
  8
1外形線
100
AcDbCircle
 10
767.8565151855999
 20
-63.17208025133732
 30
0.0
 40
8.0
100
AcDbArc
 50
90.0
 51
134.9999999999197
  0
LINE
  5
205A
330
1BA
100
AcDbEntity
  8
1外形線
100
AcDbLine
 10
708.1536476357887
 20
-72.7408837133953
 30
0.0
 11
690.3041397353425
 21
-59.15270806422633
 31
0.0
  0
LINE
  5
205B
330
1BA
100
AcDbEntity
  8
1外形線
100
AcDbLine
 10
637.9634280117334
 20
-57.51812959797826
 30
0.0
 11
661.710902907749
 21
-57.51812959797826
 31
0.0
  0
ARC
  5
205C
330
1BA
100
AcDbEntity
  8
1外形線
100
AcDbCircle
 10
637.9634280117334
 20
-65.51812959797826
 30
0.0
 40
8.0
100
AcDbArc
 50
90.0
 51
127.2806877329782
  0
LINE
  5
205D
330
1BA
100
AcDbEntity
  8
1外形線
100
AcDbLine
 10
615.2681581796951
 20
-72.7408837133953
 30
0.0
 11
633.1176660801411
 21
-59.15270806422633
 31
0.0
  0
LINE
  5
205E
330
1BA
100
AcDbEntity
  8
1外形線
100
AcDbLine
 10
633.8417364468241
 20
-118.1909119854044
 30
0.0
 11
634.9568424214358
 21
-130.1807352087871
 31
0.0
  0
LINE
  5
205F
330
1BA
100
AcDbEntity
  8
1外形線
100
AcDbLine
 10
633.8298918604358
 20
-118.1910485501357
 30
0.0
 11
634.9993253759476
 21
-57.51812959797826
 31
0.0
  0
LINE
  5
2060
330
1BA
100
AcDbEntity
  8
1外形線
100
AcDbLine
 10
633.8417364468241
 20
-118.1909119854044
 30
0.0
 11
614.4682490445502
 21
-122.3546558121343
 31
0.0
  0
LINE
  5
2BC5
330
1BA
100
AcDbEntity
  8
1外形線
100
AcDbLine
 10
661.710902907731
 20
-11.27486823112075
 30
0.0
 11
635.9858812439287
 21
-11.27486823112075
 31
0.0
  0
ARC
  5
2BC6
330
1BA
100
AcDbEntity
  8
1外形線
100
AcDbCircle
 10
635.9858812439287
 20
1.125131768880698
 30
0.0
 40
12.4
100
AcDbArc
 50
224.9999999999165
 51
270.0
  0
LINE
  5
2BC7
330
1BA
100
AcDbEntity
  8
1外形線
100
AcDbLine
 10
661.7109029077383
 20
-11.27486823112075
 30
0.0
 11
687.4359245715257
 21
-11.27486823112075
 31
0.0
  0
ARC
  5
2BC8
330
1BA
100
AcDbEntity
  8
1外形線
100
AcDbCircle
 10
687.4359245715257
 20
1.125131768880698
 30
0.0
 40
12.4
100
AcDbArc
 50
270.0
 51
315.0000000000835
  0
LINE
  5
2BC9
330
1BA
100
AcDbEntity
  8
1外形線
100
AcDbLine
 10
615.3603185705668
 20
69.22513176887924
 30
0.0
 11
661.7109029077328
 21
69.22513176887924
 31
0.0
  0
LINE
  5
2BCA
330
1BA
100
AcDbEntity
  8
1外形線
100
AcDbLine
 10
614.360318570567
 20
61.22513176887924
 30
0.0
 11
614.360318570567
 21
66.22513176887924
 31
0.0
  0
LINE
  5
2BCB
330
1BA
100
AcDbEntity
  8
1外形線
100
AcDbLine
 10
614.360318570567
 20
66.22513176887924
 30
0.0
 11
615.3603185705668
 21
69.22513176887924
 31
0.0
  0
LINE
  5
2BCC
330
1BA
100
AcDbEntity
  8
1外形線
100
AcDbLine
 10
614.360318570567
 20
61.22513176887924
 30
0.0
 11
615.5672868043966
 21
8.861279162469607
 31
0.0
  0
LINE
  5
2BCD
330
1BA
100
AcDbEntity
  8
1外形線
100
AcDbLine
 10
619.1958700554877
 20
0.3788947838952552
 30
0.0
 11
627.2177571572155
 21
-7.642992317832515
 31
0.0
  0
ARC
  5
2BCE
330
1BA
100
AcDbEntity
  8
1外形線
100
AcDbCircle
 10
627.963994142201
 20
9.147018870608466
 30
0.0
 40
12.4
100
AcDbArc
 50
181.3204135940081
 51
225.0000000001376
  0
LINE
  5
2BCF
330
1BA
100
AcDbEntity
  8
1外形線
100
AcDbLine
 10
709.0614872448876
 20
61.22513176887561
 30
0.0
 11
707.854519011058
 21
8.861279162469607
 31
0.0
  0
ARC
  5
2BD0
330
1BA
100
AcDbEntity
  8
1外形線
100
AcDbCircle
 10
695.4578116732538
 20
9.147018870608466
 30
0.0
 40
12.4
100
AcDbArc
 50
314.9999999998624
 51
358.6795864059919
  0
LINE
  5
2BD1
330
1BA
100
AcDbEntity
  8
1外形線
100
AcDbLine
 10
704.2259357599667
 20
0.3788947838952552
 30
0.0
 11
696.2040486582391
 21
-7.642992317832515
 31
0.0
  0
LINE
  5
2BD2
330
1BA
100
AcDbEntity
  8
1外形線
100
AcDbLine
 10
708.061487244895
 20
69.22513176887924
 30
0.0
 11
661.7109029077328
 21
69.22513176887924
 31
0.0
  0
LINE
  5
2BD3
330
1BA
100
AcDbEntity
  8
1外形線
100
AcDbLine
 10
709.061487244895
 20
61.22513176887924
 30
0.0
 11
709.061487244895
 21
66.22513176887924
 31
0.0
  0
LINE
  5
2BD4
330
1BA
100
AcDbEntity
  8
1外形線
100
AcDbLine
 10
709.061487244895
 20
66.22513176887924
 30
0.0
 11
708.061487244895
 21
69.22513176887924
 31
0.0
  0
LINE
  5
2BD5
330
1BA
100
AcDbEntity
  8
1外形線
100
AcDbLine
 10
614.360318570567
 20
66.22513176887924
 30
0.0
 11
709.061487244895
 21
66.22513176887924
 31
0.0
  0
LINE
  5
2BDF
330
1BA
100
AcDbEntity
  8
1外形線
100
AcDbLine
 10
686.3532640446751
 20
13.8613799422968
 30
0.0
 11
637.0685417707955
 21
13.86137994229671
 31
0.0
  0
LINE
  5
2BE0
330
1BA
100
AcDbEntity
  8
1外形線
100
AcDbLine
 10
634.9882656824036
 20
13.86137994229668
 30
0.0
 11
634.9882656824034
 21
66.2251317688792
 31
0.0
  0
LINE
  5
2BE1
330
1BA
100
AcDbEntity
  8
1外形線
100
AcDbLine
 10
688.433540133068
 20
13.86137994229677
 30
0.0
 11
688.4335401330678
 21
66.2251317688792
 31
0.0
  0
LINE
  5
2BE8
330
1BA
100
AcDbEntity
  8
1外形線
100
AcDbLine
 10
633.740606682597
 20
-11.06989763429155
 30
0.0
 11
634.9882656824036
 21
13.86137994229671
 31
0.0
  0
LINE
  5
2BEE
330
1BA
100
AcDbEntity
  8
1外形線
100
AcDbLine
 10
689.6811991328609
 20
-11.06989763429096
 30
0.0
 11
688.4335401330687
 21
13.8613799422968
 31
0.0
  0
LINE
  5
2C25
330
1BA
100
AcDbEntity
  8
1外形線
100
AcDbLine
 10
690.25030622978
 20
14.87474540143859
 30
0.0
 11
708.2242133750751
 21
24.90032695529627
 31
0.0
  0
LINE
  5
2C26
330
1BA
100
AcDbEntity
  8
1外形線
100
AcDbLine
 10
633.1714995856932
 20
14.87474540143711
 30
0.0
 11
615.1975924403796
 21
24.9003269552963
 31
0.0
  0
LINE
  5
2C2B
330
1BA
100
AcDbEntity
  8
1外形線
100
AcDbLine
 10
688.4335401330687
 20
66.22513176887924
 30
0.0
 11
687.4335401330687
 21
69.22513176887924
 31
0.0
  0
LINE
  5
2C2C
330
1BA
100
AcDbEntity
  8
1外形線
100
AcDbLine
 10
634.9882656824036
 20
66.22513176887924
 30
0.0
 11
635.9882656824037
 21
69.22513176887924
 31
0.0
  0
ARC
  5
2C2D
330
1BA
100
AcDbEntity
  8
1外形線
100
AcDbCircle
 10
637.0685417707955
 20
21.86137994229671
 30
0.0
 40
8.0
100
AcDbArc
 50
240.8478633685624
 51
270.0
  0
ARC
  5
2C2E
330
1BA
100
AcDbEntity
  8
1外形線
100
AcDbCircle
 10
686.3532640446751
 20
21.8613799422968
 30
0.0
 40
8.0
100
AcDbArc
 50
270.0
 51
299.1521366314544
  0
ENDSEC
  0
SECTION
  2
OBJECTS
  0
DICTIONARY
  5
1A8
330
0
100
AcDbDictionary
281
     1
  3
ACAD_CIP_PREVIOUS_PRODUCT_INFO
350
36A
  3
ACAD_COLOR
350
352
  3
ACAD_GROUP
350
1A9
  3
ACAD_LAYOUT
350
1B5
  3
ACAD_MATERIAL
350
320
  3
ACAD_MLEADERSTYLE
350
367
  3
ACAD_MLINESTYLE
350
1B2
  3
ACAD_PLOTSETTINGS
350
1B4
  3
ACAD_PLOTSTYLENAME
350
1AA
  3
ACAD_SCALELIST
350
355
  3
ACAD_TABLESTYLE
350
353
  3
ACAD_VISUALSTYLE
350
339
  3
ACDB_RECOMPOSE_DATA
350
2E56
  3
AcDbVariableDictionary
350
26D
  3
DWGPROPS
350
2E57
  0
DICTIONARY
  5
37A
330
19E
100
AcDbDictionary
280
     1
281
     1
  3
ACAD_LAYERSTATES
360
37B
  0
DICTIONARY
  5
47C
330
1AC
100
AcDbDictionary
280
     1
281
     1
  3
ADSK_XREC_LAYER_RECONCILED
360
47D
  0
DICTIONARY
  5
47E
330
1BF
100
AcDbDictionary
280
     1
281
     1
  3
ADSK_XREC_LAYER_RECONCILED
360
47F
  0
DICTIONARY
  5
482
330
1CB
100
AcDbDictionary
280
     1
281
     1
  3
ADSK_XREC_LAYER_RECONCILED
360
483
  0
DICTIONARY
  5
4CE
330
1BA
100
AcDbDictionary
280
     1
281
     1
  3
ACAD_SORTENTS
360
4CF
  0
XRECORD
  5
36A
102
{ACAD_REACTORS
330
1A8
102
}
330
1A8
100
AcDbXrecord
280
     1
300
ACDLT
300
2012
300
ACDLT_F_S
  0
DICTIONARY
  5
352
102
{ACAD_REACTORS
330
1A8
102
}
330
1A8
100
AcDbDictionary
281
     1
  0
DICTIONARY
  5
1A9
102
{ACAD_REACTORS
330
1A8
102
}
330
1A8
100
AcDbDictionary
281
     1
  0
DICTIONARY
  5
1B5
102
{ACAD_REACTORS
330
1A8
102
}
330
1A8
100
AcDbDictionary
281
     1
  3
Model
350
1BD
  3
ﾚｲｱｳﾄ1
350
1B9
  0
DICTIONARY
  5
320
102
{ACAD_REACTORS
330
1A8
102
}
330
1A8
100
AcDbDictionary
281
     1
  3
ByBlock
350
329
  3
ByLayer
350
321
  3
Global
350
331
  0
DICTIONARY
  5
367
102
{ACAD_REACTORS
330
1A8
102
}
330
1A8
100
AcDbDictionary
281
     1
  3
Standard
350
368
  0
DICTIONARY
  5
1B2
102
{ACAD_REACTORS
330
1A8
102
}
330
1A8
100
AcDbDictionary
281
     1
  3
Standard
350
1B3
  0
DICTIONARY
  5
1B4
102
{ACAD_REACTORS
330
1A8
102
}
330
1A8
100
AcDbDictionary
281
     1
  0
ACDBDICTIONARYWDFLT
  5
1AA
102
{ACAD_REACTORS
330
1A8
102
}
330
1A8
100
AcDbDictionary
281
     1
  3
Normal
350
1AB
100
AcDbDictionaryWithDefault
340
1AB
  0
DICTIONARY
  5
355
102
{ACAD_REACTORS
330
1A8
102
}
330
1A8
100
AcDbDictionary
281
     1
  3
A0
350
356
  3
A1
350
357
  3
A2
350
358
  3
A3
350
359
  3
A4
350
35A
  3
A5
350
35B
  3
A6
350
35C
  3
A7
350
35D
  3
A8
350
35E
  3
A9
350
35F
  3
B0
350
360
  3
B1
350
361
  3
B2
350
362
  3
B3
350
363
  3
B4
350
364
  3
B5
350
365
  3
B6
350
366
  0
DICTIONARY
  5
353
102
{ACAD_REACTORS
330
1A8
102
}
330
1A8
100
AcDbDictionary
281
     1
  3
Standard
350
354
  0
DICTIONARY
  5
339
102
{ACAD_REACTORS
330
1A8
102
}
330
1A8
100
AcDbDictionary
281
     1
  3
2dWireframe
350
33F
  3
3D Hidden
350
2E51
  3
3dWireframe
350
2E50
  3
Basic
350
33E
  3
Brighten
350
345
  3
ColorChange
350
349
  3
Conceptual
350
342
  3
Dim
350
344
  3
EdgeColorOff
350
351
  3
Facepattern
350
348
  3
Flat
350
33A
  3
FlatWithEdges
350
33B
  3
Gouraud
350
33C
  3
GouraudWithEdges
350
33D
  3
Hidden
350
341
  3
JitterOff
350
34F
  3
Linepattern
350
347
  3
OverhangOff
350
350
  3
Realistic
350
343
  3
Shaded
350
34E
  3
Shaded with edges
350
34D
  3
Shades of Gray
350
34A
  3
Sketchy
350
34B
  3
Thicken
350
346
  3
Wireframe
350
340
  3
X-Ray
350
34C
  0
XRECORD
  5
2E56
102
{ACAD_REACTORS
330
1A8
102
}
330
1A8
100
AcDbXrecord
280
     1
 90
        1
330
354
  0
DICTIONARY
  5
26D
102
{ACAD_REACTORS
330
1A8
102
}
330
1A8
100
AcDbDictionary
281
     1
  3
CANNOSCALE
350
486
  3
CMLEADERSTYLE
350
485
  3
CTABLESTYLE
350
484
  3
DIMASSOC
350
26E
  3
INDEXCTL
350
488
  3
PROJECTNAME
350
181C
  3
SORTENTS
350
487
  3
XCLIPFRAME
350
2E54
  0
XRECORD
  5
2E57
102
{ACAD_REACTORS
330
1A8
102
}
330
1A8
100
AcDbXrecord
280
     1
  1
DWGPROPS COOKIE
  2

  3

  4

  6

  7

  8
USER1403-901
  9

300
=
301
=
302
=
303
=
304
=
305
=
306
=
307
=
308
=
309
=
 40
0.8144565740740741
 41
2452263.783811482
 42
2456770.632756134
  1

 90
        0
  0
DICTIONARY
  5
37B
102
{ACAD_REACTORS
330
37A
102
}
330
37A
100
AcDbDictionary
281
     1
  0
XRECORD
  5
47D
102
{ACAD_REACTORS
330
47C
102
}
330
47C
100
AcDbXrecord
280
     1
290
     1
  0
XRECORD
  5
47F
102
{ACAD_REACTORS
330
47E
102
}
330
47E
100
AcDbXrecord
280
     1
290
     1
  0
XRECORD
  5
483
102
{ACAD_REACTORS
330
482
102
}
330
482
100
AcDbXrecord
280
     1
290
     1
  0
SORTENTSTABLE
  5
4CF
102
{ACAD_REACTORS
330
4CE
102
}
330
4CE
100
AcDbSortentsTable
330
1BA
331
434
  5
435
331
46F
  5
478
331
1FC2
  5
1FC2
331
42C
  5
42D
331
1FBE
  5
1FBE
331
2055
  5
2055
331
2051
  5
2051
331
1FBA
  5
1FBA
331
2BE8
  5
2BEE
331
467
  5
46F
331
204D
  5
204D
331
424
  5
425
331
463
  5
46D
331
1FB6
  5
1FB6
331
45F
  5
465
331
2049
  5
2049
331
420
  5
420
331
41C
  5
41C
331
45B
  5
461
331
526
  5
526
331
2045
  5
2045
331
418
  5
418
331
2BE0
  5
2BE1
331
457
  5
45E
331
414
  5
414
331
453
  5
458
331
4E2
  5
4E2
331
1FE1
  5
1FE1
331
410
  5
410
331
44B
  5
450
331
2BD4
  5
2BD4
331
1FDD
  5
1FDD
331
40C
  5
40C
331
408
  5
408
331
2BD0
  5
2BD0
331
1FD9
  5
1FD9
331
2BCC
  5
2BCC
331
2BC8
  5
2BC8
331
4CD
  5
46C
331
1FD5
  5
1FD5
331
404
  5
404
331
443
  5
448
331
4D6
  5
43A
331
4D2
  5
44D
331
1FD1
  5
1FD1
331
400
  5
400
331
43F
  5
442
331
43B
  5
43E
331
1FCD
  5
1FCD
331
1FC9
  5
1FC9
331
205C
  5
205C
331
2C2B
  5
2C2D
331
2058
  5
2058
331
1FC5
  5
1FC5
331
433
  5
434
331
1FC1
  5
1FC1
331
42B
  5
42C
331
46A
  5
473
331
1FBD
  5
1FBD
331
2054
  5
2054
331
2050
  5
2050
331
1FB9
  5
1FB9
331
427
  5
428
331
204C
  5
204C
331
423
  5
423
331
462
  5
46B
331
45E
  5
464
331
2048
  5
2048
331
41F
  5
41F
331
41B
  5
41B
331
525
  5
525
331
2044
  5
2044
331
2BDF
  5
2BDF
331
417
  5
417
331
456
  5
45B
331
413
  5
413
331
452
  5
457
331
4E5
  5
4E5
331
4E1
  5
4E1
331
1FE0
  5
1FE0
331
40F
  5
40F
331
40B
  5
40B
331
44A
  5
44F
331
479
  5
4D9
331
2BD3
  5
2BD3
331
1FDC
  5
1FDC
331
4D9
  5
43C
331
2BCF
  5
2BCF
331
1FD8
  5
1FD8
331
2BCB
  5
2BCB
331
407
  5
407
331
446
  5
44B
331
1FD4
  5
1FD4
331
403
  5
403
331
442
  5
446
331
4D5
  5
479
331
43E
  5
441
331
2BC7
  5
2BC7
331
1FD0
  5
1FD0
331
3FF
  5
3FF
331
43A
  5
43D
331
1FCC
  5
1FCC
331
2C2E
  5
2C2B
331
205F
  5
205F
331
205B
  5
205B
331
1B0D
  5
1C9A
331
436
  5
437
331
1FC4
  5
1FC4
331
432
  5
433
331
46D
  5
476
331
1FC0
  5
1FC0
331
2C26
  5
2C2C
331
2057
  5
2057
331
42E
  5
42F
331
42A
  5
42B
331
469
  5
472
331
1FBC
  5
1FBC
331
2053
  5
2053
331
2BEE
  5
2BF7
331
1FB8
  5
1FB8
331
204F
  5
204F
331
426
  5
427
331
465
  5
46E
331
204B
  5
204B
331
422
  5
422
331
461
  5
469
331
45D
  5
463
331
2047
  5
2047
331
41E
  5
41E
331
41A
  5
41A
331
459
  5
460
331
2060
  5
2060
331
416
  5
416
331
455
  5
45A
331
4E4
  5
4E4
331
412
  5
412
331
451
  5
456
331
44D
  5
452
331
4E0
  5
4E0
331
1FDF
  5
1FDF
331
40E
  5
40E
331
40A
  5
40A
331
478
  5
4D8
331
2BD2
  5
2BD2
331
1FDB
  5
1FDB
331
4D8
  5
4D4
331
2BCE
  5
2BCE
331
2BCA
  5
2BCA
331
1FD7
  5
1FD7
331
406
  5
406
331
1FD3
  5
1FD3
331
402
  5
402
331
441
  5
444
331
4D4
  5
477
331
43D
  5
440
331
4D0
  5
466
331
2BC6
  5
2BC6
331
1FCF
  5
1FCF
331
3FE
  5
3FE
331
439
  5
43B
331
474
  5
4D3
331
1FCB
  5
1FCB
331
2C2D
  5
2BE0
331
470
  5
4CD
331
205E
  5
205E
331
205A
  5
205A
331
435
  5
436
331
1FC3
  5
1FC3
331
431
  5
432
331
42D
  5
42E
331
1FBF
  5
1FBF
331
2C25
  5
2C26
331
2056
  5
2056
331
468
  5
471
331
1FBB
  5
1FBB
331
2052
  5
2052
331
204E
  5
204E
331
425
  5
426
331
1FB7
  5
1FB7
331
460
  5
467
331
204A
  5
204A
331
45C
  5
462
331
527
  5
527
331
2046
  5
2046
331
41D
  5
41D
331
458
  5
45F
331
2BE1
  5
2BE8
331
415
  5
415
331
454
  5
459
331
4E3
  5
4E3
331
411
  5
411
331
450
  5
455
331
44C
  5
451
331
2BD5
  5
2BD5
331
1FDE
  5
1FDE
331
40D
  5
40D
331
409
  5
409
331
448
  5
44E
331
2BD1
  5
2BD1
331
1FDA
  5
1FDA
331
2BCD
  5
2BCD
331
2BC9
  5
2BC9
331
1FD6
  5
1FD6
331
405
  5
405
331
444
  5
44A
331
4D7
  5
424
331
4D3
  5
44C
331
1FD2
  5
1FD2
331
401
  5
401
331
440
  5
443
331
43C
  5
43F
331
477
  5
4D7
331
2BC5
  5
2BC5
331
1FCE
  5
1FCE
331
438
  5
439
331
473
  5
4D2
331
1FCA
  5
1FCA
331
2C2C
  5
2C2E
331
205D
  5
205D
331
2059
  5
2059
  0
LAYOUT
  5
1BD
102
{ACAD_XDICTIONARY
360
2E5A
102
}
102
{ACAD_REACTORS
330
1B5
102
}
330
1B5
100
AcDbPlotSettings
  1

  2
RICOH IPSiO SP 6310 RPCS
  4
A4
  6

 40
5.873749732971191
 41
5.873747825622557
 42
5.873748779296875
 43
5.873748779296875
 44
209.9733276367186
 45
296.9259948730469
 46
0.0
 47
5.194626830873004
 48
0.0
 49
0.0
140
0.0
141
0.0
142
1.0
143
1.414661526742276
 70
 11956
 72
     1
 73
     1
 74
     0
  7
INABA-CAD-Canon.ctb
 75
     0
147
0.7068828699277827
148
-534.1903592048802
149
-139.3358634411079
100
AcDbLayout
  1
Model
 70
     1
 71
     0
 10
0.0
 20
0.0
 11
12.0
 21
9.0
 12
0.0
 22
0.0
 32
0.0
 14
0.0
 24
0.0
 34
0.0
 15
0.0
 25
0.0
 35
0.0
146
0.0
 13
0.0
 23
0.0
 33
0.0
 16
1.0
 26
0.0
 36
0.0
 17
0.0
 27
1.0
 37
0.0
 76
     0
330
1BA
331
1E2D
1001
ACAD_PSEXT
1000
RICOH IPSiO SP 6310 RPCS
1000
RICOH IPSiO SP 6310 RPCS
1000
192.168.210.201@
1000
RPCS Driver (Windows 2000/XP/Server 2003/2008/Vista/7)
1070
     0
  0
LAYOUT
  5
1B9
102
{ACAD_XDICTIONARY
360
2E58
102
}
102
{ACAD_REACTORS
330
1B5
102
}
330
1B5
100
AcDbPlotSettings
  1

  2
Canon LASER SHOT LBP-1710
  4

  6

 40
0.0
 41
0.0
 42
0.0
 43
0.0
 44
0.0
 45
0.0
 46
0.0
 47
0.0
 48
0.0
 49
0.0
140
0.0
141
0.0
142
1.0
143
1.0
 70
   688
 72
     0
 73
     0
 74
     5
  7
INABA-CAD-Canon.ctb
 75
    16
147
1.0
148
0.0
149
0.0
100
AcDbLayout
  1
ﾚｲｱｳﾄ1
 70
     1
 71
     1
 10
0.0
 20
0.0
 11
420.0
 21
297.0
 12
0.0
 22
0.0
 32
0.0
 14
1.000000000000000E+20
 24
1.000000000000000E+20
 34
1.000000000000000E+20
 15
-1.000000000000000E+20
 25
-1.000000000000000E+20
 35
-1.000000000000000E+20
146
0.0
 13
0.0
 23
0.0
 33
0.0
 16
1.0
 26
0.0
 36
0.0
 17
0.0
 27
1.0
 37
0.0
 76
     0
330
1B6
  0
MATERIAL
  5
329
102
{ACAD_XDICTIONARY
360
32A
102
}
102
{ACAD_REACTORS
330
320
102
}
330
320
100
AcDbMaterial
  1
ByBlock
 72
     0
 43
0.0208333333333333
 43
0.0
 43
0.0
 43
0.0
 43
0.0
 43
0.0208333333333333
 43
0.0
 43
0.0
 43
0.0
 43
0.0
 43
1.0
 43
0.0
 43
0.0
 43
0.0
 43
0.0
 43
1.0
 77
     0
 47
0.0208333333333333
 47
0.0
 47
0.0
 47
0.0
 47
0.0
 47
0.0208333333333333
 47
0.0
 47
0.0
 47
0.0
 47
0.0
 47
1.0
 47
0.0
 47
0.0
 47
0.0
 47
0.0
 47
1.0
171
     0
 49
0.0208333333333333
 49
0.0
 49
0.0
 49
0.0
 49
0.0
 49
0.0208333333333333
 49
0.0
 49
0.0
 49
0.0
 49
0.0
 49
1.0
 49
0.0
 49
0.0
 49
0.0
 49
0.0
 49
1.0
175
     0
142
0.0208333333333333
142
0.0
142
0.0
142
0.0
142
0.0
142
0.0208333333333333
142
0.0
142
0.0
142
0.0
142
0.0
142
1.0
142
0.0
142
0.0
142
0.0
142
0.0
142
1.0
179
     0
144
0.0208333333333333
144
0.0
144
0.0
144
0.0
144
0.0
144
0.0208333333333333
144
0.0
144
0.0
144
0.0
144
0.0
144
1.0
144
0.0
144
0.0
144
0.0
144
0.0
144
1.0
147
0.0208333333333333
147
0.0
147
0.0
147
0.0
147
0.0
147
0.0208333333333333
147
0.0
147
0.0
147
0.0
147
0.0
147
1.0
147
0.0
147
0.0
147
0.0
147
0.0
147
1.0
  0
MATERIAL
  5
321
102
{ACAD_XDICTIONARY
360
322
102
}
102
{ACAD_REACTORS
330
320
102
}
330
320
100
AcDbMaterial
  1
ByLayer
 72
     0
 43
0.0208333333333333
 43
0.0
 43
0.0
 43
0.0
 43
0.0
 43
0.0208333333333333
 43
0.0
 43
0.0
 43
0.0
 43
0.0
 43
1.0
 43
0.0
 43
0.0
 43
0.0
 43
0.0
 43
1.0
 77
     0
 47
0.0208333333333333
 47
0.0
 47
0.0
 47
0.0
 47
0.0
 47
0.0208333333333333
 47
0.0
 47
0.0
 47
0.0
 47
0.0
 47
1.0
 47
0.0
 47
0.0
 47
0.0
 47
0.0
 47
1.0
171
     0
 49
0.0208333333333333
 49
0.0
 49
0.0
 49
0.0
 49
0.0
 49
0.0208333333333333
 49
0.0
 49
0.0
 49
0.0
 49
0.0
 49
1.0
 49
0.0
 49
0.0
 49
0.0
 49
0.0
 49
1.0
175
     0
142
0.0208333333333333
142
0.0
142
0.0
142
0.0
142
0.0
142
0.0208333333333333
142
0.0
142
0.0
142
0.0
142
0.0
142
1.0
142
0.0
142
0.0
142
0.0
142
0.0
142
1.0
179
     0
144
0.0208333333333333
144
0.0
144
0.0
144
0.0
144
0.0
144
0.0208333333333333
144
0.0
144
0.0
144
0.0
144
0.0
144
1.0
144
0.0
144
0.0
144
0.0
144
0.0
144
1.0
147
0.0208333333333333
147
0.0
147
0.0
147
0.0
147
0.0
147
0.0208333333333333
147
0.0
147
0.0
147
0.0
147
0.0
147
1.0
147
0.0
147
0.0
147
0.0
147
0.0
147
1.0
  0
MATERIAL
  5
331
102
{ACAD_XDICTIONARY
360
332
102
}
102
{ACAD_REACTORS
330
320
102
}
330
320
100
AcDbMaterial
  1
Global
 72
     0
 43
0.0208333333333333
 43
0.0
 43
0.0
 43
0.0
 43
0.0
 43
0.0208333333333333
 43
0.0
 43
0.0
 43
0.0
 43
0.0
 43
1.0
 43
0.0
 43
0.0
 43
0.0
 43
0.0
 43
1.0
 77
     0
 47
0.0208333333333333
 47
0.0
 47
0.0
 47
0.0
 47
0.0
 47
0.0208333333333333
 47
0.0
 47
0.0
 47
0.0
 47
0.0
 47
1.0
 47
0.0
 47
0.0
 47
0.0
 47
0.0
 47
1.0
171
     0
 49
0.0208333333333333
 49
0.0
 49
0.0
 49
0.0
 49
0.0
 49
0.0208333333333333
 49
0.0
 49
0.0
 49
0.0
 49
0.0
 49
1.0
 49
0.0
 49
0.0
 49
0.0
 49
0.0
 49
1.0
175
     0
142
0.0208333333333333
142
0.0
142
0.0
142
0.0
142
0.0
142
0.0208333333333333
142
0.0
142
0.0
142
0.0
142
0.0
142
1.0
142
0.0
142
0.0
142
0.0
142
0.0
142
1.0
179
     0
144
0.0208333333333333
144
0.0
144
0.0
144
0.0
144
0.0
144
0.0208333333333333
144
0.0
144
0.0
144
0.0
144
0.0
144
1.0
144
0.0
144
0.0
144
0.0
144
0.0
144
1.0
147
0.0208333333333333
147
0.0
147
0.0
147
0.0
147
0.0
147
0.0208333333333333
147
0.0
147
0.0
147
0.0
147
0.0
147
1.0
147
0.0
147
0.0
147
0.0
147
0.0
147
1.0
  0
MLEADERSTYLE
  5
368
102
{ACAD_REACTORS
330
367
102
}
330
367
100
AcDbMLeaderStyle
170
     2
171
     1
172
     0
 90
        2
 40
0.0
 41
0.0
173
     1
 91
-1056964608
340
1AF
 92
       -2
290
     1
 42
0.09
291
     1
 43
0.36
  3
Standard
 44
0.18
300

342
1AD
174
     1
178
     6
175
     1
176
     0
 93
-1056964608
 45
0.18
292
     0
297
     0
 46
0.18
 94
-1056964608
 47
1.0
 49
1.0
140
1.0
293
     1
141
0.0
294
     1
177
     0
142
1.0
295
     0
296
     0
143
0.125
1001
ACAD
1000
AcRTDxfName
1000
MLEADERSTYLE
1001
ACAD_MLEADERVER
1070
     2
  0
MLINESTYLE
  5
1B3
102
{ACAD_REACTORS
330
1B2
102
}
330
1B2
100
AcDbMlineStyle
  2
STANDARD
 70
     0
  3

 62
   256
 51
90.0
 52
90.0
 71
     2
 49
0.5
 62
   256
  6
BYLAYER
 49
-0.5
 62
   256
  6
BYLAYER
  0
ACDBPLACEHOLDER
  5
1AB
102
{ACAD_REACTORS
330
1AA
102
}
330
1AA
  0
SCALE
  5
356
102
{ACAD_REACTORS
330
355
102
}
330
355
100
AcDbScale
 70
     0
300
1:1
140
1.0
141
1.0
290
     1
1001
ACAD
1000
AcRTDxfName
1000
SCALE
  0
SCALE
  5
357
102
{ACAD_REACTORS
330
355
102
}
330
355
100
AcDbScale
 70
     0
300
1/128" = 1'-0"
140
0.0078125
141
12.0
290
     0
1001
ACAD
1000
AcRTDxfName
1000
SCALE
  0
SCALE
  5
358
102
{ACAD_REACTORS
330
355
102
}
330
355
100
AcDbScale
 70
     0
300
1/64" = 1'-0"
140
0.015625
141
12.0
290
     0
1001
ACAD
1000
AcRTDxfName
1000
SCALE
  0
SCALE
  5
359
102
{ACAD_REACTORS
330
355
102
}
330
355
100
AcDbScale
 70
     0
300
1/32" = 1'-0"
140
0.03125
141
12.0
290
     0
1001
ACAD
1000
AcRTDxfName
1000
SCALE
  0
SCALE
  5
35A
102
{ACAD_REACTORS
330
355
102
}
330
355
100
AcDbScale
 70
     0
300
1/16" = 1'-0"
140
0.0625
141
12.0
290
     0
1001
ACAD
1000
AcRTDxfName
1000
SCALE
  0
SCALE
  5
35B
102
{ACAD_REACTORS
330
355
102
}
330
355
100
AcDbScale
 70
     0
300
3/32" = 1'-0"
140
0.09375
141
12.0
290
     0
1001
ACAD
1000
AcRTDxfName
1000
SCALE
  0
SCALE
  5
35C
102
{ACAD_REACTORS
330
355
102
}
330
355
100
AcDbScale
 70
     0
300
1/8" = 1'-0"
140
0.125
141
12.0
290
     0
1001
ACAD
1000
AcRTDxfName
1000
SCALE
  0
SCALE
  5
35D
102
{ACAD_REACTORS
330
355
102
}
330
355
100
AcDbScale
 70
     0
300
3/16" = 1'-0"
140
0.1875
141
12.0
290
     0
1001
ACAD
1000
AcRTDxfName
1000
SCALE
  0
SCALE
  5
35E
102
{ACAD_REACTORS
330
355
102
}
330
355
100
AcDbScale
 70
     0
300
1/4" = 1'-0"
140
0.25
141
12.0
290
     0
1001
ACAD
1000
AcRTDxfName
1000
SCALE
  0
SCALE
  5
35F
102
{ACAD_REACTORS
330
355
102
}
330
355
100
AcDbScale
 70
     0
300
3/8" = 1'-0"
140
0.375
141
12.0
290
     0
1001
ACAD
1000
AcRTDxfName
1000
SCALE
  0
SCALE
  5
360
102
{ACAD_REACTORS
330
355
102
}
330
355
100
AcDbScale
 70
     0
300
1/2" = 1'-0"
140
0.5
141
12.0
290
     0
1001
ACAD
1000
AcRTDxfName
1000
SCALE
  0
SCALE
  5
361
102
{ACAD_REACTORS
330
355
102
}
330
355
100
AcDbScale
 70
     0
300
3/4" = 1'-0"
140
0.75
141
12.0
290
     0
1001
ACAD
1000
AcRTDxfName
1000
SCALE
  0
SCALE
  5
362
102
{ACAD_REACTORS
330
355
102
}
330
355
100
AcDbScale
 70
     0
300
1" = 1'-0"
140
1.0
141
12.0
290
     0
1001
ACAD
1000
AcRTDxfName
1000
SCALE
  0
SCALE
  5
363
102
{ACAD_REACTORS
330
355
102
}
330
355
100
AcDbScale
 70
     0
300
1-1/2" = 1'-0"
140
1.5
141
12.0
290
     0
1001
ACAD
1000
AcRTDxfName
1000
SCALE
  0
SCALE
  5
364
102
{ACAD_REACTORS
330
355
102
}
330
355
100
AcDbScale
 70
     0
300
3" = 1'-0"
140
3.0
141
12.0
290
     0
1001
ACAD
1000
AcRTDxfName
1000
SCALE
  0
SCALE
  5
365
102
{ACAD_REACTORS
330
355
102
}
330
355
100
AcDbScale
 70
     0
300
6" = 1'-0"
140
6.0
141
12.0
290
     0
1001
ACAD
1000
AcRTDxfName
1000
SCALE
  0
SCALE
  5
366
102
{ACAD_REACTORS
330
355
102
}
330
355
100
AcDbScale
 70
     0
300
1'-0" = 1'-0"
140
12.0
141
12.0
290
     0
1001
ACAD
1000
AcRTDxfName
1000
SCALE
  0
TABLESTYLE
  5
354
102
{ACAD_XDICTIONARY
360
48A
102
}
102
{ACAD_REACTORS
330
353
102
}
330
353
100
AcDbTableStyle
  3
Standard
 70
     0
 71
     0
 40
0.06
 41
0.06
280
     0
281
     0
  7
STANDARD
140
0.18
170
     2
 62
     0
 63
     7
283
     0
274
    -2
284
     1
 64
     0
275
    -2
285
     1
 65
     0
276
    -2
286
     1
 66
     0
277
    -2
287
     1
 67
     0
278
    -2
288
     1
 68
     0
279
    -2
289
     1
 69
     0
  7
STANDARD
140
0.25
170
     5
 62
     0
 63
     7
283
     0
274
    -2
284
     1
 64
     0
275
    -2
285
     1
 65
     0
276
    -2
286
     1
 66
     0
277
    -2
287
     1
 67
     0
278
    -2
288
     1
 68
     0
279
    -2
289
     1
 69
     0
  7
STANDARD
140
0.18
170
     5
 62
     0
 63
     7
283
     0
274
    -2
284
     1
 64
     0
275
    -2
285
     1
 65
     0
276
    -2
286
     1
 66
     0
277
    -2
287
     1
 67
     0
278
    -2
288
     1
 68
     0
279
    -2
289
     1
 69
     0
  0
VISUALSTYLE
  5
33F
102
{ACAD_XDICTIONARY
360
2E1C
102
}
102
{ACAD_REACTORS
330
339
102
}
330
339
100
AcDbVisualStyle
  2

 70
     4
 71
     0
 72
     2
 73
     0
 90
        0
 40
-0.6
 41
-30.0
 62
     5
 63
     7
 74
     1
 91
        4
 64
     7
 65
   257
 75
     1
175
     1
 42
1.0
 92
        0
 66
   257
 43
1.0
 76
     1
 77
     6
 78
     2
 67
     7
 79
     5
170
     0
171
     0
290
     0
174
     0
 93
        1
 44
0.0
173
     0
291
     0
 45
0.0
1001
ACAD
1000
AcRTDxfName
1000
VISUALSTYLE
1000
AcDbSavedByObjectVersion
1070
     0
  0
VISUALSTYLE
  5
2E51
102
{ACAD_XDICTIONARY
360
2E5F
102
}
102
{ACAD_REACTORS
330
339
102
}
330
339
100
AcDbVisualStyle
  2
3D Hidden
 70
     6
 71
     1
 72
     2
 73
     2
 90
        0
 40
-0.6
 41
-30.0
 62
     5
 63
     7
 74
     2
 91
        2
 64
     7
 65
   257
 75
     2
175
     1
 42
179.0
 92
        0
 66
   257
 43
1.0
 76
     1
 77
     6
 78
     2
 67
     7
 79
     3
170
     0
171
     0
290
     0
174
     0
 93
        1
 44
0.0
173
     0
291
     0
 45
0.0
1001
ACAD
1000
AcDbSavedByObjectVersion
1070
     0
  0
VISUALSTYLE
  5
2E50
102
{ACAD_XDICTIONARY
360
2E5D
102
}
102
{ACAD_REACTORS
330
339
102
}
330
339
100
AcDbVisualStyle
  2
3dWireframe
 70
     5
 71
     0
 72
     2
 73
     0
 90
        0
 40
-0.6
 41
-30.0
 62
     5
 63
     7
 74
     1
 91
        4
 64
     7
 65
   257
 75
     1
175
     1
 42
1.0
 92
        0
 66
   257
 43
1.0
 76
     1
 77
     6
 78
     2
 67
     7
 79
     5
170
     0
171
     0
290
     0
174
     0
 93
        1
 44
0.0
173
     0
291
     0
 45
0.0
1001
ACAD
1000
AcDbSavedByObjectVersion
1070
     0
  0
VISUALSTYLE
  5
33E
102
{ACAD_XDICTIONARY
360
2E1A
102
}
102
{ACAD_REACTORS
330
339
102
}
330
339
100
AcDbVisualStyle
  2

 70
     7
 71
     1
 72
     0
 73
     1
 90
        0
 40
-0.6
 41
-30.0
 62
     5
 63
     7
 74
     0
 91
        4
 64
     7
 65
   257
 75
     1
175
     1
 42
1.0
 92
        8
 66
     7
 43
1.0
 76
     1
 77
     6
 78
     2
 67
     7
 79
     5
170
     0
171
     0
290
     0
174
     0
 93
        1
 44
0.0
173
     0
291
     1
 45
0.0
1001
ACAD
1000
AcRTDxfName
1000
VISUALSTYLE
1000
AcDbSavedByObjectVersion
1070
     0
  0
VISUALSTYLE
  5
345
102
{ACAD_XDICTIONARY
360
2E28
102
}
102
{ACAD_REACTORS
330
339
102
}
330
339
100
AcDbVisualStyle
  2

 70
    12
 71
     2
 72
     2
 73
     0
 90
        0
 40
-0.6
 41
-30.0
 62
     5
 63
     7
 74
     1
 91
        4
 64
     7
 65
   257
 75
     1
175
     1
 42
1.0
 92
        8
 66
     7
 43
1.0
 76
     1
 77
     6
 78
     2
 67
     7
 79
     5
170
     0
171
     0
290
     0
174
     0
 93
        1
 44
50.0
173
     0
291
     1
 45
0.0
1001
ACAD
1000
AcRTDxfName
1000
VISUALSTYLE
1000
AcDbSavedByObjectVersion
1070
     0
  0
VISUALSTYLE
  5
349
102
{ACAD_XDICTIONARY
360
2E30
102
}
102
{ACAD_REACTORS
330
339
102
}
330
339
100
AcDbVisualStyle
  2

 70
    16
 71
     2
 72
     2
 73
     3
 90
        0
 40
-0.6
 41
-30.0
 62
     5
 63
     8
 74
     1
 91
        4
 64
     7
 65
   257
 75
     1
175
     1
 42
1.0
 92
        8
 66
     8
 43
1.0
 76
     1
 77
     6
 78
     2
 67
     7
 79
     5
170
     0
171
     0
290
     0
174
     0
 93
        1
 44
0.0
173
     0
291
     1
 45
0.0
1001
ACAD
1000
AcRTDxfName
1000
VISUALSTYLE
1000
AcDbSavedByObjectVersion
1070
     0
  0
VISUALSTYLE
  5
342
102
{ACAD_XDICTIONARY
360
2E22
102
}
102
{ACAD_REACTORS
330
339
102
}
330
339
100
AcDbVisualStyle
  2

 70
     9
 71
     3
 72
     2
 73
     0
 90
        0
 40
-0.6
 41
-30.0
 62
     5
 63
     7
 74
     2
 91
        2
 64
     7
 65
   257
 75
     1
175
     1
 42
179.0
 92
        8
 66
     7
 43
1.0
 76
     1
 77
     6
 78
     2
 67
     7
 79
     3
170
     0
171
     0
290
     0
174
     0
 93
        1
 44
0.0
173
     0
291
     0
 45
0.0
1001
ACAD
1000
AcRTDxfName
1000
VISUALSTYLE
1000
AcDbSavedByObjectVersion
1070
     0
  0
VISUALSTYLE
  5
344
102
{ACAD_XDICTIONARY
360
2E26
102
}
102
{ACAD_REACTORS
330
339
102
}
330
339
100
AcDbVisualStyle
  2

 70
    11
 71
     2
 72
     2
 73
     0
 90
        0
 40
-0.6
 41
-30.0
 62
     5
 63
     7
 74
     1
 91
        4
 64
     7
 65
   257
 75
     1
175
     1
 42
1.0
 92
        8
 66
     7
 43
1.0
 76
     1
 77
     6
 78
     2
 67
     7
 79
     5
170
     0
171
     0
290
     0
174
     0
 93
        1
 44
-50.0
173
     0
291
     1
 45
0.0
1001
ACAD
1000
AcRTDxfName
1000
VISUALSTYLE
1000
AcDbSavedByObjectVersion
1070
     0
  0
VISUALSTYLE
  5
351
102
{ACAD_XDICTIONARY
360
2E40
102
}
102
{ACAD_REACTORS
330
339
102
}
330
339
100
AcDbVisualStyle
  2

 70
    22
 71
     2
 72
     2
 73
     0
 90
        0
 40
-0.6
 41
-30.0
 62
     5
 63
     7
 74
     1
 91
        4
 64
     7
 65
   257
 75
     1
175
     1
 42
1.0
 92
        8
 66
     7
 43
1.0
 76
     1
 77
     6
 78
     2
 67
     7
 79
     5
170
     0
171
     0
290
     0
174
     0
 93
        1
 44
0.0
173
     0
291
     1
 45
0.0
1001
ACAD
1000
AcRTDxfName
1000
VISUALSTYLE
1000
AcDbSavedByObjectVersion
1070
     0
  0
VISUALSTYLE
  5
348
102
{ACAD_XDICTIONARY
360
2E2E
102
}
102
{ACAD_REACTORS
330
339
102
}
330
339
100
AcDbVisualStyle
  2

 70
    15
 71
     2
 72
     2
 73
     0
 90
        0
 40
-0.6
 41
-30.0
 62
     5
 63
     7
 74
     1
 91
        4
 64
     7
 65
   257
 75
     1
175
     1
 42
1.0
 92
        8
 66
     7
 43
1.0
 76
     1
 77
     6
 78
     2
 67
     7
 79
     5
170
     0
171
     0
290
     0
174
     0
 93
        1
 44
0.0
173
     0
291
     1
 45
0.0
1001
ACAD
1000
AcRTDxfName
1000
VISUALSTYLE
1000
AcDbSavedByObjectVersion
1070
     0
  0
VISUALSTYLE
  5
33A
102
{ACAD_XDICTIONARY
360
2E12
102
}
102
{ACAD_REACTORS
330
339
102
}
330
339
100
AcDbVisualStyle
  2

 70
     0
 71
     2
 72
     1
 73
     1
 90
        2
 40
-0.6
 41
30.0
 62
     5
 63
     7
 74
     0
 91
        0
 64
     7
 65
   257
 75
     1
175
     1
 42
1.0
 92
        8
 66
     7
 43
1.0
 76
     1
 77
     6
 78
     2
 67
     7
 79
     5
170
     0
171
     0
290
     0
174
     0
 93
       13
 44
0.0
173
     0
291
     1
 45
0.0
1001
ACAD
1000
AcRTDxfName
1000
VISUALSTYLE
1000
AcDbSavedByObjectVersion
1070
     0
  0
VISUALSTYLE
  5
33B
102
{ACAD_XDICTIONARY
360
2E14
102
}
102
{ACAD_REACTORS
330
339
102
}
330
339
100
AcDbVisualStyle
  2

 70
     1
 71
     2
 72
     1
 73
     1
 90
        2
 40
-0.6
 41
30.0
 62
     5
 63
     7
 74
     1
 91
        0
 64
     7
 65
   257
 75
     1
175
     1
 42
1.0
 92
        0
 66
   257
 43
1.0
 76
     1
 77
     6
 78
     2
 67
     7
 79
     5
170
     0
171
     0
290
     0
174
     0
 93
       13
 44
0.0
173
     0
291
     1
 45
0.0
1001
ACAD
1000
AcRTDxfName
1000
VISUALSTYLE
1000
AcDbSavedByObjectVersion
1070
     0
  0
VISUALSTYLE
  5
33C
102
{ACAD_XDICTIONARY
360
2E16
102
}
102
{ACAD_REACTORS
330
339
102
}
330
339
100
AcDbVisualStyle
  2

 70
     2
 71
     2
 72
     2
 73
     1
 90
        2
 40
-0.6
 41
30.0
 62
     5
 63
     7
 74
     0
 91
        0
 64
     7
 65
   257
 75
     1
175
     1
 42
1.0
 92
        0
 66
     7
 43
1.0
 76
     1
 77
     6
 78
     2
 67
     7
 79
     5
170
     0
171
     0
290
     0
174
     0
 93
       13
 44
0.0
173
     0
291
     1
 45
0.0
1001
ACAD
1000
AcRTDxfName
1000
VISUALSTYLE
1000
AcDbSavedByObjectVersion
1070
     0
  0
VISUALSTYLE
  5
33D
102
{ACAD_XDICTIONARY
360
2E18
102
}
102
{ACAD_REACTORS
330
339
102
}
330
339
100
AcDbVisualStyle
  2

 70
     3
 71
     2
 72
     2
 73
     1
 90
        2
 40
-0.6
 41
30.0
 62
     5
 63
     7
 74
     1
 91
        0
 64
     7
 65
   257
 75
     1
175
     1
 42
1.0
 92
        0
 66
   257
 43
1.0
 76
     1
 77
     6
 78
     2
 67
     7
 79
     5
170
     0
171
     0
290
     0
174
     0
 93
       13
 44
0.0
173
     0
291
     1
 45
0.0
1001
ACAD
1000
AcRTDxfName
1000
VISUALSTYLE
1000
AcDbSavedByObjectVersion
1070
     0
  0
VISUALSTYLE
  5
341
102
{ACAD_XDICTIONARY
360
2E20
102
}
102
{ACAD_REACTORS
330
339
102
}
330
339
100
AcDbVisualStyle
  2

 70
     6
 71
     1
 72
     2
 73
     2
 90
        0
 40
-0.6
 41
-30.0
 62
     5
 63
     7
 74
     2
 91
        2
 64
     7
 65
   257
 75
     2
175
     1
 42
40.0
 92
        0
 66
   257
 43
1.0
 76
     1
 77
     6
 78
     2
 67
     7
 79
     3
170
     0
171
     0
290
     0
174
     0
 93
        1
 44
0.0
173
     0
291
     0
 45
0.0
1001
ACAD
1000
AcRTDxfName
1000
VISUALSTYLE
1000
AcDbSavedByObjectVersion
1070
     0
  0
VISUALSTYLE
  5
34F
102
{ACAD_XDICTIONARY
360
2E3C
102
}
102
{ACAD_REACTORS
330
339
102
}
330
339
100
AcDbVisualStyle
  2

 70
    20
 71
     2
 72
     2
 73
     0
 90
        0
 40
-0.6
 41
-30.0
 62
     5
 63
     7
 74
     1
 91
        4
 64
     7
 65
   257
 75
     1
175
     1
 42
1.0
 92
       10
 66
     7
 43
1.0
 76
     1
 77
     6
 78
     2
 67
     7
 79
     5
170
     0
171
     0
290
     0
174
     0
 93
        1
 44
0.0
173
     0
291
     1
 45
0.0
1001
ACAD
1000
AcRTDxfName
1000
VISUALSTYLE
1000
AcDbSavedByObjectVersion
1070
     0
  0
VISUALSTYLE
  5
347
102
{ACAD_XDICTIONARY
360
2E2C
102
}
102
{ACAD_REACTORS
330
339
102
}
330
339
100
AcDbVisualStyle
  2

 70
    14
 71
     2
 72
     2
 73
     0
 90
        0
 40
-0.6
 41
-30.0
 62
     5
 63
     7
 74
     1
 91
        4
 64
     7
 65
   257
 75
     7
175
     7
 42
1.0
 92
        8
 66
     7
 43
1.0
 76
     1
 77
     6
 78
     2
 67
     7
 79
     5
170
     0
171
     0
290
     0
174
     0
 93
        1
 44
0.0
173
     0
291
     1
 45
0.0
1001
ACAD
1000
AcRTDxfName
1000
VISUALSTYLE
1000
AcDbSavedByObjectVersion
1070
     0
  0
VISUALSTYLE
  5
350
102
{ACAD_XDICTIONARY
360
2E3E
102
}
102
{ACAD_REACTORS
330
339
102
}
330
339
100
AcDbVisualStyle
  2

 70
    21
 71
     2
 72
     2
 73
     0
 90
        0
 40
-0.6
 41
-30.0
 62
     5
 63
     7
 74
     1
 91
        4
 64
     7
 65
   257
 75
     1
175
     1
 42
1.0
 92
        9
 66
     7
 43
1.0
 76
     1
 77
     6
 78
     2
 67
     7
 79
     5
170
     0
171
     0
290
     0
174
     0
 93
        1
 44
0.0
173
     0
291
     1
 45
0.0
1001
ACAD
1000
AcRTDxfName
1000
VISUALSTYLE
1000
AcDbSavedByObjectVersion
1070
     0
  0
VISUALSTYLE
  5
343
102
{ACAD_XDICTIONARY
360
2E24
102
}
102
{ACAD_REACTORS
330
339
102
}
330
339
100
AcDbVisualStyle
  2

 70
     8
 71
     2
 72
     3
 73
     0
 90
        2
 40
-0.6
 41
30.0
 62
     5
 63
     7
 74
     0
 91
        0
 64
     7
 65
   257
 75
     1
175
     1
 42
1.0
 92
        8
 66
   257
 43
1.0
 76
     1
 77
     6
 78
     2
 67
     7
 79
     3
170
     0
171
     0
290
     0
174
     0
 93
       13
 44
0.0
173
     0
291
     0
 45
0.0
1001
ACAD
1000
AcRTDxfName
1000
VISUALSTYLE
1000
AcDbSavedByObjectVersion
1070
     0
  0
VISUALSTYLE
  5
34E
102
{ACAD_XDICTIONARY
360
2E3A
102
}
102
{ACAD_REACTORS
330
339
102
}
330
339
100
AcDbVisualStyle
  2

 70
    27
 71
     2
 72
     2
 73
     1
 90
        2
 40
-0.6
 41
30.0
 62
     5
 63
     7
 74
     0
 91
        4
 64
     7
 65
   257
 75
     1
175
     1
 42
1.0
 92
        8
 66
   257
 43
1.0
 76
     1
 77
     6
 78
     2
 67
     8
 79
     3
170
     0
171
     0
290
     0
174
     0
 93
        5
 44
0.0
173
     0
291
     0
 45
0.0
1001
ACAD
1000
AcRTDxfName
1000
VISUALSTYLE
1000
AcDbSavedByObjectVersion
1070
     0
  0
VISUALSTYLE
  5
34D
102
{ACAD_XDICTIONARY
360
2E38
102
}
102
{ACAD_REACTORS
330
339
102
}
330
339
100
AcDbVisualStyle
  2

 70
    26
 71
     2
 72
     2
 73
     1
 90
        2
 40
-0.6
 41
30.0
 62
     5
 63
     7
 74
     1
 91
       10
 64
     7
 65
   257
 75
     2
175
     1
 42
1.0
 92
        8
 66
   257
 43
1.0
 76
     1
 77
     6
 78
     2
 67
     7
 79
     3
170
     0
171
     0
290
     0
174
     0
 93
        5
 44
0.0
173
     0
291
     0
 45
0.0
1001
ACAD
1000
AcRTDxfName
1000
VISUALSTYLE
1000
AcDbSavedByObjectVersion
1070
     0
  0
VISUALSTYLE
  5
34A
102
{ACAD_XDICTIONARY
360
2E32
102
}
102
{ACAD_REACTORS
330
339
102
}
330
339
100
AcDbVisualStyle
  2

 70
    23
 71
     2
 72
     2
 73
     3
 90
        0
 40
-0.6
 41
-30.0
 62
     5
 63
     7
 74
     2
 91
        2
 64
     7
 65
     7
 75
     1
175
     1
 42
40.0
 92
        8
 66
     7
 43
1.0
 76
     1
 77
     6
 78
     2
 67
     7
 79
     3
170
     0
171
     0
290
     0
174
     0
 93
        1
 44
0.0
173
     0
291
     0
 45
0.0
1001
ACAD
1000
AcRTDxfName
1000
VISUALSTYLE
1000
AcDbSavedByObjectVersion
1070
     0
  0
VISUALSTYLE
  5
34B
102
{ACAD_XDICTIONARY
360
2E34
102
}
102
{ACAD_REACTORS
330
339
102
}
330
339
100
AcDbVisualStyle
  2

 70
    24
 71
     1
 72
     2
 73
     2
 90
        0
 40
-0.6
 41
-30.0
 62
     5
 63
     7
 74
     2
 91
        2
 64
     7
 65
     7
 75
     1
175
     1
 42
40.0
 92
       11
 66
     7
 43
1.0
 76
     1
 77
     6
 78
     2
 67
     7
 79
     6
170
     0
171
     0
290
     0
174
     0
 93
        1
 44
0.0
173
     0
291
     0
 45
0.0
1001
ACAD
1000
AcRTDxfName
1000
VISUALSTYLE
1000
AcDbSavedByObjectVersion
1070
     0
  0
VISUALSTYLE
  5
346
102
{ACAD_XDICTIONARY
360
2E2A
102
}
102
{ACAD_REACTORS
330
339
102
}
330
339
100
AcDbVisualStyle
  2

 70
    13
 71
     2
 72
     2
 73
     0
 90
        0
 40
-0.6
 41
-30.0
 62
     5
 63
     7
 74
     1
 91
        4
 64
     7
 65
   257
 75
     1
175
     1
 42
1.0
 92
       12
 66
     7
 43
1.0
 76
     1
 77
     6
 78
     2
 67
     7
 79
     5
170
     0
171
     0
290
     0
174
     0
 93
        1
 44
0.0
173
     0
291
     1
 45
0.0
1001
ACAD
1000
AcRTDxfName
1000
VISUALSTYLE
1000
AcDbSavedByObjectVersion
1070
     0
  0
VISUALSTYLE
  5
340
102
{ACAD_XDICTIONARY
360
2E1E
102
}
102
{ACAD_REACTORS
330
339
102
}
330
339
100
AcDbVisualStyle
  2

 70
     5
 71
     0
 72
     2
 73
     0
 90
        0
 40
-0.6
 41
-30.0
 62
     5
 63
     7
 74
     1
 91
        4
 64
     7
 65
   257
 75
     1
175
     1
 42
1.0
 92
        0
 66
   257
 43
1.0
 76
     1
 77
     6
 78
     2
 67
     7
 79
     3
170
     0
171
     0
290
     0
174
     0
 93
        1
 44
0.0
173
     0
291
     0
 45
0.0
1001
ACAD
1000
AcRTDxfName
1000
VISUALSTYLE
1000
AcDbSavedByObjectVersion
1070
     0
  0
VISUALSTYLE
  5
34C
102
{ACAD_XDICTIONARY
360
2E36
102
}
102
{ACAD_REACTORS
330
339
102
}
330
339
100
AcDbVisualStyle
  2

 70
    25
 71
     2
 72
     2
 73
     1
 90
        1
 40
0.5
 41
-30.0
 62
     5
 63
     7
 74
     1
 91
        0
 64
     7
 65
   257
 75
     1
175
     1
 42
1.0
 92
        8
 66
     7
 43
1.0
 76
     1
 77
     6
 78
     2
 67
     7
 79
     3
170
     0
171
     0
290
     0
174
     0
 93
       13
 44
0.0
173
     0
291
     0
 45
0.0
1001
ACAD
1000
AcRTDxfName
1000
VISUALSTYLE
1000
AcDbSavedByObjectVersion
1070
     0
  0
DICTIONARYVAR
  5
486
102
{ACAD_REACTORS
330
26D
102
}
330
26D
100
DictionaryVariables
280
     0
  1
1:1
  0
DICTIONARYVAR
  5
485
102
{ACAD_REACTORS
330
26D
102
}
330
26D
100
DictionaryVariables
280
     0
  1
STANDARD
  0
DICTIONARYVAR
  5
484
102
{ACAD_REACTORS
330
26D
102
}
330
26D
100
DictionaryVariables
280
     0
  1
STANDARD
  0
DICTIONARYVAR
  5
26E
102
{ACAD_REACTORS
330
26D
102
}
330
26D
100
DictionaryVariables
280
     0
  1
1
  0
DICTIONARYVAR
  5
488
102
{ACAD_REACTORS
330
26D
102
}
330
26D
100
DictionaryVariables
280
     0
  1
0
  0
DICTIONARYVAR
  5
181C
102
{ACAD_REACTORS
330
26D
102
}
330
26D
100
DictionaryVariables
280
     0
  1

  0
DICTIONARYVAR
  5
487
102
{ACAD_REACTORS
330
26D
102
}
330
26D
100
DictionaryVariables
280
     0
  1
127
  0
DICTIONARYVAR
  5
2E54
102
{ACAD_REACTORS
330
26D
102
}
330
26D
100
DictionaryVariables
280
     0
  1
2
  0
DICTIONARY
  5
2E5A
330
1BD
100
AcDbDictionary
280
     1
281
     1
  3
ACAD_XREC_ROUNDTRIP
360
2E5B
  0
DICTIONARY
  5
2E58
330
1B9
100
AcDbDictionary
280
     1
281
     1
  3
ACAD_XREC_ROUNDTRIP
360
2E59
  0
DICTIONARY
  5
32A
330
329
100
AcDbDictionary
280
     1
281
     1
  3
ACAD_XREC_ROUNDTRIP
360
493
  3
BUMPTILE
360
32C
  3
DIFFUSETILE
360
32B
  3
OPACITYTILE
360
32F
  3
REFLECTIONTILE
360
32E
  3
REFRACTIONTILE
360
330
  3
SPECULARTILE
360
32D
  0
DICTIONARY
  5
322
330
321
100
AcDbDictionary
280
     1
281
     1
  3
ACAD_XREC_ROUNDTRIP
360
492
  3
BUMPTILE
360
324
  3
DIFFUSETILE
360
323
  3
OPACITYTILE
360
327
  3
REFLECTIONTILE
360
326
  3
REFRACTIONTILE
360
328
  3
SPECULARTILE
360
325
  0
DICTIONARY
  5
332
330
331
100
AcDbDictionary
280
     1
281
     1
  3
ACAD_XREC_ROUNDTRIP
360
494
  3
BUMPTILE
360
334
  3
DIFFUSETILE
360
333
  3
OPACITYTILE
360
337
  3
REFLECTIONTILE
360
336
  3
REFRACTIONTILE
360
338
  3
SPECULARTILE
360
335
  0
DICTIONARY
  5
48A
330
354
100
AcDbDictionary
280
     1
281
     1
  3
ACAD_ROUNDTRIP_2008_TABLESTYLE_CELLSTYLEMAP
360
2E55
  3
ACAD_XREC_ROUNDTRIP
360
2E5C
  0
DICTIONARY
  5
2E1C
330
33F
100
AcDbDictionary
280
     1
281
     1
  3
ACAD_XREC_ROUNDTRIP
360
2E1D
  0
DICTIONARY
  5
2E5F
330
2E51
100
AcDbDictionary
280
     1
281
     1
  3
ACAD_XREC_ROUNDTRIP
360
2E60
  0
DICTIONARY
  5
2E5D
330
2E50
100
AcDbDictionary
280
     1
281
     1
  3
ACAD_XREC_ROUNDTRIP
360
2E5E
  0
DICTIONARY
  5
2E1A
330
33E
100
AcDbDictionary
280
     1
281
     1
  3
ACAD_XREC_ROUNDTRIP
360
2E1B
  0
DICTIONARY
  5
2E28
330
345
100
AcDbDictionary
280
     1
281
     1
  3
ACAD_XREC_ROUNDTRIP
360
2E29
  0
DICTIONARY
  5
2E30
330
349
100
AcDbDictionary
280
     1
281
     1
  3
ACAD_XREC_ROUNDTRIP
360
2E31
  0
DICTIONARY
  5
2E22
330
342
100
AcDbDictionary
280
     1
281
     1
  3
ACAD_XREC_ROUNDTRIP
360
2E23
  0
DICTIONARY
  5
2E26
330
344
100
AcDbDictionary
280
     1
281
     1
  3
ACAD_XREC_ROUNDTRIP
360
2E27
  0
DICTIONARY
  5
2E40
330
351
100
AcDbDictionary
280
     1
281
     1
  3
ACAD_XREC_ROUNDTRIP
360
2E41
  0
DICTIONARY
  5
2E2E
330
348
100
AcDbDictionary
280
     1
281
     1
  3
ACAD_XREC_ROUNDTRIP
360
2E2F
  0
DICTIONARY
  5
2E12
330
33A
100
AcDbDictionary
280
     1
281
     1
  3
ACAD_XREC_ROUNDTRIP
360
2E13
  0
DICTIONARY
  5
2E14
330
33B
100
AcDbDictionary
280
     1
281
     1
  3
ACAD_XREC_ROUNDTRIP
360
2E15
  0
DICTIONARY
  5
2E16
330
33C
100
AcDbDictionary
280
     1
281
     1
  3
ACAD_XREC_ROUNDTRIP
360
2E17
  0
DICTIONARY
  5
2E18
330
33D
100
AcDbDictionary
280
     1
281
     1
  3
ACAD_XREC_ROUNDTRIP
360
2E19
  0
DICTIONARY
  5
2E20
330
341
100
AcDbDictionary
280
     1
281
     1
  3
ACAD_XREC_ROUNDTRIP
360
2E21
  0
DICTIONARY
  5
2E3C
330
34F
100
AcDbDictionary
280
     1
281
     1
  3
ACAD_XREC_ROUNDTRIP
360
2E3D
  0
DICTIONARY
  5
2E2C
330
347
100
AcDbDictionary
280
     1
281
     1
  3
ACAD_XREC_ROUNDTRIP
360
2E2D
  0
DICTIONARY
  5
2E3E
330
350
100
AcDbDictionary
280
     1
281
     1
  3
ACAD_XREC_ROUNDTRIP
360
2E3F
  0
DICTIONARY
  5
2E24
330
343
100
AcDbDictionary
280
     1
281
     1
  3
ACAD_XREC_ROUNDTRIP
360
2E25
  0
DICTIONARY
  5
2E3A
330
34E
100
AcDbDictionary
280
     1
281
     1
  3
ACAD_XREC_ROUNDTRIP
360
2E3B
  0
DICTIONARY
  5
2E38
330
34D
100
AcDbDictionary
280
     1
281
     1
  3
ACAD_XREC_ROUNDTRIP
360
2E39
  0
DICTIONARY
  5
2E32
330
34A
100
AcDbDictionary
280
     1
281
     1
  3
ACAD_XREC_ROUNDTRIP
360
2E33
  0
DICTIONARY
  5
2E34
330
34B
100
AcDbDictionary
280
     1
281
     1
  3
ACAD_XREC_ROUNDTRIP
360
2E35
  0
DICTIONARY
  5
2E2A
330
346
100
AcDbDictionary
280
     1
281
     1
  3
ACAD_XREC_ROUNDTRIP
360
2E2B
  0
DICTIONARY
  5
2E1E
330
340
100
AcDbDictionary
280
     1
281
     1
  3
ACAD_XREC_ROUNDTRIP
360
2E1F
  0
DICTIONARY
  5
2E36
330
34C
100
AcDbDictionary
280
     1
281
     1
  3
ACAD_XREC_ROUNDTRIP
360
2E37
  0
XRECORD
  5
2E5B
102
{ACAD_REACTORS
330
2E5A
102
}
330
2E5A
100
AcDbXrecord
280
     1
102
SHADEPLOT
 70
     0
102
SHADEPLOTRESLEVEL
 70
     2
102
SHADEPLOTCUSTOMDPI
 70
   300
  0
XRECORD
  5
2E59
102
{ACAD_REACTORS
330
2E58
102
}
330
2E58
100
AcDbXrecord
280
     1
102
SHADEPLOT
 70
     0
102
SHADEPLOTRESLEVEL
 70
     2
102
SHADEPLOTCUSTOMDPI
 70
   300
  0
XRECORD
  5
493
102
{ACAD_REACTORS
330
32A
102
}
330
32A
100
AcDbXrecord
280
     1
102
MATERIAL
148
0.0
149
0.0
149
0.0
 93
        0
 94
      127
282
     0
 72
     0
 77
     0
171
     0
175
     0
179
     0
273
     0
  0
XRECORD
  5
32C
102
{ACAD_REACTORS
330
32A
102
}
330
32A
100
AcDbXrecord
280
     1
270
     1
271
     1
  0
XRECORD
  5
32B
102
{ACAD_REACTORS
330
32A
102
}
330
32A
100
AcDbXrecord
280
     1
270
     1
271
     1
  0
XRECORD
  5
32F
102
{ACAD_REACTORS
330
32A
102
}
330
32A
100
AcDbXrecord
280
     1
270
     1
271
     1
  0
XRECORD
  5
32E
102
{ACAD_REACTORS
330
32A
102
}
330
32A
100
AcDbXrecord
280
     1
270
     1
271
     1
  0
XRECORD
  5
330
102
{ACAD_REACTORS
330
32A
102
}
330
32A
100
AcDbXrecord
280
     1
270
     1
271
     1
  0
XRECORD
  5
32D
102
{ACAD_REACTORS
330
32A
102
}
330
32A
100
AcDbXrecord
280
     1
270
     1
271
     1
  0
XRECORD
  5
492
102
{ACAD_REACTORS
330
322
102
}
330
322
100
AcDbXrecord
280
     1
102
MATERIAL
148
0.0
149
0.0
149
0.0
 93
        0
 94
      127
282
     0
 72
     0
 77
     0
171
     0
175
     0
179
     0
273
     0
  0
XRECORD
  5
324
102
{ACAD_REACTORS
330
322
102
}
330
322
100
AcDbXrecord
280
     1
270
     1
271
     1
  0
XRECORD
  5
323
102
{ACAD_REACTORS
330
322
102
}
330
322
100
AcDbXrecord
280
     1
270
     1
271
     1
  0
XRECORD
  5
327
102
{ACAD_REACTORS
330
322
102
}
330
322
100
AcDbXrecord
280
     1
270
     1
271
     1
  0
XRECORD
  5
326
102
{ACAD_REACTORS
330
322
102
}
330
322
100
AcDbXrecord
280
     1
270
     1
271
     1
  0
XRECORD
  5
328
102
{ACAD_REACTORS
330
322
102
}
330
322
100
AcDbXrecord
280
     1
270
     1
271
     1
  0
XRECORD
  5
325
102
{ACAD_REACTORS
330
322
102
}
330
322
100
AcDbXrecord
280
     1
270
     1
271
     1
  0
XRECORD
  5
494
102
{ACAD_REACTORS
330
332
102
}
330
332
100
AcDbXrecord
280
     1
102
MATERIAL
148
0.0
149
0.0
149
0.0
 93
        0
 94
      127
282
     0
 72
     0
 77
     0
171
     0
175
     0
179
     0
273
     0
  0
XRECORD
  5
334
102
{ACAD_REACTORS
330
332
102
}
330
332
100
AcDbXrecord
280
     1
270
     1
271
     1
  0
XRECORD
  5
333
102
{ACAD_REACTORS
330
332
102
}
330
332
100
AcDbXrecord
280
     1
270
     1
271
     1
  0
XRECORD
  5
337
102
{ACAD_REACTORS
330
332
102
}
330
332
100
AcDbXrecord
280
     1
270
     1
271
     1
  0
XRECORD
  5
336
102
{ACAD_REACTORS
330
332
102
}
330
332
100
AcDbXrecord
280
     1
270
     1
271
     1
  0
XRECORD
  5
338
102
{ACAD_REACTORS
330
332
102
}
330
332
100
AcDbXrecord
280
     1
270
     1
271
     1
  0
XRECORD
  5
335
102
{ACAD_REACTORS
330
332
102
}
330
332
100
AcDbXrecord
280
     1
270
     1
271
     1
  0
CELLSTYLEMAP
  5
2E55
102
{ACAD_REACTORS
330
48A
102
}
330
48A
100
AcDbCellStyleMap
 90
        3
300
CELLSTYLE
  1
TABLEFORMAT_BEGIN
 90
        5
170
     1
 91
        0
 92
    32768
 62
   257
 93
        1
300
CONTENTFORMAT
  1
CONTENTFORMAT_BEGIN
 90
        0
 91
        0
 92
      512
 93
        0
300

 40
0.0
140
1.0
 94
        5
 62
     0
340
1AD
144
0.25
309
CONTENTFORMAT_END
171
     1
301
MARGIN
  1
CELLMARGIN_BEGIN
 40
0.06
 40
0.06
 40
0.06
 40
0.06
 40
0.18
 40
0.18
309
CELLMARGIN_END
 94
        6
 95
        1
302
GRIDFORMAT
  1
GRIDFORMAT_BEGIN
 90
        0
 91
        1
 62
     0
 92
       -2
340
0
 93
        0
 40
0.045
309
GRIDFORMAT_END
 95
        2
302
GRIDFORMAT
  1
GRIDFORMAT_BEGIN
 90
        0
 91
        1
 62
     0
 92
       -2
340
0
 93
        0
 40
0.045
309
GRIDFORMAT_END
 95
        4
302
GRIDFORMAT
  1
GRIDFORMAT_BEGIN
 90
        0
 91
        1
 62
     0
 92
       -2
340
0
 93
        0
 40
0.045
309
GRIDFORMAT_END
 95
        8
302
GRIDFORMAT
  1
GRIDFORMAT_BEGIN
 90
        0
 91
        1
 62
     0
 92
       -2
340
0
 93
        0
 40
0.045
309
GRIDFORMAT_END
 95
       16
302
GRIDFORMAT
  1
GRIDFORMAT_BEGIN
 90
        0
 91
        1
 62
     0
 92
       -2
340
0
 93
        0
 40
0.045
309
GRIDFORMAT_END
 95
       32
302
GRIDFORMAT
  1
GRIDFORMAT_BEGIN
 90
        0
 91
        1
 62
     0
 92
       -2
340
0
 93
        0
 40
0.045
309
GRIDFORMAT_END
309
TABLEFORMAT_END
  1
CELLSTYLE_BEGIN
 90
        1
 91
        1
300
_TITLE
309
CELLSTYLE_END
300
CELLSTYLE
  1
TABLEFORMAT_BEGIN
 90
        5
170
     1
 91
        0
 92
        0
 62
   257
 93
        1
300
CONTENTFORMAT
  1
CONTENTFORMAT_BEGIN
 90
        0
 91
        0
 92
      512
 93
        0
300

 40
0.0
140
1.0
 94
        5
 62
     0
340
1AD
144
0.18
309
CONTENTFORMAT_END
171
     1
301
MARGIN
  1
CELLMARGIN_BEGIN
 40
0.06
 40
0.06
 40
0.06
 40
0.06
 40
0.18
 40
0.18
309
CELLMARGIN_END
 94
        6
 95
        1
302
GRIDFORMAT
  1
GRIDFORMAT_BEGIN
 90
        0
 91
        1
 62
     0
 92
       -2
340
0
 93
        0
 40
0.045
309
GRIDFORMAT_END
 95
        2
302
GRIDFORMAT
  1
GRIDFORMAT_BEGIN
 90
        0
 91
        1
 62
     0
 92
       -2
340
0
 93
        0
 40
0.045
309
GRIDFORMAT_END
 95
        4
302
GRIDFORMAT
  1
GRIDFORMAT_BEGIN
 90
        0
 91
        1
 62
     0
 92
       -2
340
0
 93
        0
 40
0.045
309
GRIDFORMAT_END
 95
        8
302
GRIDFORMAT
  1
GRIDFORMAT_BEGIN
 90
        0
 91
        1
 62
     0
 92
       -2
340
0
 93
        0
 40
0.045
309
GRIDFORMAT_END
 95
       16
302
GRIDFORMAT
  1
GRIDFORMAT_BEGIN
 90
        0
 91
        1
 62
     0
 92
       -2
340
0
 93
        0
 40
0.045
309
GRIDFORMAT_END
 95
       32
302
GRIDFORMAT
  1
GRIDFORMAT_BEGIN
 90
        0
 91
        1
 62
     0
 92
       -2
340
0
 93
        0
 40
0.045
309
GRIDFORMAT_END
309
TABLEFORMAT_END
  1
CELLSTYLE_BEGIN
 90
        2
 91
        1
300
_HEADER
309
CELLSTYLE_END
300
CELLSTYLE
  1
TABLEFORMAT_BEGIN
 90
        5
170
     1
 91
        0
 92
        0
 62
   257
 93
        1
300
CONTENTFORMAT
  1
CONTENTFORMAT_BEGIN
 90
        0
 91
        0
 92
      512
 93
        0
300

 40
0.0
140
1.0
 94
        2
 62
     0
340
1AD
144
0.18
309
CONTENTFORMAT_END
171
     1
301
MARGIN
  1
CELLMARGIN_BEGIN
 40
0.06
 40
0.06
 40
0.06
 40
0.06
 40
0.18
 40
0.18
309
CELLMARGIN_END
 94
        6
 95
        1
302
GRIDFORMAT
  1
GRIDFORMAT_BEGIN
 90
        0
 91
        1
 62
     0
 92
       -2
340
0
 93
        0
 40
0.045
309
GRIDFORMAT_END
 95
        2
302
GRIDFORMAT
  1
GRIDFORMAT_BEGIN
 90
        0
 91
        1
 62
     0
 92
       -2
340
0
 93
        0
 40
0.045
309
GRIDFORMAT_END
 95
        4
302
GRIDFORMAT
  1
GRIDFORMAT_BEGIN
 90
        0
 91
        1
 62
     0
 92
       -2
340
0
 93
        0
 40
0.045
309
GRIDFORMAT_END
 95
        8
302
GRIDFORMAT
  1
GRIDFORMAT_BEGIN
 90
        0
 91
        1
 62
     0
 92
       -2
340
0
 93
        0
 40
0.045
309
GRIDFORMAT_END
 95
       16
302
GRIDFORMAT
  1
GRIDFORMAT_BEGIN
 90
        0
 91
        1
 62
     0
 92
       -2
340
0
 93
        0
 40
0.045
309
GRIDFORMAT_END
 95
       32
302
GRIDFORMAT
  1
GRIDFORMAT_BEGIN
 90
        0
 91
        1
 62
     0
 92
       -2
340
0
 93
        0
 40
0.045
309
GRIDFORMAT_END
309
TABLEFORMAT_END
  1
CELLSTYLE_BEGIN
 90
        3
 91
        2
300
_DATA
309
CELLSTYLE_END
  0
XRECORD
  5
2E5C
102
{ACAD_REACTORS
330
48A
102
}
330
48A
100
AcDbXrecord
280
     1
102
ACAD_ROUNDTRIP_PRE2007_TABLESTYLE
 90
      512
 91
        0
  1

 92
      512
 93
        0
  2

 94
      512
 95
        0
  3

  0
XRECORD
  5
2E1D
102
{ACAD_REACTORS
330
2E1C
102
}
330
2E1C
100
AcDbXrecord
280
     1
102
RTVSPropertyOp28
 70
     1
102
RTVSPropertyOp29
 70
     1
102
RTVSPropertyOp30
 70
     1
102
RTVSPropertyOp31
 70
     1
102
RTVSPropertyOp32
 70
     1
102
RTVSPropertyOp0
 70
     1
102
RTVSPropertyOp1
 70
     1
102
RTVSPropertyOp2
 70
     1
102
RTVSPropertyOp3
 70
     1
102
RTVSPropertyOp4
 70
     1
102
RTVSPropertyOp5
 70
     1
102
RTVSPropertyOp6
 70
     1
102
RTVSPropertyOp7
 70
     1
102
RTVSPropertyOp8
 70
     1
102
RTVSPropertyOp9
 70
     1
102
RTVSPropertyOp10
 70
     1
102
RTVSPropertyOp11
 70
     1
102
RTVSPropertyOp12
 70
     1
102
RTVSPropertyOp13
 70
     1
102
RTVSPropertyOp14
 70
     1
102
RTVSPropertyOp15
 70
     1
102
RTVSPropertyOp16
 70
     1
102
RTVSPropertyOp17
 70
     1
102
RTVSPropertyOp18
 70
     1
102
RTVSPropertyOp19
 70
     1
102
RTVSPropertyOp20
 70
     1
102
RTVSPropertyOp21
 70
     1
102
RTVSPropertyOp22
 70
     1
102
RTVSPropertyOp23
 70
     1
102
RTVSPropertyOp24
 70
     1
102
RTVSPropertyOp25
 70
     1
102
RTVSPropertyOp26
 70
     1
102
RTVSPropertyOp27
 70
     1
  0
XRECORD
  5
2E60
102
{ACAD_REACTORS
330
2E5F
102
}
330
2E5F
100
AcDbXrecord
280
     1
102
RTVSPropertyOp0
 70
     1
102
RTVSPropertyOp1
 70
     1
102
RTVSPropertyOp2
 70
     1
102
RTVSPropertyOp3
 70
     1
102
RTVSPropertyOp4
 70
     1
102
RTVSPropertyOp5
 70
     1
102
RTVSPropertyOp6
 70
     1
102
RTVSPropertyOp7
 70
     1
102
RTVSPropertyOp8
 70
     1
102
RTVSPropertyOp9
 70
     1
102
RTVSPropertyOp10
 70
     1
102
RTVSPropertyOp11
 70
     1
102
RTVSPropertyOp12
 70
     1
102
RTVSPropertyOp13
 70
     1
102
RTVSPropertyOp14
 70
     1
102
RTVSPropertyOp15
 70
     1
102
RTVSPropertyOp16
 70
     1
102
RTVSPropertyOp17
 70
     1
102
RTVSPropertyOp18
 70
     1
102
RTVSPropertyOp19
 70
     1
102
RTVSPropertyOp20
 70
     1
102
RTVSPropertyOp21
 70
     1
102
RTVSPropertyOp22
 70
     1
102
RTVSPropertyOp23
 70
     1
102
RTVSPropertyOp24
 70
     1
102
RTVSPropertyOp25
 70
     1
102
RTVSPropertyOp26
 70
     1
102
RTVSPropertyOp27
 70
     1
  0
XRECORD
  5
2E5E
102
{ACAD_REACTORS
330
2E5D
102
}
330
2E5D
100
AcDbXrecord
280
     1
102
RTVSPropertyOp0
 70
     1
102
RTVSPropertyOp1
 70
     1
102
RTVSPropertyOp2
 70
     1
102
RTVSPropertyOp3
 70
     1
102
RTVSPropertyOp4
 70
     1
102
RTVSPropertyOp5
 70
     1
102
RTVSPropertyOp6
 70
     1
102
RTVSPropertyOp7
 70
     1
102
RTVSPropertyOp8
 70
     1
102
RTVSPropertyOp9
 70
     1
102
RTVSPropertyOp10
 70
     1
102
RTVSPropertyOp11
 70
     1
102
RTVSPropertyOp12
 70
     1
102
RTVSPropertyOp13
 70
     1
102
RTVSPropertyOp14
 70
     1
102
RTVSPropertyOp15
 70
     1
102
RTVSPropertyOp16
 70
     1
102
RTVSPropertyOp17
 70
     1
102
RTVSPropertyOp18
 70
     1
102
RTVSPropertyOp19
 70
     1
102
RTVSPropertyOp20
 70
     1
102
RTVSPropertyOp21
 70
     1
102
RTVSPropertyOp22
 70
     1
102
RTVSPropertyOp23
 70
     1
102
RTVSPropertyOp24
 70
     1
102
RTVSPropertyOp25
 70
     1
102
RTVSPropertyOp26
 70
     1
102
RTVSPropertyOp27
 70
     1
  0
XRECORD
  5
2E1B
102
{ACAD_REACTORS
330
2E1A
102
}
330
2E1A
100
AcDbXrecord
280
     1
102
RTVSPropertyOp28
 70
     1
102
RTVSPropertyOp29
 70
     1
102
RTVSPropertyOp30
 70
     1
102
RTVSPropertyOp31
 70
     1
102
RTVSPropertyOp32
 70
     1
102
RTVSPropertyOp0
 70
     1
102
RTVSPropertyOp1
 70
     1
102
RTVSPropertyOp2
 70
     1
102
RTVSPropertyOp3
 70
     1
102
RTVSPropertyOp4
 70
     1
102
RTVSPropertyOp5
 70
     1
102
RTVSPropertyOp6
 70
     1
102
RTVSPropertyOp7
 70
     1
102
RTVSPropertyOp8
 70
     1
102
RTVSPropertyOp9
 70
     1
102
RTVSPropertyOp10
 70
     1
102
RTVSPropertyOp11
 70
     1
102
RTVSPropertyOp12
 70
     1
102
RTVSPropertyOp13
 70
     1
102
RTVSPropertyOp14
 70
     1
102
RTVSPropertyOp15
 70
     1
102
RTVSPropertyOp16
 70
     1
102
RTVSPropertyOp17
 70
     1
102
RTVSPropertyOp18
 70
     1
102
RTVSPropertyOp19
 70
     1
102
RTVSPropertyOp20
 70
     1
102
RTVSPropertyOp21
 70
     1
102
RTVSPropertyOp22
 70
     1
102
RTVSPropertyOp23
 70
     1
102
RTVSPropertyOp24
 70
     1
102
RTVSPropertyOp25
 70
     1
102
RTVSPropertyOp26
 70
     1
102
RTVSPropertyOp27
 70
     1
  0
XRECORD
  5
2E29
102
{ACAD_REACTORS
330
2E28
102
}
330
2E28
100
AcDbXrecord
280
     1
102
RTVSPropertyOp28
 70
     1
102
RTVSPropertyOp29
 70
     1
102
RTVSPropertyOp30
 70
     1
102
RTVSPropertyOp31
 70
     1
102
RTVSPropertyOp32
 70
     1
102
RTVSPropertyOp0
 70
     1
102
RTVSPropertyOp1
 70
     1
102
RTVSPropertyOp2
 70
     1
102
RTVSPropertyOp3
 70
     1
102
RTVSPropertyOp4
 70
     1
102
RTVSPropertyOp5
 70
     1
102
RTVSPropertyOp6
 70
     1
102
RTVSPropertyOp7
 70
     1
102
RTVSPropertyOp8
 70
     1
102
RTVSPropertyOp9
 70
     1
102
RTVSPropertyOp10
 70
     1
102
RTVSPropertyOp11
 70
     1
102
RTVSPropertyOp12
 70
     1
102
RTVSPropertyOp13
 70
     1
102
RTVSPropertyOp14
 70
     1
102
RTVSPropertyOp15
 70
     1
102
RTVSPropertyOp16
 70
     1
102
RTVSPropertyOp17
 70
     1
102
RTVSPropertyOp18
 70
     1
102
RTVSPropertyOp19
 70
     1
102
RTVSPropertyOp20
 70
     1
102
RTVSPropertyOp21
 70
     1
102
RTVSPropertyOp22
 70
     1
102
RTVSPropertyOp23
 70
     1
102
RTVSPropertyOp24
 70
     1
102
RTVSPropertyOp25
 70
     1
102
RTVSPropertyOp26
 70
     1
102
RTVSPropertyOp27
 70
     1
  0
XRECORD
  5
2E31
102
{ACAD_REACTORS
330
2E30
102
}
330
2E30
100
AcDbXrecord
280
     1
102
RTVSPropertyOp28
 70
     1
102
RTVSPropertyOp29
 70
     1
102
RTVSPropertyOp30
 70
     1
102
RTVSPropertyOp31
 70
     1
102
RTVSPropertyOp32
 70
     1
102
RTVSPropertyOp0
 70
     1
102
RTVSPropertyOp1
 70
     1
102
RTVSPropertyOp2
 70
     1
102
RTVSPropertyOp3
 70
     1
102
RTVSPropertyOp4
 70
     1
102
RTVSPropertyOp5
 70
     1
102
RTVSPropertyOp6
 70
     1
102
RTVSPropertyOp7
 70
     1
102
RTVSPropertyOp8
 70
     1
102
RTVSPropertyOp9
 70
     1
102
RTVSPropertyOp10
 70
     1
102
RTVSPropertyOp11
 70
     1
102
RTVSPropertyOp12
 70
     1
102
RTVSPropertyOp13
 70
     1
102
RTVSPropertyOp14
 70
     1
102
RTVSPropertyOp15
 70
     1
102
RTVSPropertyOp16
 70
     1
102
RTVSPropertyOp17
 70
     1
102
RTVSPropertyOp18
 70
     1
102
RTVSPropertyOp19
 70
     1
102
RTVSPropertyOp20
 70
     1
102
RTVSPropertyOp21
 70
     1
102
RTVSPropertyOp22
 70
     1
102
RTVSPropertyOp23
 70
     1
102
RTVSPropertyOp24
 70
     1
102
RTVSPropertyOp25
 70
     1
102
RTVSPropertyOp26
 70
     1
102
RTVSPropertyOp27
 70
     1
  0
XRECORD
  5
2E23
102
{ACAD_REACTORS
330
2E22
102
}
330
2E22
100
AcDbXrecord
280
     1
102
RTVSPropertyOp28
 70
     1
102
RTVSPropertyOp29
 70
     1
102
RTVSPropertyOp30
 70
     1
102
RTVSPropertyOp31
 70
     1
102
RTVSPropertyOp32
 70
     1
102
RTVSPropertyOp0
 70
     1
102
RTVSPropertyOp1
 70
     1
102
RTVSPropertyOp2
 70
     1
102
RTVSPropertyOp3
 70
     1
102
RTVSPropertyOp4
 70
     1
102
RTVSPropertyOp5
 70
     1
102
RTVSPropertyOp6
 70
     1
102
RTVSPropertyOp7
 70
     1
102
RTVSPropertyOp8
 70
     1
102
RTVSPropertyOp9
 70
     1
102
RTVSPropertyOp10
 70
     1
102
RTVSPropertyOp11
 70
     1
102
RTVSPropertyOp12
 70
     1
102
RTVSPropertyOp13
 70
     1
102
RTVSPropertyOp14
 70
     1
102
RTVSPropertyOp15
 70
     1
102
RTVSPropertyOp16
 70
     1
102
RTVSPropertyOp17
 70
     1
102
RTVSPropertyOp18
 70
     1
102
RTVSPropertyOp19
 70
     1
102
RTVSPropertyOp20
 70
     1
102
RTVSPropertyOp21
 70
     1
102
RTVSPropertyOp22
 70
     1
102
RTVSPropertyOp23
 70
     1
102
RTVSPropertyOp24
 70
     1
102
RTVSPropertyOp25
 70
     1
102
RTVSPropertyOp26
 70
     1
102
RTVSPropertyOp27
 70
     1
  0
XRECORD
  5
2E27
102
{ACAD_REACTORS
330
2E26
102
}
330
2E26
100
AcDbXrecord
280
     1
102
RTVSPropertyOp28
 70
     1
102
RTVSPropertyOp29
 70
     1
102
RTVSPropertyOp30
 70
     1
102
RTVSPropertyOp31
 70
     1
102
RTVSPropertyOp32
 70
     1
102
RTVSPropertyOp0
 70
     1
102
RTVSPropertyOp1
 70
     1
102
RTVSPropertyOp2
 70
     1
102
RTVSPropertyOp3
 70
     1
102
RTVSPropertyOp4
 70
     1
102
RTVSPropertyOp5
 70
     1
102
RTVSPropertyOp6
 70
     1
102
RTVSPropertyOp7
 70
     1
102
RTVSPropertyOp8
 70
     1
102
RTVSPropertyOp9
 70
     1
102
RTVSPropertyOp10
 70
     1
102
RTVSPropertyOp11
 70
     1
102
RTVSPropertyOp12
 70
     1
102
RTVSPropertyOp13
 70
     1
102
RTVSPropertyOp14
 70
     1
102
RTVSPropertyOp15
 70
     1
102
RTVSPropertyOp16
 70
     1
102
RTVSPropertyOp17
 70
     1
102
RTVSPropertyOp18
 70
     1
102
RTVSPropertyOp19
 70
     1
102
RTVSPropertyOp20
 70
     1
102
RTVSPropertyOp21
 70
     1
102
RTVSPropertyOp22
 70
     1
102
RTVSPropertyOp23
 70
     1
102
RTVSPropertyOp24
 70
     1
102
RTVSPropertyOp25
 70
     1
102
RTVSPropertyOp26
 70
     1
102
RTVSPropertyOp27
 70
     1
  0
XRECORD
  5
2E41
102
{ACAD_REACTORS
330
2E40
102
}
330
2E40
100
AcDbXrecord
280
     1
102
RTVSPropertyOp28
 70
     0
102
RTVSPropertyOp29
 70
     0
102
RTVSPropertyOp30
 70
     0
102
RTVSPropertyOp31
 70
     0
102
RTVSPropertyOp32
 70
     0
102
RTVSPropertyOp0
 70
     0
102
RTVSPropertyOp1
 70
     0
102
RTVSPropertyOp2
 70
     0
102
RTVSPropertyOp3
 70
     0
102
RTVSPropertyOp4
 70
     0
102
RTVSPropertyOp5
 70
     0
102
RTVSPropertyOp6
 70
     0
102
RTVSPropertyOp7
 70
     0
102
RTVSPropertyOp8
 70
     0
102
RTVSPropertyOp9
 70
     0
102
RTVSPropertyOp10
 70
     0
102
RTVSPropertyOp11
 70
     0
102
RTVSPropertyOp12
 70
     0
102
RTVSPropertyOp13
 70
     0
102
RTVSPropertyOp14
 70
     2
102
RTVSPropertyOp15
 70
     0
102
RTVSPropertyOp16
 70
     0
102
RTVSPropertyOp17
 70
     0
102
RTVSPropertyOp18
 70
     0
102
RTVSPropertyOp19
 70
     0
102
RTVSPropertyOp20
 70
     0
102
RTVSPropertyOp21
 70
     0
102
RTVSPropertyOp22
 70
     0
102
RTVSPropertyOp23
 70
     0
102
RTVSPropertyOp24
 70
     0
102
RTVSPropertyOp25
 70
     0
102
RTVSPropertyOp26
 70
     0
102
RTVSPropertyOp27
 70
     0
  0
XRECORD
  5
2E2F
102
{ACAD_REACTORS
330
2E2E
102
}
330
2E2E
100
AcDbXrecord
280
     1
102
RTVSPropertyOp28
 70
     1
102
RTVSPropertyOp29
 70
     1
102
RTVSPropertyOp30
 70
     1
102
RTVSPropertyOp31
 70
     1
102
RTVSPropertyOp32
 70
     1
102
RTVSPropertyOp0
 70
     1
102
RTVSPropertyOp1
 70
     1
102
RTVSPropertyOp2
 70
     1
102
RTVSPropertyOp3
 70
     1
102
RTVSPropertyOp4
 70
     1
102
RTVSPropertyOp5
 70
     1
102
RTVSPropertyOp6
 70
     1
102
RTVSPropertyOp7
 70
     1
102
RTVSPropertyOp8
 70
     1
102
RTVSPropertyOp9
 70
     1
102
RTVSPropertyOp10
 70
     1
102
RTVSPropertyOp11
 70
     1
102
RTVSPropertyOp12
 70
     1
102
RTVSPropertyOp13
 70
     1
102
RTVSPropertyOp14
 70
     1
102
RTVSPropertyOp15
 70
     1
102
RTVSPropertyOp16
 70
     1
102
RTVSPropertyOp17
 70
     1
102
RTVSPropertyOp18
 70
     1
102
RTVSPropertyOp19
 70
     1
102
RTVSPropertyOp20
 70
     1
102
RTVSPropertyOp21
 70
     1
102
RTVSPropertyOp22
 70
     1
102
RTVSPropertyOp23
 70
     1
102
RTVSPropertyOp24
 70
     1
102
RTVSPropertyOp25
 70
     1
102
RTVSPropertyOp26
 70
     1
102
RTVSPropertyOp27
 70
     1
  0
XRECORD
  5
2E13
102
{ACAD_REACTORS
330
2E12
102
}
330
2E12
100
AcDbXrecord
280
     1
102
RTVSPropertyOp28
 70
     1
102
RTVSPropertyOp29
 70
     1
102
RTVSPropertyOp30
 70
     1
102
RTVSPropertyOp31
 70
     1
102
RTVSPropertyOp32
 70
     1
102
RTVSPropertyOp0
 70
     1
102
RTVSPropertyOp1
 70
     1
102
RTVSPropertyOp2
 70
     1
102
RTVSPropertyOp3
 70
     1
102
RTVSPropertyOp4
 70
     1
102
RTVSPropertyOp5
 70
     1
102
RTVSPropertyOp6
 70
     1
102
RTVSPropertyOp7
 70
     1
102
RTVSPropertyOp8
 70
     1
102
RTVSPropertyOp9
 70
     1
102
RTVSPropertyOp10
 70
     1
102
RTVSPropertyOp11
 70
     1
102
RTVSPropertyOp12
 70
     1
102
RTVSPropertyOp13
 70
     1
102
RTVSPropertyOp14
 70
     1
102
RTVSPropertyOp15
 70
     1
102
RTVSPropertyOp16
 70
     1
102
RTVSPropertyOp17
 70
     1
102
RTVSPropertyOp18
 70
     1
102
RTVSPropertyOp19
 70
     1
102
RTVSPropertyOp20
 70
     1
102
RTVSPropertyOp21
 70
     1
102
RTVSPropertyOp22
 70
     1
102
RTVSPropertyOp23
 70
     1
102
RTVSPropertyOp24
 70
     1
102
RTVSPropertyOp25
 70
     1
102
RTVSPropertyOp26
 70
     1
102
RTVSPropertyOp27
 70
     1
  0
XRECORD
  5
2E15
102
{ACAD_REACTORS
330
2E14
102
}
330
2E14
100
AcDbXrecord
280
     1
102
RTVSPropertyOp28
 70
     1
102
RTVSPropertyOp29
 70
     1
102
RTVSPropertyOp30
 70
     1
102
RTVSPropertyOp31
 70
     1
102
RTVSPropertyOp32
 70
     1
102
RTVSPropertyOp0
 70
     1
102
RTVSPropertyOp1
 70
     1
102
RTVSPropertyOp2
 70
     1
102
RTVSPropertyOp3
 70
     1
102
RTVSPropertyOp4
 70
     1
102
RTVSPropertyOp5
 70
     1
102
RTVSPropertyOp6
 70
     1
102
RTVSPropertyOp7
 70
     1
102
RTVSPropertyOp8
 70
     1
102
RTVSPropertyOp9
 70
     1
102
RTVSPropertyOp10
 70
     1
102
RTVSPropertyOp11
 70
     1
102
RTVSPropertyOp12
 70
     1
102
RTVSPropertyOp13
 70
     1
102
RTVSPropertyOp14
 70
     1
102
RTVSPropertyOp15
 70
     1
102
RTVSPropertyOp16
 70
     1
102
RTVSPropertyOp17
 70
     1
102
RTVSPropertyOp18
 70
     1
102
RTVSPropertyOp19
 70
     1
102
RTVSPropertyOp20
 70
     1
102
RTVSPropertyOp21
 70
     1
102
RTVSPropertyOp22
 70
     1
102
RTVSPropertyOp23
 70
     1
102
RTVSPropertyOp24
 70
     1
102
RTVSPropertyOp25
 70
     1
102
RTVSPropertyOp26
 70
     1
102
RTVSPropertyOp27
 70
     1
  0
XRECORD
  5
2E17
102
{ACAD_REACTORS
330
2E16
102
}
330
2E16
100
AcDbXrecord
280
     1
102
RTVSPropertyOp28
 70
     1
102
RTVSPropertyOp29
 70
     1
102
RTVSPropertyOp30
 70
     1
102
RTVSPropertyOp31
 70
     1
102
RTVSPropertyOp32
 70
     1
102
RTVSPropertyOp0
 70
     1
102
RTVSPropertyOp1
 70
     1
102
RTVSPropertyOp2
 70
     1
102
RTVSPropertyOp3
 70
     1
102
RTVSPropertyOp4
 70
     1
102
RTVSPropertyOp5
 70
     1
102
RTVSPropertyOp6
 70
     1
102
RTVSPropertyOp7
 70
     1
102
RTVSPropertyOp8
 70
     1
102
RTVSPropertyOp9
 70
     1
102
RTVSPropertyOp10
 70
     1
102
RTVSPropertyOp11
 70
     1
102
RTVSPropertyOp12
 70
     1
102
RTVSPropertyOp13
 70
     1
102
RTVSPropertyOp14
 70
     1
102
RTVSPropertyOp15
 70
     1
102
RTVSPropertyOp16
 70
     1
102
RTVSPropertyOp17
 70
     1
102
RTVSPropertyOp18
 70
     1
102
RTVSPropertyOp19
 70
     1
102
RTVSPropertyOp20
 70
     1
102
RTVSPropertyOp21
 70
     1
102
RTVSPropertyOp22
 70
     1
102
RTVSPropertyOp23
 70
     1
102
RTVSPropertyOp24
 70
     1
102
RTVSPropertyOp25
 70
     1
102
RTVSPropertyOp26
 70
     1
102
RTVSPropertyOp27
 70
     1
  0
XRECORD
  5
2E19
102
{ACAD_REACTORS
330
2E18
102
}
330
2E18
100
AcDbXrecord
280
     1
102
RTVSPropertyOp28
 70
     1
102
RTVSPropertyOp29
 70
     1
102
RTVSPropertyOp30
 70
     1
102
RTVSPropertyOp31
 70
     1
102
RTVSPropertyOp32
 70
     1
102
RTVSPropertyOp0
 70
     1
102
RTVSPropertyOp1
 70
     1
102
RTVSPropertyOp2
 70
     1
102
RTVSPropertyOp3
 70
     1
102
RTVSPropertyOp4
 70
     1
102
RTVSPropertyOp5
 70
     1
102
RTVSPropertyOp6
 70
     1
102
RTVSPropertyOp7
 70
     1
102
RTVSPropertyOp8
 70
     1
102
RTVSPropertyOp9
 70
     1
102
RTVSPropertyOp10
 70
     1
102
RTVSPropertyOp11
 70
     1
102
RTVSPropertyOp12
 70
     1
102
RTVSPropertyOp13
 70
     1
102
RTVSPropertyOp14
 70
     1
102
RTVSPropertyOp15
 70
     1
102
RTVSPropertyOp16
 70
     1
102
RTVSPropertyOp17
 70
     1
102
RTVSPropertyOp18
 70
     1
102
RTVSPropertyOp19
 70
     1
102
RTVSPropertyOp20
 70
     1
102
RTVSPropertyOp21
 70
     1
102
RTVSPropertyOp22
 70
     1
102
RTVSPropertyOp23
 70
     1
102
RTVSPropertyOp24
 70
     1
102
RTVSPropertyOp25
 70
     1
102
RTVSPropertyOp26
 70
     1
102
RTVSPropertyOp27
 70
     1
  0
XRECORD
  5
2E21
102
{ACAD_REACTORS
330
2E20
102
}
330
2E20
100
AcDbXrecord
280
     1
102
RTVSPropertyOp28
 70
     1
102
RTVSPropertyOp29
 70
     1
102
RTVSPropertyOp30
 70
     1
102
RTVSPropertyOp31
 70
     1
102
RTVSPropertyOp32
 70
     1
102
RTVSPropertyOp0
 70
     1
102
RTVSPropertyOp1
 70
     1
102
RTVSPropertyOp2
 70
     1
102
RTVSPropertyOp3
 70
     1
102
RTVSPropertyOp4
 70
     1
102
RTVSPropertyOp5
 70
     1
102
RTVSPropertyOp6
 70
     1
102
RTVSPropertyOp7
 70
     1
102
RTVSPropertyOp8
 70
     1
102
RTVSPropertyOp9
 70
     1
102
RTVSPropertyOp10
 70
     1
102
RTVSPropertyOp11
 70
     1
102
RTVSPropertyOp12
 70
     1
102
RTVSPropertyOp13
 70
     1
102
RTVSPropertyOp14
 70
     1
102
RTVSPropertyOp15
 70
     1
102
RTVSPropertyOp16
 70
     1
102
RTVSPropertyOp17
 70
     1
102
RTVSPropertyOp18
 70
     1
102
RTVSPropertyOp19
 70
     1
102
RTVSPropertyOp20
 70
     1
102
RTVSPropertyOp21
 70
     1
102
RTVSPropertyOp22
 70
     1
102
RTVSPropertyOp23
 70
     1
102
RTVSPropertyOp24
 70
     1
102
RTVSPropertyOp25
 70
     1
102
RTVSPropertyOp26
 70
     1
102
RTVSPropertyOp27
 70
     1
  0
XRECORD
  5
2E3D
102
{ACAD_REACTORS
330
2E3C
102
}
330
2E3C
100
AcDbXrecord
280
     1
102
RTVSPropertyOp28
 70
     0
102
RTVSPropertyOp29
 70
     0
102
RTVSPropertyOp30
 70
     0
102
RTVSPropertyOp31
 70
     0
102
RTVSPropertyOp32
 70
     0
102
RTVSPropertyOp0
 70
     0
102
RTVSPropertyOp1
 70
     0
102
RTVSPropertyOp2
 70
     0
102
RTVSPropertyOp3
 70
     0
102
RTVSPropertyOp4
 70
     0
102
RTVSPropertyOp5
 70
     0
102
RTVSPropertyOp6
 70
     0
102
RTVSPropertyOp7
 70
     0
102
RTVSPropertyOp8
 70
     0
102
RTVSPropertyOp9
 70
     0
102
RTVSPropertyOp10
 70
     0
102
RTVSPropertyOp11
 70
     0
102
RTVSPropertyOp12
 70
     0
102
RTVSPropertyOp13
 70
     0
102
RTVSPropertyOp14
 70
     2
102
RTVSPropertyOp15
 70
     0
102
RTVSPropertyOp16
 70
     0
102
RTVSPropertyOp17
 70
     0
102
RTVSPropertyOp18
 70
     0
102
RTVSPropertyOp19
 70
     0
102
RTVSPropertyOp20
 70
     0
102
RTVSPropertyOp21
 70
     0
102
RTVSPropertyOp22
 70
     0
102
RTVSPropertyOp23
 70
     0
102
RTVSPropertyOp24
 70
     0
102
RTVSPropertyOp25
 70
     0
102
RTVSPropertyOp26
 70
     0
102
RTVSPropertyOp27
 70
     0
  0
XRECORD
  5
2E2D
102
{ACAD_REACTORS
330
2E2C
102
}
330
2E2C
100
AcDbXrecord
280
     1
102
RTVSPropertyOp28
 70
     1
102
RTVSPropertyOp29
 70
     1
102
RTVSPropertyOp30
 70
     1
102
RTVSPropertyOp31
 70
     1
102
RTVSPropertyOp32
 70
     1
102
RTVSPropertyOp0
 70
     1
102
RTVSPropertyOp1
 70
     1
102
RTVSPropertyOp2
 70
     1
102
RTVSPropertyOp3
 70
     1
102
RTVSPropertyOp4
 70
     1
102
RTVSPropertyOp5
 70
     1
102
RTVSPropertyOp6
 70
     1
102
RTVSPropertyOp7
 70
     1
102
RTVSPropertyOp8
 70
     1
102
RTVSPropertyOp9
 70
     1
102
RTVSPropertyOp10
 70
     1
102
RTVSPropertyOp11
 70
     1
102
RTVSPropertyOp12
 70
     1
102
RTVSPropertyOp13
 70
     1
102
RTVSPropertyOp14
 70
     1
102
RTVSPropertyOp15
 70
     1
102
RTVSPropertyOp16
 70
     1
102
RTVSPropertyOp17
 70
     1
102
RTVSPropertyOp18
 70
     1
102
RTVSPropertyOp19
 70
     1
102
RTVSPropertyOp20
 70
     1
102
RTVSPropertyOp21
 70
     1
102
RTVSPropertyOp22
 70
     1
102
RTVSPropertyOp23
 70
     1
102
RTVSPropertyOp24
 70
     1
102
RTVSPropertyOp25
 70
     1
102
RTVSPropertyOp26
 70
     1
102
RTVSPropertyOp27
 70
     1
  0
XRECORD
  5
2E3F
102
{ACAD_REACTORS
330
2E3E
102
}
330
2E3E
100
AcDbXrecord
280
     1
102
RTVSPropertyOp28
 70
     0
102
RTVSPropertyOp29
 70
     0
102
RTVSPropertyOp30
 70
     0
102
RTVSPropertyOp31
 70
     0
102
RTVSPropertyOp32
 70
     0
102
RTVSPropertyOp0
 70
     0
102
RTVSPropertyOp1
 70
     0
102
RTVSPropertyOp2
 70
     0
102
RTVSPropertyOp3
 70
     0
102
RTVSPropertyOp4
 70
     0
102
RTVSPropertyOp5
 70
     0
102
RTVSPropertyOp6
 70
     0
102
RTVSPropertyOp7
 70
     0
102
RTVSPropertyOp8
 70
     0
102
RTVSPropertyOp9
 70
     0
102
RTVSPropertyOp10
 70
     0
102
RTVSPropertyOp11
 70
     0
102
RTVSPropertyOp12
 70
     0
102
RTVSPropertyOp13
 70
     0
102
RTVSPropertyOp14
 70
     2
102
RTVSPropertyOp15
 70
     0
102
RTVSPropertyOp16
 70
     0
102
RTVSPropertyOp17
 70
     0
102
RTVSPropertyOp18
 70
     0
102
RTVSPropertyOp19
 70
     0
102
RTVSPropertyOp20
 70
     0
102
RTVSPropertyOp21
 70
     0
102
RTVSPropertyOp22
 70
     0
102
RTVSPropertyOp23
 70
     0
102
RTVSPropertyOp24
 70
     0
102
RTVSPropertyOp25
 70
     0
102
RTVSPropertyOp26
 70
     0
102
RTVSPropertyOp27
 70
     0
  0
XRECORD
  5
2E25
102
{ACAD_REACTORS
330
2E24
102
}
330
2E24
100
AcDbXrecord
280
     1
102
RTVSPropertyOp28
 70
     1
102
RTVSPropertyOp29
 70
     1
102
RTVSPropertyOp30
 70
     1
102
RTVSPropertyOp31
 70
     1
102
RTVSPropertyOp32
 70
     1
102
RTVSPropertyOp0
 70
     1
102
RTVSPropertyOp1
 70
     1
102
RTVSPropertyOp2
 70
     1
102
RTVSPropertyOp3
 70
     1
102
RTVSPropertyOp4
 70
     1
102
RTVSPropertyOp5
 70
     1
102
RTVSPropertyOp6
 70
     1
102
RTVSPropertyOp7
 70
     1
102
RTVSPropertyOp8
 70
     1
102
RTVSPropertyOp9
 70
     1
102
RTVSPropertyOp10
 70
     1
102
RTVSPropertyOp11
 70
     1
102
RTVSPropertyOp12
 70
     1
102
RTVSPropertyOp13
 70
     1
102
RTVSPropertyOp14
 70
     1
102
RTVSPropertyOp15
 70
     1
102
RTVSPropertyOp16
 70
     1
102
RTVSPropertyOp17
 70
     1
102
RTVSPropertyOp18
 70
     1
102
RTVSPropertyOp19
 70
     1
102
RTVSPropertyOp20
 70
     1
102
RTVSPropertyOp21
 70
     1
102
RTVSPropertyOp22
 70
     1
102
RTVSPropertyOp23
 70
     1
102
RTVSPropertyOp24
 70
     1
102
RTVSPropertyOp25
 70
     1
102
RTVSPropertyOp26
 70
     1
102
RTVSPropertyOp27
 70
     1
  0
XRECORD
  5
2E3B
102
{ACAD_REACTORS
330
2E3A
102
}
330
2E3A
100
AcDbXrecord
280
     1
102
RTVSPropertyOp28
 70
     1
102
RTVSPropertyOp29
 70
     1
102
RTVSPropertyOp30
 70
     1
102
RTVSPropertyOp31
 70
     1
102
RTVSPropertyOp32
 70
     1
102
RTVSPropertyOp0
 70
     1
102
RTVSPropertyOp1
 70
     1
102
RTVSPropertyOp2
 70
     1
102
RTVSPropertyOp3
 70
     1
102
RTVSPropertyOp4
 70
     1
102
RTVSPropertyOp5
 70
     1
102
RTVSPropertyOp6
 70
     1
102
RTVSPropertyOp7
 70
     1
102
RTVSPropertyOp8
 70
     1
102
RTVSPropertyOp9
 70
     1
102
RTVSPropertyOp10
 70
     1
102
RTVSPropertyOp11
 70
     1
102
RTVSPropertyOp12
 70
     1
102
RTVSPropertyOp13
 70
     1
102
RTVSPropertyOp14
 70
     1
102
RTVSPropertyOp15
 70
     1
102
RTVSPropertyOp16
 70
     1
102
RTVSPropertyOp17
 70
     1
102
RTVSPropertyOp18
 70
     1
102
RTVSPropertyOp19
 70
     1
102
RTVSPropertyOp20
 70
     1
102
RTVSPropertyOp21
 70
     1
102
RTVSPropertyOp22
 70
     1
102
RTVSPropertyOp23
 70
     1
102
RTVSPropertyOp24
 70
     1
102
RTVSPropertyOp25
 70
     1
102
RTVSPropertyOp26
 70
     1
102
RTVSPropertyOp27
 70
     1
  0
XRECORD
  5
2E39
102
{ACAD_REACTORS
330
2E38
102
}
330
2E38
100
AcDbXrecord
280
     1
102
RTVSPropertyOp28
 70
     1
102
RTVSPropertyOp29
 70
     1
102
RTVSPropertyOp30
 70
     1
102
RTVSPropertyOp31
 70
     1
102
RTVSPropertyOp32
 70
     1
102
RTVSPropertyOp0
 70
     1
102
RTVSPropertyOp1
 70
     1
102
RTVSPropertyOp2
 70
     1
102
RTVSPropertyOp3
 70
     1
102
RTVSPropertyOp4
 70
     1
102
RTVSPropertyOp5
 70
     1
102
RTVSPropertyOp6
 70
     1
102
RTVSPropertyOp7
 70
     1
102
RTVSPropertyOp8
 70
     1
102
RTVSPropertyOp9
 70
     1
102
RTVSPropertyOp10
 70
     1
102
RTVSPropertyOp11
 70
     1
102
RTVSPropertyOp12
 70
     1
102
RTVSPropertyOp13
 70
     1
102
RTVSPropertyOp14
 70
     1
102
RTVSPropertyOp15
 70
     1
102
RTVSPropertyOp16
 70
     1
102
RTVSPropertyOp17
 70
     1
102
RTVSPropertyOp18
 70
     1
102
RTVSPropertyOp19
 70
     1
102
RTVSPropertyOp20
 70
     1
102
RTVSPropertyOp21
 70
     1
102
RTVSPropertyOp22
 70
     1
102
RTVSPropertyOp23
 70
     1
102
RTVSPropertyOp24
 70
     1
102
RTVSPropertyOp25
 70
     1
102
RTVSPropertyOp26
 70
     1
102
RTVSPropertyOp27
 70
     1
  0
XRECORD
  5
2E33
102
{ACAD_REACTORS
330
2E32
102
}
330
2E32
100
AcDbXrecord
280
     1
102
RTVSPropertyOp28
 70
     1
102
RTVSPropertyOp29
 70
     1
102
RTVSPropertyOp30
 70
     1
102
RTVSPropertyOp31
 70
     1
102
RTVSPropertyOp32
 70
     1
102
RTVSPropertyOp0
 70
     1
102
RTVSPropertyOp1
 70
     1
102
RTVSPropertyOp2
 70
     1
102
RTVSPropertyOp3
 70
     1
102
RTVSPropertyOp4
 70
     1
102
RTVSPropertyOp5
 70
     1
102
RTVSPropertyOp6
 70
     1
102
RTVSPropertyOp7
 70
     1
102
RTVSPropertyOp8
 70
     1
102
RTVSPropertyOp9
 70
     1
102
RTVSPropertyOp10
 70
     1
102
RTVSPropertyOp11
 70
     1
102
RTVSPropertyOp12
 70
     1
102
RTVSPropertyOp13
 70
     1
102
RTVSPropertyOp14
 70
     1
102
RTVSPropertyOp15
 70
     1
102
RTVSPropertyOp16
 70
     1
102
RTVSPropertyOp17
 70
     1
102
RTVSPropertyOp18
 70
     1
102
RTVSPropertyOp19
 70
     1
102
RTVSPropertyOp20
 70
     1
102
RTVSPropertyOp21
 70
     1
102
RTVSPropertyOp22
 70
     1
102
RTVSPropertyOp23
 70
     1
102
RTVSPropertyOp24
 70
     1
102
RTVSPropertyOp25
 70
     1
102
RTVSPropertyOp26
 70
     1
102
RTVSPropertyOp27
 70
     1
  0
XRECORD
  5
2E35
102
{ACAD_REACTORS
330
2E34
102
}
330
2E34
100
AcDbXrecord
280
     1
102
RTVSPropertyOp28
 70
     1
102
RTVSPropertyOp29
 70
     1
102
RTVSPropertyOp30
 70
     1
102
RTVSPropertyOp31
 70
     1
102
RTVSPropertyOp32
 70
     1
102
RTVSPropertyOp0
 70
     1
102
RTVSPropertyOp1
 70
     1
102
RTVSPropertyOp2
 70
     1
102
RTVSPropertyOp3
 70
     1
102
RTVSPropertyOp4
 70
     1
102
RTVSPropertyOp5
 70
     1
102
RTVSPropertyOp6
 70
     1
102
RTVSPropertyOp7
 70
     1
102
RTVSPropertyOp8
 70
     1
102
RTVSPropertyOp9
 70
     1
102
RTVSPropertyOp10
 70
     1
102
RTVSPropertyOp11
 70
     1
102
RTVSPropertyOp12
 70
     1
102
RTVSPropertyOp13
 70
     1
102
RTVSPropertyOp14
 70
     1
102
RTVSPropertyOp15
 70
     1
102
RTVSPropertyOp16
 70
     1
102
RTVSPropertyOp17
 70
     1
102
RTVSPropertyOp18
 70
     1
102
RTVSPropertyOp19
 70
     1
102
RTVSPropertyOp20
 70
     1
102
RTVSPropertyOp21
 70
     1
102
RTVSPropertyOp22
 70
     1
102
RTVSPropertyOp23
 70
     1
102
RTVSPropertyOp24
 70
     1
102
RTVSPropertyOp25
 70
     1
102
RTVSPropertyOp26
 70
     1
102
RTVSPropertyOp27
 70
     1
  0
XRECORD
  5
2E2B
102
{ACAD_REACTORS
330
2E2A
102
}
330
2E2A
100
AcDbXrecord
280
     1
102
RTVSPropertyOp28
 70
     1
102
RTVSPropertyOp29
 70
     1
102
RTVSPropertyOp30
 70
     1
102
RTVSPropertyOp31
 70
     1
102
RTVSPropertyOp32
 70
     1
102
RTVSPropertyOp0
 70
     1
102
RTVSPropertyOp1
 70
     1
102
RTVSPropertyOp2
 70
     1
102
RTVSPropertyOp3
 70
     1
102
RTVSPropertyOp4
 70
     1
102
RTVSPropertyOp5
 70
     1
102
RTVSPropertyOp6
 70
     1
102
RTVSPropertyOp7
 70
     1
102
RTVSPropertyOp8
 70
     1
102
RTVSPropertyOp9
 70
     1
102
RTVSPropertyOp10
 70
     1
102
RTVSPropertyOp11
 70
     1
102
RTVSPropertyOp12
 70
     1
102
RTVSPropertyOp13
 70
     1
102
RTVSPropertyOp14
 70
     1
102
RTVSPropertyOp15
 70
     1
102
RTVSPropertyOp16
 70
     1
102
RTVSPropertyOp17
 70
     1
102
RTVSPropertyOp18
 70
     1
102
RTVSPropertyOp19
 70
     1
102
RTVSPropertyOp20
 70
     1
102
RTVSPropertyOp21
 70
     1
102
RTVSPropertyOp22
 70
     1
102
RTVSPropertyOp23
 70
     1
102
RTVSPropertyOp24
 70
     1
102
RTVSPropertyOp25
 70
     1
102
RTVSPropertyOp26
 70
     1
102
RTVSPropertyOp27
 70
     1
  0
XRECORD
  5
2E1F
102
{ACAD_REACTORS
330
2E1E
102
}
330
2E1E
100
AcDbXrecord
280
     1
102
RTVSPropertyOp28
 70
     1
102
RTVSPropertyOp29
 70
     1
102
RTVSPropertyOp30
 70
     1
102
RTVSPropertyOp31
 70
     1
102
RTVSPropertyOp32
 70
     1
102
RTVSPropertyOp0
 70
     1
102
RTVSPropertyOp1
 70
     1
102
RTVSPropertyOp2
 70
     1
102
RTVSPropertyOp3
 70
     1
102
RTVSPropertyOp4
 70
     1
102
RTVSPropertyOp5
 70
     1
102
RTVSPropertyOp6
 70
     1
102
RTVSPropertyOp7
 70
     1
102
RTVSPropertyOp8
 70
     1
102
RTVSPropertyOp9
 70
     1
102
RTVSPropertyOp10
 70
     1
102
RTVSPropertyOp11
 70
     1
102
RTVSPropertyOp12
 70
     1
102
RTVSPropertyOp13
 70
     1
102
RTVSPropertyOp14
 70
     1
102
RTVSPropertyOp15
 70
     1
102
RTVSPropertyOp16
 70
     1
102
RTVSPropertyOp17
 70
     1
102
RTVSPropertyOp18
 70
     1
102
RTVSPropertyOp19
 70
     1
102
RTVSPropertyOp20
 70
     1
102
RTVSPropertyOp21
 70
     1
102
RTVSPropertyOp22
 70
     1
102
RTVSPropertyOp23
 70
     1
102
RTVSPropertyOp24
 70
     1
102
RTVSPropertyOp25
 70
     1
102
RTVSPropertyOp26
 70
     1
102
RTVSPropertyOp27
 70
     1
  0
XRECORD
  5
2E37
102
{ACAD_REACTORS
330
2E36
102
}
330
2E36
100
AcDbXrecord
280
     1
102
RTVSPropertyOp28
 70
     1
102
RTVSPropertyOp29
 70
     1
102
RTVSPropertyOp30
 70
     1
102
RTVSPropertyOp31
 70
     1
102
RTVSPropertyOp32
 70
     1
102
RTVSPropertyOp0
 70
     1
102
RTVSPropertyOp1
 70
     1
102
RTVSPropertyOp2
 70
     1
102
RTVSPropertyOp3
 70
     1
102
RTVSPropertyOp4
 70
     1
102
RTVSPropertyOp5
 70
     1
102
RTVSPropertyOp6
 70
     1
102
RTVSPropertyOp7
 70
     1
102
RTVSPropertyOp8
 70
     1
102
RTVSPropertyOp9
 70
     1
102
RTVSPropertyOp10
 70
     1
102
RTVSPropertyOp11
 70
     1
102
RTVSPropertyOp12
 70
     1
102
RTVSPropertyOp13
 70
     1
102
RTVSPropertyOp14
 70
     1
102
RTVSPropertyOp15
 70
     1
102
RTVSPropertyOp16
 70
     1
102
RTVSPropertyOp17
 70
     1
102
RTVSPropertyOp18
 70
     1
102
RTVSPropertyOp19
 70
     1
102
RTVSPropertyOp20
 70
     1
102
RTVSPropertyOp21
 70
     1
102
RTVSPropertyOp22
 70
     1
102
RTVSPropertyOp23
 70
     1
102
RTVSPropertyOp24
 70
     1
102
RTVSPropertyOp25
 70
     1
102
RTVSPropertyOp26
 70
     1
102
RTVSPropertyOp27
 70
     1
  0
ENDSEC
  0
EOF
