  0
SECTION
  2
HEADER
  9
$ACADVER
  1
AC1015
  9
$ACADMAINTVER
 70
    20
  9
$DWGCODEPAGE
  3
ANSI_932
  9
$INSBASE
 10
0.0
 20
0.0
 30
0.0
  9
$EXTMIN
 10
9.999999999999886
 20
-421.1295904676885
 30
0.0
  9
$EXTMAX
 10
698.9208860102444
 20
441.1295904676885
 30
0.0
  9
$LIMMIN
 10
0.0
 20
0.0
  9
$LIMMAX
 10
420.0
 20
297.0
  9
$ORTHOMODE
 70
     0
  9
$REGENMODE
 70
     1
  9
$FILLMODE
 70
     1
  9
$QTEXTMODE
 70
     0
  9
$MIRRTEXT
 70
     1
  9
$LTSCALE
 40
1.0
  9
$ATTMODE
 70
     1
  9
$TEXTSIZE
 40
2.5
  9
$TRACEWID
 40
1.0
  9
$TEXTSTYLE
  7
STANDARD
  9
$CLAYER
  8
1外形線
  9
$CELTYPE
  6
BYLAYER
  9
$CECOLOR
 62
   256
  9
$CELTSCALE
 40
1.0
  9
$DISPSILH
 70
     0
  9
$DIMSCALE
 40
1.0
  9
$DIMASZ
 40
2.5
  9
$DIMEXO
 40
0.625
  9
$DIMDLI
 40
3.75
  9
$DIMRND
 40
0.0
  9
$DIMDLE
 40
0.0
  9
$DIMEXE
 40
1.25
  9
$DIMTP
 40
0.0
  9
$DIMTM
 40
0.0
  9
$DIMTXT
 40
2.5
  9
$DIMCEN
 40
2.5
  9
$DIMTSZ
 40
0.0
  9
$DIMTOL
 70
     0
  9
$DIMLIM
 70
     0
  9
$DIMTIH
 70
     0
  9
$DIMTOH
 70
     0
  9
$DIMSE1
 70
     0
  9
$DIMSE2
 70
     0
  9
$DIMTAD
 70
     1
  9
$DIMZIN
 70
     8
  9
$DIMBLK
  1

  9
$DIMASO
 70
     1
  9
$DIMSHO
 70
     1
  9
$DIMPOST
  1

  9
$DIMAPOST
  1

  9
$DIMALT
 70
     0
  9
$DIMALTD
 70
     3
  9
$DIMALTF
 40
0.03937007874016
  9
$DIMLFAC
 40
1.0
  9
$DIMTOFL
 70
     1
  9
$DIMTVP
 40
0.0
  9
$DIMTIX
 70
     0
  9
$DIMSOXD
 70
     0
  9
$DIMSAH
 70
     0
  9
$DIMBLK1
  1

  9
$DIMBLK2
  1

  9
$DIMSTYLE
  2
ISO-25
  9
$DIMCLRD
 70
     0
  9
$DIMCLRE
 70
     0
  9
$DIMCLRT
 70
     0
  9
$DIMTFAC
 40
1.0
  9
$DIMGAP
 40
0.625
  9
$DIMJUST
 70
     0
  9
$DIMSD1
 70
     0
  9
$DIMSD2
 70
     0
  9
$DIMTOLJ
 70
     1
  9
$DIMTZIN
 70
     0
  9
$DIMALTZ
 70
     0
  9
$DIMALTTZ
 70
     0
  9
$DIMUPT
 70
     0
  9
$DIMDEC
 70
     4
  9
$DIMTDEC
 70
     4
  9
$DIMALTU
 70
     2
  9
$DIMALTTD
 70
     2
  9
$DIMTXSTY
  7
STANDARD
  9
$DIMAUNIT
 70
     0
  9
$DIMADEC
 70
     0
  9
$DIMALTRND
 40
0.0
  9
$DIMAZIN
 70
     0
  9
$DIMDSEP
 70
    46
  9
$DIMATFIT
 70
     3
  9
$DIMFRAC
 70
     0
  9
$DIMLDRBLK
  1

  9
$DIMLUNIT
 70
     2
  9
$DIMLWD
 70
    -2
  9
$DIMLWE
 70
    -2
  9
$DIMTMOVE
 70
     0
  9
$LUNITS
 70
     2
  9
$LUPREC
 70
     4
  9
$SKETCHINC
 40
1.0
  9
$FILLETRAD
 40
0.0
  9
$AUNITS
 70
     0
  9
$AUPREC
 70
     0
  9
$MENU
  1
.
  9
$ELEVATION
 40
0.0
  9
$PELEVATION
 40
0.0
  9
$THICKNESS
 40
0.0
  9
$LIMCHECK
 70
     0
  9
$CHAMFERA
 40
10.0
  9
$CHAMFERB
 40
10.0
  9
$CHAMFERC
 40
0.0
  9
$CHAMFERD
 40
0.0
  9
$SKPOLY
 70
     0
  9
$TDCREATE
 40
2454253.600058947
  9
$TDUCREATE
 40
2454253.225058947
  9
$TDUPDATE
 40
2457872.626188507
  9
$TDUUPDATE
 40
2457872.251188507
  9
$TDINDWG
 40
0.7656721065
  9
$TDUSRTIMER
 40
0.7656692245
  9
$USRTIMER
 70
     1
  9
$ANGBASE
 50
0.0
  9
$ANGDIR
 70
     0
  9
$PDMODE
 70
     0
  9
$PDSIZE
 40
0.0
  9
$PLINEWID
 40
0.0
  9
$SPLFRAME
 70
     0
  9
$SPLINETYPE
 70
     6
  9
$SPLINESEGS
 70
     8
  9
$HANDSEED
  5
1E13
  9
$SURFTAB1
 70
     6
  9
$SURFTAB2
 70
     6
  9
$SURFTYPE
 70
     6
  9
$SURFU
 70
     6
  9
$SURFV
 70
     6
  9
$UCSBASE
  2

  9
$UCSNAME
  2

  9
$UCSORG
 10
0.0
 20
0.0
 30
0.0
  9
$UCSXDIR
 10
1.0
 20
0.0
 30
0.0
  9
$UCSYDIR
 10
0.0
 20
1.0
 30
0.0
  9
$UCSORTHOREF
  2

  9
$UCSORTHOVIEW
 70
     0
  9
$UCSORGTOP
 10
0.0
 20
0.0
 30
0.0
  9
$UCSORGBOTTOM
 10
0.0
 20
0.0
 30
0.0
  9
$UCSORGLEFT
 10
0.0
 20
0.0
 30
0.0
  9
$UCSORGRIGHT
 10
0.0
 20
0.0
 30
0.0
  9
$UCSORGFRONT
 10
0.0
 20
0.0
 30
0.0
  9
$UCSORGBACK
 10
0.0
 20
0.0
 30
0.0
  9
$PUCSBASE
  2

  9
$PUCSNAME
  2

  9
$PUCSORG
 10
0.0
 20
0.0
 30
0.0
  9
$PUCSXDIR
 10
1.0
 20
0.0
 30
0.0
  9
$PUCSYDIR
 10
0.0
 20
1.0
 30
0.0
  9
$PUCSORTHOREF
  2

  9
$PUCSORTHOVIEW
 70
     0
  9
$PUCSORGTOP
 10
0.0
 20
0.0
 30
0.0
  9
$PUCSORGBOTTOM
 10
0.0
 20
0.0
 30
0.0
  9
$PUCSORGLEFT
 10
0.0
 20
0.0
 30
0.0
  9
$PUCSORGRIGHT
 10
0.0
 20
0.0
 30
0.0
  9
$PUCSORGFRONT
 10
0.0
 20
0.0
 30
0.0
  9
$PUCSORGBACK
 10
0.0
 20
0.0
 30
0.0
  9
$USERI1
 70
     0
  9
$USERI2
 70
     0
  9
$USERI3
 70
     0
  9
$USERI4
 70
     0
  9
$USERI5
 70
     0
  9
$USERR1
 40
0.0
  9
$USERR2
 40
0.0
  9
$USERR3
 40
0.0
  9
$USERR4
 40
0.0
  9
$USERR5
 40
0.0
  9
$WORLDVIEW
 70
     1
  9
$SHADEDGE
 70
     3
  9
$SHADEDIF
 70
    70
  9
$TILEMODE
 70
     1
  9
$MAXACTVP
 70
    64
  9
$PINSBASE
 10
0.0
 20
0.0
 30
0.0
  9
$PLIMCHECK
 70
     0
  9
$PEXTMIN
 10
1.000000000000000E+20
 20
1.000000000000000E+20
 30
1.000000000000000E+20
  9
$PEXTMAX
 10
-1.000000000000000E+20
 20
-1.000000000000000E+20
 30
-1.000000000000000E+20
  9
$PLIMMIN
 10
0.0
 20
0.0
  9
$PLIMMAX
 10
420.0
 20
297.0
  9
$UNITMODE
 70
     0
  9
$VISRETAIN
 70
     1
  9
$PLINEGEN
 70
     0
  9
$PSLTSCALE
 70
     1
  9
$TREEDEPTH
 70
  3020
  9
$CMLSTYLE
  2
STANDARD
  9
$CMLJUST
 70
     0
  9
$CMLSCALE
 40
1.0
  9
$PROXYGRAPHICS
 70
     1
  9
$MEASUREMENT
 70
     0
  9
$CELWEIGHT
370
    -1
  9
$ENDCAPS
280
     0
  9
$JOINSTYLE
280
     0
  9
$LWDISPLAY
290
     0
  9
$INSUNITS
 70
     0
  9
$HYPERLINKBASE
  1

  9
$STYLESHEET
  1

  9
$XEDIT
290
     1
  9
$CEPSNTYPE
380
     0
  9
$PSTYLEMODE
290
     1
  9
$FINGERPRINTGUID
  2
{9701605E-5E7C-483F-A483-39AC8EE86D9E}
  9
$VERSIONGUID
  2
{A7B573FC-7E8F-41AA-A89F-4C59ADC253E3}
  9
$EXTNAMES
290
     1
  9
$PSVPSCALE
 40
0.0
  9
$OLESTARTUP
290
     0
  0
ENDSEC
  0
SECTION
  2
CLASSES
  0
CLASS
  1
ACDBDICTIONARYWDFLT
  2
AcDbDictionaryWithDefault
  3
ObjectDBX Classes
 90
        0
280
     0
281
     0
  0
CLASS
  1
ACDBPLACEHOLDER
  2
AcDbPlaceHolder
  3
ObjectDBX Classes
 90
        0
280
     0
281
     0
  0
CLASS
  1
LAYOUT
  2
AcDbLayout
  3
ObjectDBX Classes
 90
        0
280
     0
281
     0
  0
CLASS
  1
DICTIONARYVAR
  2
AcDbDictionaryVar
  3
ObjectDBX Classes
 90
        0
280
     0
281
     0
  0
CLASS
  1
MATERIAL
  2
AcDbMaterial
  3
ObjectDBX Classes
 90
     1153
280
     0
281
     0
  0
CLASS
  1
VISUALSTYLE
  2
AcDbVisualStyle
  3
ObjectDBX Classes
 90
     4095
280
     0
281
     0
  0
CLASS
  1
TABLESTYLE
  2
AcDbTableStyle
  3
ObjectDBX Classes
 90
     4095
280
     0
281
     0
  0
CLASS
  1
SCALE
  2
AcDbScale
  3
ObjectDBX Classes
 90
     1153
280
     0
281
     0
  0
CLASS
  1
MLEADERSTYLE
  2
AcDbMLeaderStyle
  3
ACDB_MLEADERSTYLE_CLASS
 90
     4095
280
     0
281
     0
  0
CLASS
  1
SORTENTSTABLE
  2
AcDbSortentsTable
  3
ObjectDBX Classes
 90
        0
280
     0
281
     0
  0
CLASS
  1
CELLSTYLEMAP
  2
AcDbCellStyleMap
  3
ObjectDBX Classes
 90
     1152
280
     0
281
     0
  0
ENDSEC
  0
SECTION
  2
TABLES
  0
TABLE
  2
VPORT
  5
1430
102
{ACAD_XDICTIONARY
360
1D92
102
}
330
0
100
AcDbSymbolTable
 70
     1
  0
VPORT
  5
1AC5
330
1430
100
AcDbSymbolTableRecord
100
AcDbViewportTableRecord
  2
*ACTIVE
 70
     0
 10
0.0
 20
0.0
 11
1.0
 21
1.0
 12
689.2665384150031
 22
-99.86171257255172
 13
0.0
 23
0.0
 14
10.0
 24
10.0
 15
10.0
 25
10.0
 16
0.0
 26
0.0
 36
1.0
 17
0.0
 27
0.0
 37
0.0
 40
1583.91615270902
 41
2.043092522179974
 42
50.0
 43
0.0
 44
0.0
 50
0.0
 51
0.0
 71
     0
 72
   100
 73
     1
 74
     3
 75
     0
 76
     0
 77
     0
 78
     0
281
     0
 65
     1
110
0.0
120
0.0
130
0.0
111
1.0
121
0.0
131
0.0
112
0.0
122
1.0
132
0.0
 79
     0
146
0.0
  0
ENDTAB
  0
TABLE
  2
LTYPE
  5
142D
330
0
100
AcDbSymbolTable
 70
     1
  0
LTYPE
  5
143B
330
142D
100
AcDbSymbolTableRecord
100
AcDbLinetypeTableRecord
  2
BYBLOCK
 70
     0
  3

 72
    65
 73
     0
 40
0.0
  0
LTYPE
  5
143C
330
142D
100
AcDbSymbolTableRecord
100
AcDbLinetypeTableRecord
  2
BYLAYER
 70
     0
  3

 72
    65
 73
     0
 40
0.0
  0
LTYPE
  5
143D
330
142D
100
AcDbSymbolTableRecord
100
AcDbLinetypeTableRecord
  2
CONTINUOUS
 70
     0
  3
Solid line
 72
    65
 73
     0
 40
0.0
  0
ENDTAB
  0
TABLE
  2
LAYER
  5
142A
102
{ACAD_XDICTIONARY
360
14C4
102
}
330
0
100
AcDbSymbolTable
 70
     5
  0
LAYER
  5
1438
102
{ACAD_XDICTIONARY
360
1D86
102
}
330
142A
100
AcDbSymbolTableRecord
100
AcDbLayerTableRecord
  2
0
 70
     0
 62
     7
  6
CONTINUOUS
370
    -3
390
1437
  0
LAYER
  5
144A
102
{ACAD_XDICTIONARY
360
1D88
102
}
330
142A
100
AcDbSymbolTableRecord
100
AcDbLayerTableRecord
  2
2寸法線
 70
     0
 62
     2
  6
CONTINUOUS
370
    -3
390
1437
  0
LAYER
  5
144C
102
{ACAD_XDICTIONARY
360
1D8A
102
}
330
142A
100
AcDbSymbolTableRecord
100
AcDbLayerTableRecord
  2
1外形線
 70
     0
 62
     3
  6
CONTINUOUS
370
    -3
390
1437
  0
LAYER
  5
144D
330
142A
100
AcDbSymbolTableRecord
100
AcDbLayerTableRecord
  2
DEFPOINTS
 70
     0
 62
     7
  6
CONTINUOUS
290
     0
370
    -3
390
1437
  0
LAYER
  5
1CA4
102
{ACAD_XDICTIONARY
360
1D8C
102
}
330
142A
100
AcDbSymbolTableRecord
100
AcDbLayerTableRecord
  2
3補助線
 70
     0
 62
     4
  6
CONTINUOUS
370
    -3
390
1437
  0
ENDTAB
  0
TABLE
  2
STYLE
  5
142B
330
0
100
AcDbSymbolTable
 70
     2
  0
STYLE
  5
1439
330
142B
100
AcDbSymbolTableRecord
100
AcDbTextStyleTableRecord
  2
STANDARD
 70
     0
 40
0.0
 41
1.0
 50
0.0
 71
     0
 42
2.5
  3
txt
  4

  0
STYLE
  5
144E
330
142B
100
AcDbSymbolTableRecord
100
AcDbTextStyleTableRecord
  2
KANJI
 70
     0
 40
0.0
 41
1.0
 50
0.0
 71
     0
 42
2.0
  3
simplex.shx
  4
bigfont.shx
  0
ENDTAB
  0
TABLE
  2
VIEW
  5
142E
330
0
100
AcDbSymbolTable
 70
     0
  0
ENDTAB
  0
TABLE
  2
UCS
  5
142F
330
0
100
AcDbSymbolTable
 70
     0
  0
ENDTAB
  0
TABLE
  2
APPID
  5
1431
330
0
100
AcDbSymbolTable
 70
     4
  0
APPID
  5
143A
330
1431
100
AcDbSymbolTableRecord
100
AcDbRegAppTableRecord
  2
ACAD
 70
     0
  0
APPID
  5
1C98
330
1431
100
AcDbSymbolTableRecord
100
AcDbRegAppTableRecord
  2
ACAD_EXEMPT_FROM_CAD_STANDARDS
 70
     0
  0
APPID
  5
1D02
330
1431
100
AcDbSymbolTableRecord
100
AcDbRegAppTableRecord
  2
ACAD_DSTYLE_DIMRADIAL_EXTENSION
 70
     0
  0
APPID
  5
1DC8
330
1431
100
AcDbSymbolTableRecord
100
AcDbRegAppTableRecord
  2
ACAD_MLEADERVER
 70
     0
  0
ENDTAB
  0
TABLE
  2
DIMSTYLE
  5
1432
330
0
100
AcDbSymbolTable
 70
     2
100
AcDbDimStyleTable
 71
     1
340
144F
  0
DIMSTYLE
105
144F
330
1432
100
AcDbSymbolTableRecord
100
AcDbDimStyleTableRecord
  2
ISO-25
 70
     0
 41
2.5
 42
0.625
 43
3.75
 44
1.25
 73
     0
 74
     0
 77
     1
 78
     8
140
2.5
141
2.5
143
0.03937007874016
147
0.625
171
     3
172
     1
274
     3
284
     8
285
     8
286
     8
340
1439
  0
DIMSTYLE
105
1450
330
1432
100
AcDbSymbolTableRecord
100
AcDbDimStyleTableRecord
  2
M
 70
     0
 40
0.0
 41
2.0
 42
1.0
 43
0.0
 44
1.0
 73
     0
 74
     0
 77
     1
 78
     8
140
2.5
141
0.0
147
0.5
172
     1
173
     1
274
     3
284
     8
285
     8
286
     8
340
1439
  0
ENDTAB
  0
TABLE
  2
BLOCK_RECORD
  5
1429
330
0
100
AcDbSymbolTable
 70
     3
  0
BLOCK_RECORD
  5
1446
102
{ACAD_XDICTIONARY
360
1A92
102
}
330
1429
100
AcDbSymbolTableRecord
100
AcDbBlockTableRecord
  2
*MODEL_SPACE
340
1B35
  0
BLOCK_RECORD
  5
1442
102
{ACAD_XDICTIONARY
360
1A90
102
}
330
1429
100
AcDbSymbolTableRecord
100
AcDbBlockTableRecord
  2
*PAPER_SPACE
340
1B36
  0
BLOCK_RECORD
  5
1454
330
1429
100
AcDbSymbolTableRecord
100
AcDbBlockTableRecord
  2
$MODEL_SPACE
340
0
  0
BLOCK_RECORD
  5
1456
330
1429
100
AcDbSymbolTableRecord
100
AcDbBlockTableRecord
  2
$PAPER_SPACE
340
0
  0
BLOCK_RECORD
  5
1CA0
330
1429
100
AcDbSymbolTableRecord
100
AcDbBlockTableRecord
  2
2
340
0
  0
ENDTAB
  0
ENDSEC
  0
SECTION
  2
BLOCKS
  0
BLOCK
  5
1447
330
1446
100
AcDbEntity
  8
0
100
AcDbBlockBegin
  2
*MODEL_SPACE
 70
     0
 10
0.0
 20
0.0
 30
0.0
  3
*MODEL_SPACE
  1

  0
ENDBLK
  5
1448
330
1446
100
AcDbEntity
  8
0
100
AcDbBlockEnd
  0
BLOCK
  5
1443
330
1442
100
AcDbEntity
 67
     1
  8
0
100
AcDbBlockBegin
  2
*PAPER_SPACE
 70
     0
 10
0.0
 20
0.0
 30
0.0
  3
*PAPER_SPACE
  1

  0
ENDBLK
  5
1444
330
1442
100
AcDbEntity
 67
     1
  8
0
100
AcDbBlockEnd
  0
BLOCK
  5
1455
330
1454
100
AcDbEntity
  8
0
100
AcDbBlockBegin
  2
$MODEL_SPACE
 70
     0
 10
0.0
 20
0.0
 30
0.0
  3
$MODEL_SPACE
  1

  0
ENDBLK
  5
21
330
1454
100
AcDbEntity
  8
0
100
AcDbBlockEnd
  0
BLOCK
  5
1457
330
1456
100
AcDbEntity
  8
0
100
AcDbBlockBegin
  2
$PAPER_SPACE
 70
     0
 10
0.0
 20
0.0
 30
0.0
  3
$PAPER_SPACE
  1

  0
ENDBLK
  5
1D
330
1456
100
AcDbEntity
  8
0
100
AcDbBlockEnd
  0
BLOCK
  5
1CA1
330
1CA0
100
AcDbEntity
  8
0
 48
3.0
100
AcDbBlockBegin
  2
2
 70
     0
 10
0.0
 20
0.0
 30
0.0
  3
2
  1

  0
HATCH
  5
1CA2
330
1CA0
100
AcDbEntity
  8
0
  6
ByBlock
 62
     0
 48
3.0
100
AcDbHatch
 10
0.0
 20
0.0
 30
0.0
210
0.0
220
0.0
230
1.0
  2
SOLID
 70
     1
 71
     0
 91
        1
 92
        1
 93
        3
 72
     1
 10
-0.9999999999983515
 20
0.2679491924306774
 11
0.0
 21
0.0
 72
     1
 10
0.0
 20
0.0
 11
-0.9999999999983515
 21
-0.2679491924306765
 72
     1
 10
-0.9999999999983524
 20
-0.267949192430676
 11
-0.9999999999983524
 21
0.2679491924306774
 97
        0
 75
     0
 76
     1
 98
        1
 10
2.995745117231336
 20
-4.124946096263201
  0
ENDBLK
  5
1CA3
330
1CA0
100
AcDbEntity
  8
0
 48
3.0
100
AcDbBlockEnd
  0
ENDSEC
  0
SECTION
  2
ENTITIES
  0
LINE
  5
154E
330
1446
100
AcDbEntity
  8
1外形線
 48
3.0
100
AcDbLine
 10
362.4523521309333
 20
133.0512265171595
 30
0.0
 11
362.4523521309352
 21
67.05122651716329
 31
0.0
  0
LINE
  5
154F
330
1446
100
AcDbEntity
  8
1外形線
 48
3.0
100
AcDbLine
 10
365.4523521309333
 20
134.0512265171632
 30
0.0
 11
365.4523521309351
 21
67.05122651716329
 31
0.0
  0
LINE
  5
1550
330
1446
100
AcDbEntity
  8
1外形線
 48
3.0
100
AcDbLine
 10
110.4260044555244
 20
119.9801587052965
 30
0.0
 11
110.4260044555225
 21
67.05122651716329
 31
0.0
  0
LINE
  5
1551
330
1446
100
AcDbEntity
  8
1外形線
 48
3.0
100
AcDbLine
 10
35.42600445552443
 20
119.9801587052965
 30
0.0
 11
35.42600445552261
 21
67.05122651716329
 31
0.0
  0
LINE
  5
1552
330
1446
100
AcDbEntity
  8
1外形線
 48
3.0
100
AcDbLine
 10
454.4523521309351
 20
68.05122651716327
 30
0.0
 11
454.4523521309351
 21
142.051226517163
 31
0.0
  0
LINE
  5
1553
330
1446
100
AcDbEntity
  8
1外形線
 48
3.0
100
AcDbLine
 10
33.42600445552079
 20
141.0512265171669
 30
0.0
 11
33.4260044555226
 21
67.05122651716329
 31
0.0
  0
LINE
  5
1554
330
1446
100
AcDbEntity
  8
1外形線
 48
3.0
100
AcDbLine
 10
112.4260044555244
 20
141.0512265171669
 30
0.0
 11
112.4260044555225
 21
67.05122651716329
 31
0.0
  0
LINE
  5
1555
330
1446
100
AcDbEntity
  8
1外形線
 48
3.0
100
AcDbLine
 10
47.49707226738745
 20
134.0512265171632
 30
0.0
 11
72.92600445552261
 21
134.0512265171632
 31
0.0
  0
LINE
  5
1556
330
1446
100
AcDbEntity
  8
1外形線
 48
3.0
100
AcDbLine
 10
47.49707226738745
 20
132.0512265171632
 30
0.0
 11
72.92600445552261
 21
132.0512265171632
 31
0.0
  0
LINE
  5
1557
330
1446
100
AcDbEntity
  8
1外形線
 48
3.0
100
AcDbLine
 10
34.42600445552079
 20
142.0512265171669
 30
0.0
 11
72.92600445552261
 21
142.0512265171669
 31
0.0
  0
LINE
  5
1558
330
1446
100
AcDbEntity
  8
1外形線
 48
3.0
100
AcDbLine
 10
72.92600445552079
 20
142.051226517163
 30
0.0
 11
33.42600445552079
 21
142.051226517163
 31
0.0
  0
LINE
  5
1559
330
1446
100
AcDbEntity
  8
1外形線
 48
3.0
100
AcDbLine
 10
47.49707226738745
 20
220.2227993924202
 30
0.0
 11
72.92600445552079
 21
220.2227993924202
 31
0.0
  0
LINE
  5
155A
330
1446
100
AcDbEntity
  8
1外形線
 48
3.0
100
AcDbLine
 10
34.05474640764941
 20
209.0512265171633
 30
0.0
 11
72.92600445552079
 21
209.0512265171633
 31
0.0
  0
ARC
  5
155D
330
1446
100
AcDbEntity
  8
1外形線
 48
3.0
100
AcDbCircle
 10
40.42600445552078
 20
206.1517315805516
 30
0.0
 40
7.0
100
AcDbArc
 50
135.0000000000044
 51
180.0
  0
ARC
  5
155E
330
1446
100
AcDbEntity
  8
1外形線
 48
3.0
100
AcDbCircle
 10
47.49707226738745
 20
213.2227993924184
 30
0.0
 40
7.0
100
AcDbArc
 50
89.99999999999998
 51
135.0000000000044
  0
LINE
  5
155F
330
1446
100
AcDbEntity
  8
1外形線
 48
3.0
100
AcDbLine
 10
42.5473247990808
 20
218.172546860725
 30
0.0
 11
35.47625698721594
 21
211.1014790488584
 31
0.0
  0
LINE
  5
1560
330
1446
100
AcDbEntity
  8
1外形線
 48
3.0
100
AcDbLine
 10
33.42600445552079
 20
206.1517315805533
 30
0.0
 11
33.42600445552079
 21
142.0512265171614
 31
0.0
  0
LINE
  5
1561
330
1446
100
AcDbEntity
  8
1外形線
 48
3.0
100
AcDbLine
 10
44.5975773307741
 20
219.594057440288
 30
0.0
 11
44.5975773307741
 21
142.051226517163
 31
0.0
  0
LINE
  5
1562
330
1446
100
AcDbEntity
  8
1外形線
 48
3.0
100
AcDbLine
 10
36.8904705495911
 20
123.5156926112317
 30
0.0
 11
43.96153836145596
 21
130.5867604230948
 31
0.0
  0
LINE
  5
1563
330
1446
100
AcDbEntity
  8
1外形線
 48
3.0
100
AcDbLine
 10
35.47625698721594
 20
124.9299061735978
 30
0.0
 11
42.5473247990808
 21
132.0009739854681
 31
0.0
  0
ARC
  5
1564
330
1446
100
AcDbEntity
  8
1外形線
 48
3.0
100
AcDbCircle
 10
47.49707226738745
 20
127.0512265171632
 30
0.0
 40
5.0
100
AcDbArc
 50
89.99999999999998
 51
135.0000000000044
  0
ARC
  5
1565
330
1446
100
AcDbEntity
  8
1外形線
 48
3.0
100
AcDbCircle
 10
40.42600445552444
 20
119.9801587052965
 30
0.0
 40
5.0
100
AcDbArc
 50
135.0000000000044
 51
180.0
  0
ARC
  5
1566
330
1446
100
AcDbEntity
  8
1外形線
 48
3.0
100
AcDbCircle
 10
40.42600445552261
 20
119.9801587052929
 30
0.0
 40
7.0
100
AcDbArc
 50
135.0000000000044
 51
180.0
  0
ARC
  5
1567
330
1446
100
AcDbEntity
  8
1外形線
 48
3.0
100
AcDbCircle
 10
47.49707226738745
 20
127.0512265171632
 30
0.0
 40
7.0
100
AcDbArc
 50
89.99999999999998
 51
135.0000000000044
  0
ARC
  5
1568
330
1446
100
AcDbEntity
  8
1外形線
 48
3.0
100
AcDbCircle
 10
34.42600445552079
 20
141.0512265171669
 30
0.0
 40
1.0
100
AcDbArc
 50
89.99999999999998
 51
180.0
  0
LINE
  5
1569
330
1446
100
AcDbEntity
  8
1外形線
 48
3.0
100
AcDbLine
 10
44.59757733077593
 20
133.4224845650346
 30
0.0
 11
44.59757733077593
 21
142.0512265171669
 31
0.0
  0
LINE
  5
156C
330
1446
100
AcDbEntity
  8
1外形線
 48
3.0
100
AcDbLine
 10
365.4523521309333
 20
322.9022138246713
 30
0.0
 11
422.4523521309361
 21
322.9022138246731
 31
0.0
  0
LINE
  5
156D
330
1446
100
AcDbEntity
  8
1外形線
 48
3.0
100
AcDbLine
 10
388.0810940830629
 20
334.0737866999266
 30
0.0
 11
362.4523521309333
 21
334.0737866999266
 31
0.0
  0
LINE
  5
156E
330
1446
100
AcDbEntity
  8
1外形線
 48
3.0
100
AcDbLine
 10
365.4523521309342
 20
401.9022138246769
 30
0.0
 11
422.4523521309361
 21
401.9022138246731
 31
0.0
  0
LINE
  5
156F
330
1446
100
AcDbEntity
  8
1外形線
 48
3.0
100
AcDbLine
 10
388.0810940830664
 20
390.7306409494271
 30
0.0
 11
362.4523521309324
 21
390.7306409494235
 31
0.0
  0
LINE
  5
1570
330
1446
100
AcDbEntity
  8
1外形線
 48
3.0
100
AcDbLine
 10
362.4523521309324
 20
323.9022138246732
 30
0.0
 11
362.4523521309324
 21
362.4022138246731
 31
0.0
  0
LINE
  5
1571
330
1446
100
AcDbEntity
  8
1外形線
 48
3.0
100
AcDbLine
 10
365.4523521309324
 20
322.9022138246731
 30
0.0
 11
365.4523521309324
 21
362.4022138246731
 31
0.0
  0
LINE
  5
1572
330
1446
100
AcDbEntity
  8
1外形線
 48
3.0
100
AcDbLine
 10
362.4523521309324
 20
400.9022138246768
 30
0.0
 11
362.4523521309324
 21
362.4022138246731
 31
0.0
  0
LINE
  5
1573
330
1446
100
AcDbEntity
  8
1外形線
 48
3.0
100
AcDbLine
 10
365.4523521309324
 20
401.9022138246769
 30
0.0
 11
365.4523521309324
 21
362.4022138246731
 31
0.0
  0
LINE
  5
1574
330
1446
100
AcDbEntity
  8
1外形線
 48
3.0
100
AcDbLine
 10
362.4523521309324
 20
400.9022138246768
 30
0.0
 11
365.4523521309324
 21
401.9022138246769
 31
0.0
  0
LINE
  5
1575
330
1446
100
AcDbEntity
  8
1外形線
 48
3.0
100
AcDbLine
 10
362.4523521309324
 20
323.9022138246732
 30
0.0
 11
365.4523521309324
 21
322.9022138246731
 31
0.0
  0
LINE
  5
1576
330
1446
100
AcDbEntity
  8
1外形線
 48
3.0
100
AcDbLine
 10
396.5736724744941
 20
324.9524663563683
 30
0.0
 11
389.5026046626293
 21
332.023534168235
 31
0.0
  0
LINE
  5
1577
330
1446
100
AcDbEntity
  8
1外形線
 48
3.0
100
AcDbLine
 10
459.4523521309342
 20
322.902213824675
 30
0.0
 11
459.4523521309342
 21
362.4022138246751
 31
0.0
  0
LINE
  5
1578
330
1446
100
AcDbEntity
  8
1外形線
 48
3.0
100
AcDbLine
 10
398.6239250061876
 20
323.5309557768037
 30
0.0
 11
398.6239250061876
 21
362.4022138246731
 31
0.0
  0
LINE
  5
1579
330
1446
100
AcDbEntity
  8
1外形線
 48
3.0
100
AcDbLine
 10
479.4523521309343
 20
362.4022138246751
 30
0.0
 11
479.4523521309343
 21
322.902213824675
 31
0.0
  0
LINE
  5
157A
330
1446
100
AcDbEntity
  8
1外形線
 48
3.0
100
AcDbLine
 10
491.4523521309343
 20
322.9022138246731
 30
0.0
 11
491.4523521309343
 21
362.4022138246751
 31
0.0
  0
LINE
  5
157B
330
1446
100
AcDbEntity
  8
1外形線
 48
3.0
100
AcDbLine
 10
494.4523521309342
 20
323.9022138246732
 30
0.0
 11
494.4523521309342
 21
362.4022138246751
 31
0.0
  0
LINE
  5
157C
330
1446
100
AcDbEntity
  8
1外形線
 48
3.0
100
AcDbLine
 10
494.4523521309342
 20
334.0737866999266
 30
0.0
 11
388.0810940830629
 21
334.0737866999266
 31
0.0
  0
ARC
  5
157D
330
1446
100
AcDbEntity
  8
1外形線
 48
3.0
100
AcDbCircle
 10
394.4523521309345
 20
336.9732816365398
 30
0.0
 40
7.0
100
AcDbArc
 50
180.0
 51
224.9999999999953
  0
LINE
  5
157E
330
1446
100
AcDbEntity
  8
1外形線
 48
3.0
100
AcDbLine
 10
494.4523521309342
 20
390.7306409494198
 30
0.0
 11
388.0810940830629
 21
390.7306409494198
 31
0.0
  0
LINE
  5
157F
330
1446
100
AcDbEntity
  8
1外形線
 48
3.0
100
AcDbLine
 10
491.4523521309376
 20
401.902213824675
 30
0.0
 11
401.5234199427991
 21
401.9022138246731
 31
0.0
  0
LINE
  5
1580
330
1446
100
AcDbEntity
  8
1外形線
 48
3.0
100
AcDbLine
 10
459.4523521309342
 20
401.9022138246714
 30
0.0
 11
459.4523521309342
 21
362.4022138246751
 31
0.0
  0
LINE
  5
1581
330
1446
100
AcDbEntity
  8
1外形線
 48
3.0
100
AcDbLine
 10
398.6239250061948
 20
401.2734718725428
 30
0.0
 11
398.6239250061876
 21
362.4022138246731
 31
0.0
  0
LINE
  5
1582
330
1446
100
AcDbEntity
  8
1外形線
 48
3.0
100
AcDbLine
 10
387.4523521309342
 20
362.4022138246731
 30
0.0
 11
387.4523521309342
 21
387.8311460128084
 31
0.0
  0
LINE
  5
1583
330
1446
100
AcDbEntity
  8
1外形線
 48
3.0
100
AcDbLine
 10
396.5736724744941
 20
399.8519612929781
 30
0.0
 11
389.5026046626293
 21
392.780893481115
 31
0.0
  0
ARC
  5
1584
330
1446
100
AcDbEntity
  8
1外形線
 48
3.0
100
AcDbCircle
 10
394.4523521309345
 20
387.8311460128084
 30
0.0
 40
7.0
100
AcDbArc
 50
135.0000000000044
 51
180.0
  0
ARC
  5
1585
330
1446
100
AcDbEntity
  8
1外形線
 48
3.0
100
AcDbCircle
 10
401.5234199427992
 20
394.9022138246732
 30
0.0
 40
7.0
100
AcDbArc
 50
89.99999999999998
 51
135.0000000000044
  0
LINE
  5
1586
330
1446
100
AcDbEntity
  8
1外形線
 48
3.0
100
AcDbLine
 10
479.4523521309343
 20
362.4022138246751
 30
0.0
 11
479.4523521309343
 21
401.9022138246714
 31
0.0
  0
LINE
  5
1587
330
1446
100
AcDbEntity
  8
1外形線
 48
3.0
100
AcDbLine
 10
494.4523521309342
 20
400.9022138246733
 30
0.0
 11
494.4523521309342
 21
362.4022138246731
 31
0.0
  0
LINE
  5
1588
330
1446
100
AcDbEntity
  8
1外形線
 48
3.0
100
AcDbLine
 10
491.4523521309343
 20
401.9022138246731
 30
0.0
 11
491.4523521309343
 21
362.4022138246731
 31
0.0
  0
LINE
  5
1589
330
1446
100
AcDbEntity
  8
1外形線
 48
3.0
100
AcDbLine
 10
491.4523521309376
 20
401.902213824675
 30
0.0
 11
494.4523521309342
 21
400.9022138246733
 31
0.0
  0
LINE
  5
158A
330
1446
100
AcDbEntity
  8
1外形線
 48
3.0
100
AcDbLine
 10
387.4523521309342
 20
362.4022138246731
 30
0.0
 11
387.4523521309342
 21
336.9732816365398
 31
0.0
  0
LINE
  5
158B
330
1446
100
AcDbEntity
  8
1外形線
 48
3.0
100
AcDbLine
 10
491.452352130947
 20
322.902213824675
 30
0.0
 11
401.5234199427991
 21
322.902213824675
 31
0.0
  0
ARC
  5
158C
330
1446
100
AcDbEntity
  8
1外形線
 48
3.0
100
AcDbCircle
 10
401.5234199427992
 20
329.902213824675
 30
0.0
 40
7.0
100
AcDbArc
 50
224.9999999999953
 51
270.0
  0
LINE
  5
158D
330
1446
100
AcDbEntity
  8
1外形線
 48
3.0
100
AcDbLine
 10
491.452352130947
 20
322.902213824675
 30
0.0
 11
494.4523521309342
 21
323.9022138246732
 31
0.0
  0
ARC
  5
158E
330
1446
100
AcDbEntity
  8
1外形線
 48
3.0
100
AcDbCircle
 10
384.4523521309352
 20
137.051226517163
 30
0.0
 40
3.0
100
AcDbArc
 50
270.0
 51
0.0
  0
ARC
  5
158F
330
1446
100
AcDbEntity
  8
1外形線
 48
3.0
100
AcDbCircle
 10
384.4523521309352
 20
137.051226517163
 30
0.0
 40
14.17157287525879
100
AcDbArc
 50
270.0
 51
0.0
  0
LINE
  5
1592
330
1446
100
AcDbEntity
  8
1外形線
 48
3.0
100
AcDbLine
 10
72.92600445552079
 20
142.051226517163
 30
0.0
 11
112.4260044555208
 21
142.051226517163
 31
0.0
  0
ARC
  5
1593
330
1446
100
AcDbEntity
  8
1外形線
 48
3.0
100
AcDbCircle
 10
105.4260044555207
 20
206.1517315805516
 30
0.0
 40
7.0
100
AcDbArc
 50
0.0
 51
44.99999999999538
  0
ARC
  5
1594
330
1446
100
AcDbEntity
  8
1外形線
 48
3.0
100
AcDbCircle
 10
98.35493664365595
 20
213.2227993924184
 30
0.0
 40
7.0
100
AcDbArc
 50
44.99999999999538
 51
89.99999999999998
  0
LINE
  5
1595
330
1446
100
AcDbEntity
  8
1外形線
 48
3.0
100
AcDbLine
 10
98.35493664365595
 20
220.2227993924202
 30
0.0
 11
72.92600445552079
 21
220.2227993924202
 31
0.0
  0
LINE
  5
1596
330
1446
100
AcDbEntity
  8
1外形線
 48
3.0
100
AcDbLine
 10
103.3046841119606
 20
218.172546860725
 30
0.0
 11
110.3757519238274
 21
211.1014790488584
 31
0.0
  0
LINE
  5
1597
330
1446
100
AcDbEntity
  8
1外形線
 48
3.0
100
AcDbLine
 10
111.7972625033921
 20
209.0512265171633
 30
0.0
 11
72.92600445552079
 21
209.0512265171633
 31
0.0
  0
LINE
  5
1598
330
1446
100
AcDbEntity
  8
1外形線
 48
3.0
100
AcDbLine
 10
112.4260044555208
 20
206.1517315805516
 30
0.0
 11
112.4260044555208
 21
142.0512265171596
 31
0.0
  0
LINE
  5
1599
330
1446
100
AcDbEntity
  8
1外形線
 48
3.0
100
AcDbLine
 10
101.2544315802674
 20
219.594057440288
 30
0.0
 11
101.2544315802674
 21
142.051226517163
 31
0.0
  0
LINE
  5
159A
330
1446
100
AcDbEntity
  8
1外形線
 48
3.0
100
AcDbLine
 10
365.4523521309333
 20
134.0512265171632
 30
0.0
 11
362.4523521309333
 21
133.0512265171632
 31
0.0
  0
LINE
  5
159B
330
1446
100
AcDbEntity
  8
1外形線
 48
3.0
100
AcDbLine
 10
365.4523521309333
 20
134.0512265171632
 30
0.0
 11
384.4523521309352
 21
134.0512265171632
 31
0.0
  0
LINE
  5
159C
330
1446
100
AcDbEntity
  8
1外形線
 48
3.0
100
AcDbLine
 10
362.4523521309333
 20
122.8796536419025
 30
0.0
 11
384.4523521309352
 21
122.8796536419025
 31
0.0
  0
LINE
  5
159D
330
1446
100
AcDbEntity
  8
1外形線
 48
3.0
100
AcDbLine
 10
108.9615383614559
 20
123.5156926112317
 30
0.0
 11
101.8904705495891
 21
130.5867604230948
 31
0.0
  0
LINE
  5
159E
330
1446
100
AcDbEntity
  8
1外形線
 48
3.0
100
AcDbLine
 10
110.3757519238311
 20
124.9299061735978
 30
0.0
 11
103.3046841119643
 21
132.0009739854681
 31
0.0
  0
ARC
  5
159F
330
1446
100
AcDbEntity
  8
1外形線
 48
3.0
100
AcDbCircle
 10
105.4260044555244
 20
119.9801587052965
 30
0.0
 40
5.0
100
AcDbArc
 50
0.0
 51
44.99999999999538
  0
ARC
  5
15A0
330
1446
100
AcDbEntity
  8
1外形線
 48
3.0
100
AcDbCircle
 10
105.4260044555244
 20
119.9801587052929
 30
0.0
 40
7.0
100
AcDbArc
 50
0.0
 51
44.99999999999538
  0
ARC
  5
15A1
330
1446
100
AcDbEntity
  8
1外形線
 48
3.0
100
AcDbCircle
 10
98.35493664365595
 20
127.0512265171632
 30
0.0
 40
5.0
100
AcDbArc
 50
44.99999999999538
 51
89.99999999999998
  0
LINE
  5
15A2
330
1446
100
AcDbEntity
  8
1外形線
 48
3.0
100
AcDbLine
 10
98.35493664365595
 20
132.0512265171632
 30
0.0
 11
72.92600445552261
 21
132.0512265171632
 31
0.0
  0
LINE
  5
15A3
330
1446
100
AcDbEntity
  8
1外形線
 48
3.0
100
AcDbLine
 10
98.35493664365777
 20
134.0512265171632
 30
0.0
 11
72.92600445552261
 21
134.0512265171632
 31
0.0
  0
ARC
  5
15A4
330
1446
100
AcDbEntity
  8
1外形線
 48
3.0
100
AcDbCircle
 10
98.35493664365777
 20
127.0512265171632
 30
0.0
 40
7.0
100
AcDbArc
 50
44.99999999999538
 51
89.99999999999998
  0
ARC
  5
15A5
330
1446
100
AcDbEntity
  8
1外形線
 48
3.0
100
AcDbCircle
 10
111.4260044555244
 20
141.0512265171669
 30
0.0
 40
1.0
100
AcDbArc
 50
0.0
 51
89.99999999999998
  0
LINE
  5
15A6
330
1446
100
AcDbEntity
  8
1外形線
 48
3.0
100
AcDbLine
 10
111.4260044555244
 20
142.0512265171669
 30
0.0
 11
72.92600445552261
 21
142.0512265171669
 31
0.0
  0
LINE
  5
15A7
330
1446
100
AcDbEntity
  8
1外形線
 48
3.0
100
AcDbLine
 10
101.254431580271
 20
133.4224845650346
 30
0.0
 11
101.254431580271
 21
142.0512265171669
 31
0.0
  0
ARC
  5
15AA
330
1446
100
AcDbEntity
  8
1外形線
 48
3.0
100
AcDbCircle
 10
481.2748540695651
 20
204.8796536419061
 30
0.0
 40
7.0
100
AcDbArc
 50
240.8132070509584
 51
270.0
  0
LINE
  5
15AB
330
1446
100
AcDbEntity
  8
1外形線
 48
3.0
100
AcDbLine
 10
481.2748540695651
 20
197.8796536419063
 30
0.0
 11
494.4523521309333
 21
197.8796536419063
 31
0.0
  0
LINE
  5
15AC
330
1446
100
AcDbEntity
  8
1外形線
 48
3.0
100
AcDbLine
 10
387.4523521309333
 20
142.051226517163
 30
0.0
 11
494.4523521309333
 21
142.051226517163
 31
0.0
  0
ARC
  5
15AD
330
1446
100
AcDbEntity
  8
1外形線
 48
3.0
100
AcDbCircle
 10
457.6298501922941
 20
202.051226517163
 30
0.0
 40
7.0
100
AcDbArc
 50
60.81320705095841
 51
89.99999999999998
  0
ARC
  5
15AE
330
1446
100
AcDbEntity
  8
1外形線
 48
3.0
100
AcDbCircle
 10
457.6298501922979
 20
213.2227993924201
 30
0.0
 40
7.0
100
AcDbArc
 50
60.81320705095841
 51
89.99999999999998
  0
LINE
  5
15AF
330
1446
100
AcDbEntity
  8
1外形線
 48
3.0
100
AcDbLine
 10
461.043459215922
 20
219.334040954805
 30
0.0
 11
477.8612450459445
 21
209.9399849547729
 31
0.0
  0
ARC
  5
15B0
330
1446
100
AcDbEntity
  8
1外形線
 48
3.0
100
AcDbCircle
 10
401.5234199427982
 20
213.2227993924201
 30
0.0
 40
7.0
100
AcDbArc
 50
89.99999999999998
 51
135.0000000000044
  0
ARC
  5
15B1
330
1446
100
AcDbEntity
  8
1外形線
 48
3.0
100
AcDbCircle
 10
394.4523521309333
 20
206.1517315805553
 30
0.0
 40
7.0
100
AcDbArc
 50
135.0000000000044
 51
180.0
  0
LINE
  5
15B2
330
1446
100
AcDbEntity
  8
1外形線
 48
3.0
100
AcDbLine
 10
459.4523521309334
 20
219.9813855377356
 30
0.0
 11
459.4523521309334
 21
209.0512265171613
 31
0.0
  0
LINE
  5
15B3
330
1446
100
AcDbEntity
  8
1外形線
 48
3.0
100
AcDbLine
 10
401.5234199427982
 20
220.2227993924202
 30
0.0
 11
457.6298501922979
 21
220.2227993924202
 31
0.0
  0
LINE
  5
15B4
330
1446
100
AcDbEntity
  8
1外形線
 48
3.0
100
AcDbLine
 10
396.5736724744933
 20
218.172546860725
 30
0.0
 11
389.5026046626284
 21
211.1014790488619
 31
0.0
  0
LINE
  5
15B5
330
1446
100
AcDbEntity
  8
1外形線
 48
3.0
100
AcDbLine
 10
388.0810940830619
 20
209.0512265171633
 30
0.0
 11
457.6298501922941
 21
209.0512265171633
 31
0.0
  0
ARC
  5
15B6
330
1446
100
AcDbEntity
  8
1外形線
 48
3.0
100
AcDbCircle
 10
481.2748540695706
 20
216.0512265171595
 30
0.0
 40
7.0
100
AcDbArc
 50
240.8132070509584
 51
270.0
  0
LINE
  5
15B7
330
1446
100
AcDbEntity
  8
1外形線
 48
3.0
100
AcDbLine
 10
481.2748540695706
 20
209.0512265171595
 30
0.0
 11
491.4523521309278
 21
209.0512265171595
 31
0.0
  0
LINE
  5
15B8
330
1446
100
AcDbEntity
  8
1外形線
 48
3.0
100
AcDbLine
 10
494.4523521309333
 20
208.0512265171614
 30
0.0
 11
491.4523521309313
 21
209.0512265171595
 31
0.0
  0
LINE
  5
15B9
330
1446
100
AcDbEntity
  8
1外形線
 48
3.0
100
AcDbLine
 10
461.0434592159186
 20
208.162468079548
 30
0.0
 11
477.8612450459408
 21
198.7684120795195
 31
0.0
  0
LINE
  5
15BA
330
1446
100
AcDbEntity
  8
1外形線
 48
3.0
100
AcDbLine
 10
387.4523521309333
 20
206.1517315805553
 30
0.0
 11
387.4523521309333
 21
142.051226517163
 31
0.0
  0
LINE
  5
15BB
330
1446
100
AcDbEntity
  8
1外形線
 48
3.0
100
AcDbLine
 10
494.4523521309333
 20
208.0512265171614
 30
0.0
 11
494.4523521309333
 21
142.051226517163
 31
0.0
  0
LINE
  5
15BC
330
1446
100
AcDbEntity
  8
1外形線
 48
3.0
100
AcDbLine
 10
491.4523521309333
 20
209.0512265171595
 30
0.0
 11
491.4523521309333
 21
142.051226517163
 31
0.0
  0
LINE
  5
15BD
330
1446
100
AcDbEntity
  8
1外形線
 48
3.0
100
AcDbLine
 10
479.4523521309351
 20
197.8796536419063
 30
0.0
 11
479.4523521309351
 21
209.0512265171595
 31
0.0
  0
LINE
  5
15BE
330
1446
100
AcDbEntity
  8
1外形線
 48
3.0
100
AcDbLine
 10
398.6239250061866
 20
142.051226517163
 30
0.0
 11
398.6239250061866
 21
219.5940574402916
 31
0.0
  0
LINE
  5
15BF
330
1446
100
AcDbEntity
  8
1外形線
 48
3.0
100
AcDbLine
 10
387.4523521309352
 20
137.051226517163
 30
0.0
 11
387.4523521309352
 21
141.051226517163
 31
0.0
  0
LINE
  5
15C0
330
1446
100
AcDbEntity
  8
1外形線
 48
3.0
100
AcDbLine
 10
389.4523521309352
 20
142.051226517163
 30
0.0
 11
388.4523521309351
 21
142.051226517163
 31
0.0
  0
LINE
  5
15C1
330
1446
100
AcDbEntity
  8
1外形線
 48
3.0
100
AcDbLine
 10
398.6239250061921
 20
142.051226517163
 30
0.0
 11
398.6239250061921
 21
137.051226517163
 31
0.0
  0
ARC
  5
15C2
330
1446
100
AcDbEntity
  8
1外形線
 48
3.0
100
AcDbCircle
 10
388.4523521309351
 20
141.051226517163
 30
0.0
 40
1.0
100
AcDbArc
 50
89.99999999999998
 51
180.0
  0
LINE
  5
15C3
330
1446
100
AcDbEntity
  8
1外形線
 48
3.0
100
AcDbLine
 10
389.4523521309352
 20
142.0512265171596
 30
0.0
 11
454.4523521309334
 21
142.051226517163
 31
0.0
  0
LINE
  5
15C5
330
1446
100
AcDbEntity
  8
1外形線
 48
3.0
100
AcDbLine
 10
110.4260044555225
 20
67.05122651716329
 30
0.0
 11
35.42600445552261
 21
67.05122651716329
 31
0.0
  0
LINE
  5
15C6
330
1446
100
AcDbEntity
  8
1外形線
 48
3.0
100
AcDbLine
 10
110.4260044555225
 20
69.55122651716329
 30
0.0
 11
35.42600445552261
 21
69.55122651716329
 31
0.0
  0
LINE
  5
15C7
330
1446
100
AcDbEntity
  8
1外形線
 48
3.0
100
AcDbLine
 10
33.4260044555226
 20
67.05122651716329
 30
0.0
 11
35.42600445552261
 21
67.05122651716329
 31
0.0
  0
LINE
  5
15C9
330
1446
100
AcDbEntity
  8
1外形線
 48
3.0
100
AcDbLine
 10
453.4523521309352
 20
67.05122651716329
 30
0.0
 11
362.4523521309352
 21
67.05122651716329
 31
0.0
  0
LINE
  5
15CA
330
1446
100
AcDbEntity
  8
1外形線
 48
3.0
100
AcDbLine
 10
112.4260044555225
 20
67.05122651716329
 30
0.0
 11
110.4260044555225
 21
67.05122651716329
 31
0.0
  0
ARC
  5
15CB
330
1446
100
AcDbEntity
  8
1外形線
 48
3.0
100
AcDbCircle
 10
453.4523521309352
 20
68.05122651716323
 30
0.0
 40
1.0
100
AcDbArc
 50
270.0
 51
0.0
  0
LINE
  5
17FA
330
1446
100
AcDbEntity
  8
1外形線
 48
3.0
100
AcDbLine
 10
540.3675247315077
 20
133.0512265171595
 30
0.0
 11
540.3675247315094
 21
67.05122651716329
 31
0.0
  0
LINE
  5
17FB
330
1446
100
AcDbEntity
  8
1外形線
 48
3.0
100
AcDbLine
 10
543.3675247315077
 20
134.0512265171632
 30
0.0
 11
543.3675247315094
 21
67.05122651716329
 31
0.0
  0
LINE
  5
17FC
330
1446
100
AcDbEntity
  8
1外形線
 48
3.0
100
AcDbLine
 10
251.6412550810428
 20
119.9801587052965
 30
0.0
 11
251.641255081041
 21
67.05122651716329
 31
0.0
  0
LINE
  5
17FD
330
1446
100
AcDbEntity
  8
1外形線
 48
3.0
100
AcDbLine
 10
176.6412550810428
 20
119.9801587052965
 30
0.0
 11
176.6412550810409
 21
67.05122651716329
 31
0.0
  0
LINE
  5
17FE
330
1446
100
AcDbEntity
  8
1外形線
 48
3.0
100
AcDbLine
 10
632.3675247315094
 20
68.05122651716327
 30
0.0
 11
632.3675247315094
 21
197.0512265171669
 31
0.0
  0
LINE
  5
17FF
330
1446
100
AcDbEntity
  8
1外形線
 48
3.0
100
AcDbLine
 10
174.641255081039
 20
141.0512265171669
 30
0.0
 11
174.6412550810409
 21
67.05122651716329
 31
0.0
  0
LINE
  5
1800
330
1446
100
AcDbEntity
  8
1外形線
 48
3.0
100
AcDbLine
 10
253.6412550810428
 20
141.0512265171669
 30
0.0
 11
253.641255081041
 21
67.05122651716329
 31
0.0
  0
LINE
  5
1801
330
1446
100
AcDbEntity
  8
1外形線
 48
3.0
100
AcDbLine
 10
188.7123228929056
 20
134.0512265171632
 30
0.0
 11
214.141255081041
 21
134.0512265171632
 31
0.0
  0
LINE
  5
1802
330
1446
100
AcDbEntity
  8
1外形線
 48
3.0
100
AcDbLine
 10
188.7123228929056
 20
132.0512265171632
 30
0.0
 11
214.141255081041
 21
132.0512265171632
 31
0.0
  0
LINE
  5
1803
330
1446
100
AcDbEntity
  8
1外形線
 48
3.0
100
AcDbLine
 10
175.641255081039
 20
142.0512265171669
 30
0.0
 11
214.141255081041
 21
142.0512265171669
 31
0.0
  0
LINE
  5
1804
330
1446
100
AcDbEntity
  8
1外形線
 48
3.0
100
AcDbLine
 10
214.141255081041
 20
197.0512265171669
 30
0.0
 11
174.6412550810409
 21
197.0512265171669
 31
0.0
  0
LINE
  5
1805
330
1446
100
AcDbEntity
  8
1外形線
 48
3.0
100
AcDbLine
 10
188.7123228929074
 20
275.2227993924238
 30
0.0
 11
214.141255081041
 21
275.2227993924238
 31
0.0
  0
LINE
  5
1806
330
1446
100
AcDbEntity
  8
1外形線
 48
3.0
100
AcDbLine
 10
175.2699970331696
 20
264.0512265171669
 30
0.0
 11
214.141255081041
 21
264.0512265171669
 31
0.0
  0
LINE
  5
1807
330
1446
100
AcDbEntity
  8
1外形線
 48
3.0
100
AcDbLine
 10
189.469682205784
 20
142.0512265171669
 30
0.0
 11
189.469682205784
 21
197.051226517167
 31
0.0
  0
LINE
  5
1808
330
1446
100
AcDbEntity
  8
1外形線
 48
3.0
100
AcDbLine
 10
176.6412550810409
 20
142.051226517163
 30
0.0
 11
176.641255081041
 21
197.0512265171669
 31
0.0
  0
ARC
  5
1809
330
1446
100
AcDbEntity
  8
1外形線
 48
3.0
100
AcDbCircle
 10
181.6412550810406
 20
261.1517315805554
 30
0.0
 40
7.0
100
AcDbArc
 50
135.0000000000044
 51
180.0
  0
ARC
  5
180A
330
1446
100
AcDbEntity
  8
1外形線
 48
3.0
100
AcDbCircle
 10
188.7123228929074
 20
268.2227993924219
 30
0.0
 40
7.0
100
AcDbArc
 50
89.99999999999998
 51
135.0000000000044
  0
LINE
  5
180B
330
1446
100
AcDbEntity
  8
1外形線
 48
3.0
100
AcDbLine
 10
183.7625754246009
 20
273.1725468607286
 30
0.0
 11
176.6915076127361
 21
266.101479048862
 31
0.0
  0
LINE
  5
180C
330
1446
100
AcDbEntity
  8
1外形線
 48
3.0
100
AcDbLine
 10
174.6412550810409
 20
261.1517315805571
 30
0.0
 11
174.6412550810409
 21
197.0512265171651
 31
0.0
  0
LINE
  5
180D
330
1446
100
AcDbEntity
  8
1外形線
 48
3.0
100
AcDbLine
 10
185.8128279562943
 20
274.5940574402914
 30
0.0
 11
185.8128279562943
 21
197.0512265171669
 31
0.0
  0
LINE
  5
180E
330
1446
100
AcDbEntity
  8
1外形線
 48
3.0
100
AcDbLine
 10
178.1057211751094
 20
123.5156926112317
 30
0.0
 11
185.1767889869741
 21
130.5867604230948
 31
0.0
  0
LINE
  5
180F
330
1446
100
AcDbEntity
  8
1外形線
 48
3.0
100
AcDbLine
 10
176.6915076127343
 20
124.9299061735978
 30
0.0
 11
183.7625754245989
 21
132.0009739854681
 31
0.0
  0
ARC
  5
1810
330
1446
100
AcDbEntity
  8
1外形線
 48
3.0
100
AcDbCircle
 10
188.7123228929054
 20
127.0512265171632
 30
0.0
 40
5.0
100
AcDbArc
 50
89.99999999999998
 51
135.0000000000044
  0
ARC
  5
1811
330
1446
100
AcDbEntity
  8
1外形線
 48
3.0
100
AcDbCircle
 10
181.6412550810425
 20
119.9801587052965
 30
0.0
 40
5.0
100
AcDbArc
 50
135.0000000000044
 51
180.0
  0
ARC
  5
1812
330
1446
100
AcDbEntity
  8
1外形線
 48
3.0
100
AcDbCircle
 10
181.6412550810406
 20
119.9801587052929
 30
0.0
 40
7.0
100
AcDbArc
 50
135.0000000000044
 51
180.0
  0
ARC
  5
1813
330
1446
100
AcDbEntity
  8
1外形線
 48
3.0
100
AcDbCircle
 10
188.7123228929054
 20
127.0512265171632
 30
0.0
 40
7.0
100
AcDbArc
 50
89.99999999999998
 51
135.0000000000044
  0
ARC
  5
1814
330
1446
100
AcDbEntity
  8
1外形線
 48
3.0
100
AcDbCircle
 10
175.6412550810389
 20
141.0512265171669
 30
0.0
 40
1.0
100
AcDbArc
 50
89.99999999999998
 51
180.0
  0
LINE
  5
1815
330
1446
100
AcDbEntity
  8
1外形線
 48
3.0
100
AcDbLine
 10
185.8128279562943
 20
133.4224845650346
 30
0.0
 11
185.8128279562943
 21
142.0512265171669
 31
0.0
  0
ARC
  5
183A
330
1446
100
AcDbEntity
  8
1外形線
 48
3.0
100
AcDbCircle
 10
562.3675247315093
 20
137.051226517163
 30
0.0
 40
3.0
100
AcDbArc
 50
270.0
 51
0.0
  0
ARC
  5
183B
330
1446
100
AcDbEntity
  8
1外形線
 48
3.0
100
AcDbCircle
 10
562.3675247315093
 20
137.051226517163
 30
0.0
 40
14.17157287525879
100
AcDbArc
 50
270.0
 51
0.0
  0
LINE
  5
183C
330
1446
100
AcDbEntity
  8
1外形線
 48
3.0
100
AcDbLine
 10
238.8128279562979
 20
142.0512265171669
 30
0.0
 11
238.8128279562976
 21
197.051226517167
 31
0.0
  0
LINE
  5
183D
330
1446
100
AcDbEntity
  8
1外形線
 48
3.0
100
AcDbLine
 10
251.641255081041
 20
142.051226517163
 30
0.0
 11
251.641255081041
 21
197.0512265171669
 31
0.0
  0
LINE
  5
183E
330
1446
100
AcDbEntity
  8
1外形線
 48
3.0
100
AcDbLine
 10
214.141255081041
 20
197.0512265171669
 30
0.0
 11
253.641255081041
 21
197.0512265171669
 31
0.0
  0
ARC
  5
183F
330
1446
100
AcDbEntity
  8
1外形線
 48
3.0
100
AcDbCircle
 10
246.6412550810407
 20
261.1517315805554
 30
0.0
 40
7.0
100
AcDbArc
 50
0.0
 51
44.99999999999538
  0
ARC
  5
1840
330
1446
100
AcDbEntity
  8
1外形線
 48
3.0
100
AcDbCircle
 10
239.5701872691759
 20
268.2227993924219
 30
0.0
 40
7.0
100
AcDbArc
 50
44.99999999999538
 51
89.99999999999998
  0
LINE
  5
1841
330
1446
100
AcDbEntity
  8
1外形線
 48
3.0
100
AcDbLine
 10
239.570187269176
 20
275.2227993924238
 30
0.0
 11
214.141255081041
 21
275.2227993924238
 31
0.0
  0
LINE
  5
1842
330
1446
100
AcDbEntity
  8
1外形線
 48
3.0
100
AcDbLine
 10
244.5199347374809
 20
273.1725468607286
 30
0.0
 11
251.5910025493476
 21
266.101479048862
 31
0.0
  0
LINE
  5
1843
330
1446
100
AcDbEntity
  8
1外形線
 48
3.0
100
AcDbLine
 10
253.0125131289123
 20
264.0512265171669
 30
0.0
 11
214.141255081041
 21
264.0512265171669
 31
0.0
  0
LINE
  5
1844
330
1446
100
AcDbEntity
  8
1外形線
 48
3.0
100
AcDbLine
 10
253.641255081041
 20
261.1517315805554
 30
0.0
 11
253.641255081041
 21
197.0512265171633
 31
0.0
  0
LINE
  5
1845
330
1446
100
AcDbEntity
  8
1外形線
 48
3.0
100
AcDbLine
 10
242.4696822057875
 20
274.5940574402914
 30
0.0
 11
242.4696822057875
 21
197.0512265171669
 31
0.0
  0
LINE
  5
1846
330
1446
100
AcDbEntity
  8
1外形線
 48
3.0
100
AcDbLine
 10
543.3675247315077
 20
134.0512265171632
 30
0.0
 11
540.3675247315077
 21
133.0512265171632
 31
0.0
  0
LINE
  5
1847
330
1446
100
AcDbEntity
  8
1外形線
 48
3.0
100
AcDbLine
 10
543.3675247315077
 20
134.0512265171632
 30
0.0
 11
562.3675247315094
 21
134.0512265171632
 31
0.0
  0
LINE
  5
1848
330
1446
100
AcDbEntity
  8
1外形線
 48
3.0
100
AcDbLine
 10
540.3675247315077
 20
122.8796536419025
 30
0.0
 11
562.3675247315094
 21
122.8796536419025
 31
0.0
  0
LINE
  5
1849
330
1446
100
AcDbEntity
  8
1外形線
 48
3.0
100
AcDbLine
 10
250.1767889869741
 20
123.5156926112317
 30
0.0
 11
243.1057211751076
 21
130.5867604230948
 31
0.0
  0
LINE
  5
184A
330
1446
100
AcDbEntity
  8
1外形線
 48
3.0
100
AcDbLine
 10
251.5910025493494
 20
124.9299061735978
 30
0.0
 11
244.5199347374828
 21
132.0009739854681
 31
0.0
  0
ARC
  5
184B
330
1446
100
AcDbEntity
  8
1外形線
 48
3.0
100
AcDbCircle
 10
246.6412550810425
 20
119.9801587052965
 30
0.0
 40
5.0
100
AcDbArc
 50
0.0
 51
44.99999999999538
  0
ARC
  5
184C
330
1446
100
AcDbEntity
  8
1外形線
 48
3.0
100
AcDbCircle
 10
246.6412550810425
 20
119.9801587052929
 30
0.0
 40
7.0
100
AcDbArc
 50
0.0
 51
44.99999999999538
  0
ARC
  5
184D
330
1446
100
AcDbEntity
  8
1外形線
 48
3.0
100
AcDbCircle
 10
239.570187269174
 20
127.0512265171632
 30
0.0
 40
5.0
100
AcDbArc
 50
44.99999999999538
 51
89.99999999999998
  0
LINE
  5
184E
330
1446
100
AcDbEntity
  8
1外形線
 48
3.0
100
AcDbLine
 10
239.5701872691743
 20
132.0512265171632
 30
0.0
 11
214.141255081041
 21
132.0512265171632
 31
0.0
  0
LINE
  5
184F
330
1446
100
AcDbEntity
  8
1外形線
 48
3.0
100
AcDbLine
 10
239.570187269176
 20
134.0512265171632
 30
0.0
 11
214.141255081041
 21
134.0512265171632
 31
0.0
  0
ARC
  5
1850
330
1446
100
AcDbEntity
  8
1外形線
 48
3.0
100
AcDbCircle
 10
239.5701872691759
 20
127.0512265171632
 30
0.0
 40
7.0
100
AcDbArc
 50
44.99999999999538
 51
89.99999999999998
  0
ARC
  5
1851
330
1446
100
AcDbEntity
  8
1外形線
 48
3.0
100
AcDbCircle
 10
252.6412550810425
 20
141.0512265171669
 30
0.0
 40
1.0
100
AcDbArc
 50
0.0
 51
89.99999999999998
  0
LINE
  5
1852
330
1446
100
AcDbEntity
  8
1外形線
 48
3.0
100
AcDbLine
 10
252.6412550810428
 20
142.0512265171669
 30
0.0
 11
214.141255081041
 21
142.0512265171669
 31
0.0
  0
LINE
  5
1853
330
1446
100
AcDbEntity
  8
1外形線
 48
3.0
100
AcDbLine
 10
242.4696822057894
 20
133.4224845650346
 30
0.0
 11
242.4696822057894
 21
142.0512265171669
 31
0.0
  0
LINE
  5
1854
330
1446
100
AcDbEntity
  8
1外形線
 48
3.0
100
AcDbLine
 10
580.195951856258
 20
142.051226517163
 30
0.0
 11
580.1959518562577
 21
197.0512265171669
 31
0.0
  0
LINE
  5
1855
330
1446
100
AcDbEntity
  8
1外形線
 48
3.0
100
AcDbLine
 10
567.3675247315094
 20
142.051226517163
 30
0.0
 11
567.3675247315094
 21
197.0512265171669
 31
0.0
  0
ARC
  5
1856
330
1446
100
AcDbEntity
  8
1外形線
 48
3.0
100
AcDbCircle
 10
659.1900266701411
 20
259.8796536419096
 30
0.0
 40
7.0
100
AcDbArc
 50
240.8132070509584
 51
270.0
  0
LINE
  5
1857
330
1446
100
AcDbEntity
  8
1外形線
 48
3.0
100
AcDbLine
 10
659.1900266701412
 20
252.8796536419099
 30
0.0
 11
672.3675247315094
 21
252.8796536419099
 31
0.0
  0
LINE
  5
1858
330
1446
100
AcDbEntity
  8
1外形線
 48
3.0
100
AcDbLine
 10
565.3675247315094
 20
197.0512265171669
 30
0.0
 11
672.3675247315094
 21
197.0512265171669
 31
0.0
  0
ARC
  5
1859
330
1446
100
AcDbEntity
  8
1外形線
 48
3.0
100
AcDbCircle
 10
635.5450227928701
 20
257.0512265171669
 30
0.0
 40
7.0
100
AcDbArc
 50
60.81320705095841
 51
89.99999999999998
  0
ARC
  5
185A
330
1446
100
AcDbEntity
  8
1外形線
 48
3.0
100
AcDbCircle
 10
635.5450227928737
 20
268.2227993924239
 30
0.0
 40
7.0
100
AcDbArc
 50
60.81320705095841
 51
89.99999999999998
  0
LINE
  5
185B
330
1446
100
AcDbEntity
  8
1外形線
 48
3.0
100
AcDbLine
 10
638.9586318164982
 20
274.3340409548086
 30
0.0
 11
655.7764176465207
 21
264.9399849547766
 31
0.0
  0
ARC
  5
185C
330
1446
100
AcDbEntity
  8
1外形線
 48
3.0
100
AcDbCircle
 10
579.4385925433743
 20
268.2227993924239
 30
0.0
 40
7.0
100
AcDbArc
 50
89.99999999999998
 51
135.0000000000044
  0
ARC
  5
185D
330
1446
100
AcDbEntity
  8
1外形線
 48
3.0
100
AcDbCircle
 10
572.3675247315092
 20
261.1517315805588
 30
0.0
 40
7.0
100
AcDbArc
 50
135.0000000000044
 51
180.0
  0
LINE
  5
185E
330
1446
100
AcDbEntity
  8
1外形線
 48
3.0
100
AcDbLine
 10
637.3675247315094
 20
274.9813855377392
 30
0.0
 11
637.3675247315094
 21
264.0512265171651
 31
0.0
  0
LINE
  5
185F
330
1446
100
AcDbEntity
  8
1外形線
 48
3.0
100
AcDbLine
 10
579.4385925433743
 20
275.2227993924238
 30
0.0
 11
635.5450227928741
 21
275.2227993924238
 31
0.0
  0
LINE
  5
1860
330
1446
100
AcDbEntity
  8
1外形線
 48
3.0
100
AcDbLine
 10
574.4888450750695
 20
273.1725468607286
 30
0.0
 11
567.4177772632047
 21
266.1014790488656
 31
0.0
  0
LINE
  5
1861
330
1446
100
AcDbEntity
  8
1外形線
 48
3.0
100
AcDbLine
 10
565.9962666836381
 20
264.0512265171669
 30
0.0
 11
635.5450227928704
 21
264.0512265171669
 31
0.0
  0
ARC
  5
1862
330
1446
100
AcDbEntity
  8
1外形線
 48
3.0
100
AcDbCircle
 10
659.1900266701466
 20
271.051226517163
 30
0.0
 40
7.0
100
AcDbArc
 50
240.8132070509584
 51
270.0
  0
LINE
  5
1863
330
1446
100
AcDbEntity
  8
1外形線
 48
3.0
100
AcDbLine
 10
659.1900266701467
 20
264.051226517163
 30
0.0
 11
669.3675247315041
 21
264.051226517163
 31
0.0
  0
LINE
  5
1864
330
1446
100
AcDbEntity
  8
1外形線
 48
3.0
100
AcDbLine
 10
672.3675247315094
 20
263.0512265171651
 30
0.0
 11
669.3675247315077
 21
264.051226517163
 31
0.0
  0
LINE
  5
1865
330
1446
100
AcDbEntity
  8
1外形線
 48
3.0
100
AcDbLine
 10
638.9586318164947
 20
263.1624680795515
 30
0.0
 11
655.7764176465171
 21
253.7684120795232
 31
0.0
  0
LINE
  5
1866
330
1446
100
AcDbEntity
  8
1外形線
 48
3.0
100
AcDbLine
 10
565.3675247315094
 20
261.1517315805588
 30
0.0
 11
565.3675247315094
 21
197.0512265171669
 31
0.0
  0
LINE
  5
1867
330
1446
100
AcDbEntity
  8
1外形線
 48
3.0
100
AcDbLine
 10
672.3675247315094
 20
263.0512265171651
 30
0.0
 11
672.3675247315094
 21
197.0512265171669
 31
0.0
  0
LINE
  5
1868
330
1446
100
AcDbEntity
  8
1外形線
 48
3.0
100
AcDbLine
 10
669.3675247315094
 20
264.051226517163
 30
0.0
 11
669.3675247315094
 21
197.0512265171669
 31
0.0
  0
LINE
  5
1869
330
1446
100
AcDbEntity
  8
1外形線
 48
3.0
100
AcDbLine
 10
657.3675247315112
 20
252.8796536419099
 30
0.0
 11
657.3675247315112
 21
264.051226517163
 31
0.0
  0
LINE
  5
186A
330
1446
100
AcDbEntity
  8
1外形線
 48
3.0
100
AcDbLine
 10
576.5390976067627
 20
197.0512265171669
 30
0.0
 11
576.5390976067627
 21
274.5940574402951
 31
0.0
  0
LINE
  5
186B
330
1446
100
AcDbEntity
  8
1外形線
 48
3.0
100
AcDbLine
 10
565.3675247315094
 20
137.051226517163
 30
0.0
 11
565.3675247315094
 21
141.051226517163
 31
0.0
  0
LINE
  5
186C
330
1446
100
AcDbEntity
  8
1外形線
 48
3.0
100
AcDbLine
 10
567.3675247315094
 20
142.051226517163
 30
0.0
 11
566.3675247315094
 21
142.051226517163
 31
0.0
  0
LINE
  5
186D
330
1446
100
AcDbEntity
  8
1外形線
 48
3.0
100
AcDbLine
 10
576.5390976067664
 20
142.051226517163
 30
0.0
 11
576.5390976067664
 21
137.051226517163
 31
0.0
  0
ARC
  5
186E
330
1446
100
AcDbEntity
  8
1外形線
 48
3.0
100
AcDbCircle
 10
566.3675247315092
 20
141.051226517163
 30
0.0
 40
1.0
100
AcDbArc
 50
89.99999999999998
 51
180.0
  0
LINE
  5
186F
330
1446
100
AcDbEntity
  8
1外形線
 48
3.0
100
AcDbLine
 10
567.3675247315094
 20
142.0512265171596
 30
0.0
 11
632.3675247315077
 21
142.051226517163
 31
0.0
  0
LINE
  5
1871
330
1446
100
AcDbEntity
  8
1外形線
 48
3.0
100
AcDbLine
 10
251.641255081041
 20
67.05122651716329
 30
0.0
 11
176.6412550810409
 21
67.05122651716329
 31
0.0
  0
LINE
  5
1872
330
1446
100
AcDbEntity
  8
1外形線
 48
3.0
100
AcDbLine
 10
251.641255081041
 20
69.55122651716329
 30
0.0
 11
176.6412550810409
 21
69.55122651716329
 31
0.0
  0
LINE
  5
1873
330
1446
100
AcDbEntity
  8
1外形線
 48
3.0
100
AcDbLine
 10
174.6412550810409
 20
67.05122651716329
 30
0.0
 11
176.6412550810409
 21
67.05122651716329
 31
0.0
  0
LINE
  5
1875
330
1446
100
AcDbEntity
  8
1外形線
 48
3.0
100
AcDbLine
 10
631.3675247315094
 20
67.05122651716329
 30
0.0
 11
540.3675247315094
 21
67.05122651716329
 31
0.0
  0
LINE
  5
1876
330
1446
100
AcDbEntity
  8
1外形線
 48
3.0
100
AcDbLine
 10
253.641255081041
 20
67.05122651716329
 30
0.0
 11
251.641255081041
 21
67.05122651716329
 31
0.0
  0
ARC
  5
1877
330
1446
100
AcDbEntity
  8
1外形線
 48
3.0
100
AcDbCircle
 10
631.367524731509
 20
68.05122651716327
 30
0.0
 40
1.0
100
AcDbArc
 50
270.0
 51
0.0
  0
TEXT
  5
1A42
330
1446
100
AcDbEntity
  8
1外形線
100
AcDbText
 10
57.58287312397055
 20
26.75466542580079
 30
0.0
 40
10.0
  1
最小時
  7
KANJI
100
AcDbText
  0
TEXT
  5
1A43
330
1446
100
AcDbEntity
  8
1外形線
100
AcDbText
 10
197.9142348843745
 20
26.75466542580079
 30
0.0
 40
10.0
  1
最長時
  7
KANJI
100
AcDbText
  0
TEXT
  5
1A44
330
1446
100
AcDbEntity
  8
1外形線
100
AcDbText
 10
405.3163204812695
 20
26.75466542580079
 30
0.0
 40
10.0
  1
最小時
  7
KANJI
100
AcDbText
  0
TEXT
  5
1A45
330
1446
100
AcDbEntity
  8
1外形線
100
AcDbText
 10
586.0685447333342
 20
26.75466542580079
 30
0.0
 40
10.0
  1
最長時
  7
KANJI
100
AcDbText
  0
TEXT
  5
1A46
330
1446
100
AcDbEntity
  8
1外形線
100
AcDbText
 10
53.14063562416595
 20
391.4573279946582
 30
0.0
 40
10.0
  1
MCS-75
  7
KANJI
100
AcDbText
  0
LWPOLYLINE
  5
1A47
330
1446
100
AcDbEntity
  8
1外形線
 48
3.0
100
AcDbPolyline
 90
        4
 70
     1
 43
0.0
 10
10.0
 20
441.1295904676885
 10
698.9208860102444
 20
441.1295904676885
 10
698.9208860102444
 20
10.0
 10
10.0
 20
10.0
  0
TEXT
  5
1C04
330
1446
100
AcDbEntity
  8
1外形線
100
AcDbText
 10
57.58287312397043
 20
-404.3749250418876
 30
0.0
 40
10.0
  1
最小時
  7
KANJI
100
AcDbText
  0
TEXT
  5
1C05
330
1446
100
AcDbEntity
  8
1外形線
100
AcDbText
 10
197.9142348843744
 20
-404.3749250418876
 30
0.0
 40
10.0
  1
最長時
  7
KANJI
100
AcDbText
  0
TEXT
  5
1C06
330
1446
100
AcDbEntity
  8
1外形線
100
AcDbText
 10
405.3163204812694
 20
-404.3749250418876
 30
0.0
 40
10.0
  1
最小時
  7
KANJI
100
AcDbText
  0
TEXT
  5
1C07
330
1446
100
AcDbEntity
  8
1外形線
100
AcDbText
 10
586.0685447333342
 20
-404.3749250418876
 30
0.0
 40
10.0
  1
最長時
  7
KANJI
100
AcDbText
  0
TEXT
  5
1C08
330
1446
100
AcDbEntity
  8
1外形線
100
AcDbText
 10
53.14063562416584
 20
-39.67226247303029
 30
0.0
 40
10.0
  1
MCS-85
  7
KANJI
100
AcDbText
  0
LWPOLYLINE
  5
1C09
330
1446
100
AcDbEntity
  8
1外形線
 48
3.0
100
AcDbPolyline
 90
        4
 70
     1
 43
0.0
 10
9.999999999999886
 20
10.0
 10
698.9208860102443
 20
10.0
 10
698.9208860102443
 20
-421.1295904676885
 10
9.999999999999886
 20
-421.1295904676885
  0
LINE
  5
1C78
330
1446
100
AcDbEntity
  8
1外形線
100
AcDbLine
 10
39.90679340119107
 20
-382.9307298945397
 30
0.0
 11
129.9067934011912
 21
-382.9307298945397
 31
0.0
  0
LINE
  5
1C79
330
1446
100
AcDbEntity
  8
1外形線
100
AcDbLine
 10
42.40679340119136
 20
-380.4307298945399
 30
0.0
 11
127.4067934011914
 21
-380.4307298945396
 31
0.0
  0
LINE
  5
1C7A
330
1446
100
AcDbEntity
  8
1外形線
100
AcDbLine
 10
39.90679340119141
 20
-240.0017977064056
 30
0.0
 11
39.90679340119113
 21
-382.9307298945397
 31
0.0
  0
LINE
  5
1C7B
330
1446
100
AcDbEntity
  8
1外形線
100
AcDbLine
 10
42.40679340119135
 20
-382.9307298945396
 30
0.0
 11
42.40679340119135
 21
-327.5017977064051
 31
0.0
  0
LINE
  5
1C7C
330
1446
100
AcDbEntity
  8
1外形線
100
AcDbLine
 10
42.10349254229202
 20
-322.198496847506
 30
0.0
 11
54.17456035415773
 21
-310.1274290356404
 31
0.0
  0
ARC
  5
1C7D
330
1446
100
AcDbEntity
  8
1外形線
100
AcDbCircle
 10
47.40679340119135
 20
-327.5017977064051
 30
0.0
 40
5.0
100
AcDbArc
 50
134.9999999999996
 51
180.0
  0
ARC
  5
1C7E
330
1446
100
AcDbEntity
  8
1外形線
100
AcDbCircle
 10
47.40679340119135
 20
-327.5017977064051
 30
0.0
 40
7.500000000000111
100
AcDbArc
 50
134.9999999999996
 51
180.0
  0
LINE
  5
1C7F
330
1446
100
AcDbEntity
  8
1外形線
100
AcDbLine
 10
59.47786121305654
 20
-307.9307298945396
 30
0.0
 11
110.335725589326
 21
-307.9307298945395
 31
0.0
  0
LINE
  5
1C80
330
1446
100
AcDbEntity
  8
1外形線
100
AcDbLine
 10
59.47786121305654
 20
-310.4307298945396
 30
0.0
 11
110.335725589326
 21
-310.4307298945396
 31
0.0
  0
LINE
  5
1C81
330
1446
100
AcDbEntity
  8
1外形線
100
AcDbLine
 10
43.87125949525835
 20
-323.9662638004725
 30
0.0
 11
55.94232730712423
 21
-311.8951959886071
 31
0.0
  0
ARC
  5
1C82
330
1446
100
AcDbEntity
  8
1外形線
100
AcDbCircle
 10
59.47786121305654
 20
-315.4307298945396
 30
0.0
 40
7.500000000000111
100
AcDbArc
 50
90.0
 51
134.9999999999996
  0
ARC
  5
1C83
330
1446
100
AcDbEntity
  8
1外形線
100
AcDbCircle
 10
59.47786121305654
 20
-315.4307298945396
 30
0.0
 40
5.0
100
AcDbArc
 50
90.0
 51
134.9999999999996
  0
LINE
  5
1C85
330
1446
100
AcDbEntity
  8
1外形線
100
AcDbLine
 10
127.4067934011914
 20
-382.9307298945397
 30
0.0
 11
127.406793401191
 21
-327.5017977064053
 31
0.0
  0
ARC
  5
1C86
330
1446
100
AcDbEntity
  8
1外形線
100
AcDbCircle
 10
110.335725589326
 20
-315.4307298945396
 30
0.0
 40
7.500000000000111
100
AcDbArc
 50
45.00000000000039
 51
90.0
  0
ARC
  5
1C87
330
1446
100
AcDbEntity
  8
1外形線
100
AcDbCircle
 10
110.335725589326
 20
-315.4307298945396
 30
0.0
 40
5.0
100
AcDbArc
 50
45.00000000000039
 51
90.0
  0
ARC
  5
1C88
330
1446
100
AcDbEntity
  8
1外形線
100
AcDbCircle
 10
122.4067934011912
 20
-327.5017977064051
 30
0.0
 40
7.500000000000111
100
AcDbArc
 50
0.0
 51
45.00000000000039
  0
ARC
  5
1C89
330
1446
100
AcDbEntity
  8
1外形線
100
AcDbCircle
 10
122.4067934011912
 20
-327.5017977064051
 30
0.0
 40
5.0
100
AcDbArc
 50
0.0
 51
45.00000000000039
  0
LINE
  5
1C8A
330
1446
100
AcDbEntity
  8
1外形線
100
AcDbLine
 10
125.942327307124
 20
-323.9662638004725
 30
0.0
 11
113.8712594952583
 21
-311.8951959886071
 31
0.0
  0
LINE
  5
1C8D
330
1446
100
AcDbEntity
  8
1外形線
 48
3.0
100
AcDbLine
 10
357.452352130933
 20
-308.9307298945398
 30
0.0
 11
357.4523521309351
 21
-382.9307298945399
 31
0.0
  0
LINE
  5
1C8E
330
1446
100
AcDbEntity
  8
1外形線
 48
3.0
100
AcDbLine
 10
360.452352130933
 20
-307.9307298945398
 30
0.0
 11
360.4523521309351
 21
-382.9307298945399
 31
0.0
  0
LINE
  5
1C8F
330
1446
100
AcDbEntity
  8
1外形線
 48
3.0
100
AcDbLine
 10
360.4523521309332
 20
-307.9307298945397
 30
0.0
 11
357.4523521309333
 21
-308.9307298945397
 31
0.0
  0
LINE
  5
1C90
330
1446
100
AcDbEntity
  8
1外形線
 48
3.0
100
AcDbLine
 10
360.4523521309332
 20
-307.9307298945397
 30
0.0
 11
375.4523521309346
 21
-307.9307298945397
 31
0.0
  0
LINE
  5
1C92
330
1446
100
AcDbEntity
  8
1外形線
 48
3.0
100
AcDbLine
 10
453.4523521309351
 20
-382.9307298945399
 30
0.0
 11
357.4523521309351
 21
-382.9307298945399
 31
0.0
  0
LINE
  5
1C94
330
1446
100
AcDbEntity
  8
1外形線
100
AcDbLine
 10
127.7100942600904
 20
-322.1984968475059
 30
0.0
 11
115.639026448225
 21
-310.1274290356406
 31
0.0
  0
LINE
  5
1C96
330
1446
100
AcDbEntity
  8
1外形線
100
AcDbLine
 10
129.9067934011915
 20
-240.0017977064056
 30
0.0
 11
129.9067934011913
 21
-382.9307298945397
 31
0.0
  0
LINE
  5
1C97
330
1446
100
AcDbEntity
  8
1外形線
100
AcDbLine
 10
357.4523521309335
 20
-324.3951959886069
 30
0.0
 11
375.4523521309346
 21
-324.3951959886069
 31
0.0
  0
LINE
  5
1C9F
330
1446
100
AcDbEntity
  8
1外形線
100
AcDbLine
 10
453.4523521309351
 20
-382.9307298945399
 30
0.0
 11
453.4523521309351
 21
-303.9307298945399
 31
0.0
  0
LINE
  5
1CAF
330
1446
100
AcDbEntity
  8
1外形線
100
AcDbLine
 10
394.9168182250022
 20
-303.9307298945399
 30
0.0
 11
394.9168182250022
 21
-304.9307298945398
 31
0.0
  0
LINE
  5
1CB0
330
1446
100
AcDbEntity
  8
1外形線
 48
3.0
100
AcDbLine
 10
378.4523521309346
 20
-303.93072989454
 30
0.0
 11
378.4523521309346
 21
-304.9307298945397
 31
0.0
  0
ARC
  5
1CB1
330
1446
100
AcDbEntity
  8
1外形線
 48
3.0
100
AcDbCircle
 10
375.4523521309346
 20
-304.9307298945397
 30
0.0
 40
3.0
100
AcDbArc
 50
270.0
 51
0.0
  0
ARC
  5
1CB2
330
1446
100
AcDbEntity
  8
1外形線
 48
3.0
100
AcDbCircle
 10
375.4523521309346
 20
-304.9307298945397
 30
0.0
 40
19.46446609406723
100
AcDbArc
 50
270.0
 51
0.0
  0
LINE
  5
1CB3
330
1446
100
AcDbEntity
  8
1外形線
100
AcDbLine
 10
453.4523521309351
 20
-303.9307298945399
 30
0.0
 11
378.4523521309346
 21
-303.9307298945399
 31
0.0
  0
LINE
  5
1CD5
330
1446
100
AcDbEntity
  8
1外形線
100
AcDbLine
 10
454.8303076661958
 20
-220.7812866668395
 30
0.0
 11
454.8303076661957
 21
-236.7979950783215
 31
0.0
  0
LINE
  5
1CD6
330
1446
100
AcDbEntity
  8
1外形線
100
AcDbLine
 10
475.052352130934
 20
-231.8307298945414
 30
0.0
 11
475.0523521309345
 21
-248.7757826045448
 31
0.0
  0
LINE
  5
1CD8
330
1446
100
AcDbEntity
  8
1外形線
100
AcDbLine
 10
490.052352130935
 20
-232.6307298945398
 30
0.0
 11
490.052352130935
 21
-303.930729894539
 31
0.0
  0
LINE
  5
1CD9
330
1446
100
AcDbEntity
  8
1外形線
100
AcDbLine
 10
394.9774428711702
 20
-221.3109686275151
 30
0.0
 11
394.9774428711702
 21
-303.9307298945399
 31
0.0
  0
LINE
  5
1CDA
330
1446
100
AcDbEntity
  8
1外形線
100
AcDbLine
 10
487.0523521309349
 20
-231.8307298945395
 30
0.0
 11
487.0523521309349
 21
-303.930729894539
 31
0.0
  0
LINE
  5
1CDB
330
1446
100
AcDbEntity
  8
1外形線
100
AcDbLine
 10
457.1165847740225
 20
-221.719598538591
 30
0.0
 11
472.7660750231069
 21
-230.5418612504885
 31
0.0
  0
ARC
  5
1CDC
330
1446
100
AcDbEntity
  8
1外形線
100
AcDbCircle
 10
452.2057609633551
 20
-230.4307298945399
 30
0.0
 40
10.0
100
AcDbArc
 50
60.58825180421819
 51
90.0
  0
LINE
  5
1CDD
330
1446
100
AcDbEntity
  8
1外形線
100
AcDbLine
 10
381.3227056753059
 20
-234.0854670904038
 30
0.0
 11
392.1070893267982
 21
-223.3010834389109
 31
0.0
  0
ARC
  5
1CDE
330
1446
100
AcDbEntity
  8
1外形線
100
AcDbCircle
 10
399.0367357824252
 20
-230.2307298945355
 30
0.0
 40
9.8
100
AcDbArc
 50
89.99999999998697
 51
135.0000000000092
  0
LINE
  5
1CDF
330
1446
100
AcDbEntity
  8
1外形線
100
AcDbLine
 10
399.0367357824265
 20
-220.4307298945399
 30
0.0
 11
452.2057609633551
 21
-220.4307298945399
 31
0.0
  0
LINE
  5
1CE0
330
1446
100
AcDbEntity
  8
1外形線
100
AcDbLine
 10
487.0523521309364
 20
-231.8307298945395
 30
0.0
 11
490.052352130935
 21
-232.6307298945398
 31
0.0
  0
LINE
  5
1CE1
330
1446
100
AcDbEntity
  8
1外形線
100
AcDbLine
 10
487.0523521309364
 20
-231.8307298945395
 30
0.0
 11
477.6768988337748
 21
-231.8307298945405
 31
0.0
  0
ARC
  5
1CE2
330
1446
100
AcDbEntity
  8
1外形線
100
AcDbCircle
 10
477.6768988337742
 20
-221.8307298945405
 30
0.0
 40
10.0
100
AcDbArc
 50
240.5882518042182
 51
270.0
  0
LINE
  5
1CE4
330
1446
100
AcDbEntity
  8
1外形線
100
AcDbLine
 10
378.4523521309346
 20
-303.9307298945399
 30
0.0
 11
490.052352130935
 21
-303.930729894539
 31
0.0
  0
LINE
  5
1CE5
330
1446
100
AcDbEntity
  8
1外形線
100
AcDbLine
 10
457.2841682964893
 20
-237.9244428958767
 30
0.0
 11
472.5984915006405
 21
-247.6493347869886
 31
0.0
  0
ARC
  5
1CE6
330
1446
100
AcDbEntity
  8
1外形線
100
AcDbCircle
 10
451.92349290668
 20
-246.3661938614708
 30
0.0
 40
10.0
100
AcDbArc
 50
57.58366172285432
 51
90.0
  0
LINE
  5
1CE7
330
1446
100
AcDbEntity
  8
1外形線
100
AcDbLine
 10
379.9030341933711
 20
-236.3661938614708
 30
0.0
 11
451.92349290668
 21
-236.3661938614708
 31
0.0
  0
LINE
  5
1CE9
330
1446
100
AcDbEntity
  8
1外形線
100
AcDbLine
 10
490.052352130935
 20
-249.2075838213954
 30
0.0
 11
477.9591668904494
 21
-249.2075838213945
 31
0.0
  0
ARC
  5
1CEA
330
1446
100
AcDbEntity
  8
1外形線
100
AcDbCircle
 10
477.9591668904498
 20
-239.2075838213945
 30
0.0
 40
10.0
100
AcDbArc
 50
237.5836617228544
 51
270.0
  0
LINE
  5
1D01
330
1446
100
AcDbEntity
  8
1外形線
100
AcDbLine
 10
378.4523521309346
 20
-303.9307298945399
 30
0.0
 11
378.4523521309342
 21
-241.0151135460319
 31
0.0
  0
ARC
  5
1D03
330
1446
100
AcDbEntity
  8
1外形線
100
AcDbCircle
 10
388.2523521309342
 20
-241.0151135460318
 30
0.0
 40
9.8
100
AcDbArc
 50
135.0000000000001
 51
180.0
  0
LINE
  5
1D05
330
1446
100
AcDbEntity
  8
1外形線
 48
3.0
100
AcDbLine
 10
536.3675247315073
 20
-308.9307298945399
 30
0.0
 11
536.3675247315094
 21
-382.93072989454
 31
0.0
  0
LINE
  5
1D06
330
1446
100
AcDbEntity
  8
1外形線
 48
3.0
100
AcDbLine
 10
539.3675247315074
 20
-307.9307298945399
 30
0.0
 11
539.3675247315094
 21
-382.93072989454
 31
0.0
  0
LINE
  5
1D07
330
1446
100
AcDbEntity
  8
1外形線
 48
3.0
100
AcDbLine
 10
539.3675247315075
 20
-307.9307298945398
 30
0.0
 11
536.3675247315076
 21
-308.9307298945398
 31
0.0
  0
LINE
  5
1D08
330
1446
100
AcDbEntity
  8
1外形線
 48
3.0
100
AcDbLine
 10
539.3675247315075
 20
-307.9307298945398
 30
0.0
 11
554.3675247315089
 21
-307.9307298945398
 31
0.0
  0
ARC
  5
1D09
330
1446
100
AcDbEntity
  8
1外形線
 48
3.0
100
AcDbCircle
 10
554.3675247315089
 20
-304.9307298945398
 30
0.0
 40
3.0
100
AcDbArc
 50
270.0
 51
0.0
  0
ARC
  5
1D0A
330
1446
100
AcDbEntity
  8
1外形線
 48
3.0
100
AcDbCircle
 10
554.3675247315089
 20
-304.9307298945398
 30
0.0
 40
19.46446609406723
100
AcDbArc
 50
270.0
 51
0.0
  0
LINE
  5
1D0B
330
1446
100
AcDbEntity
  8
1外形線
 48
3.0
100
AcDbLine
 10
632.3675247315094
 20
-382.93072989454
 30
0.0
 11
536.3675247315094
 21
-382.93072989454
 31
0.0
  0
LINE
  5
1D0C
330
1446
100
AcDbEntity
  8
1外形線
100
AcDbLine
 10
536.3675247315078
 20
-324.3951959886071
 30
0.0
 11
554.3675247315089
 21
-324.3951959886071
 31
0.0
  0
LINE
  5
1D0D
330
1446
100
AcDbEntity
  8
1外形線
100
AcDbLine
 10
632.3675247315094
 20
-382.93072989454
 30
0.0
 11
632.3675247315094
 21
-247.9307298945395
 31
0.0
  0
LINE
  5
1D0E
330
1446
100
AcDbEntity
  8
1外形線
100
AcDbLine
 10
573.8319908255765
 20
-303.93072989454
 30
0.0
 11
573.8319908255765
 21
-304.9307298945399
 31
0.0
  0
LINE
  5
1D0F
330
1446
100
AcDbEntity
  8
1外形線
 48
3.0
100
AcDbLine
 10
557.3675247315089
 20
-304.43072989454
 30
0.0
 11
557.3675247315089
 21
-304.9307298945398
 31
0.0
  0
LINE
  5
1D10
330
1446
100
AcDbEntity
  8
1外形線
100
AcDbLine
 10
632.3675247315094
 20
-303.93072989454
 30
0.0
 11
557.8675247315089
 21
-303.93072989454
 31
0.0
  0
LINE
  5
1D11
330
1446
100
AcDbEntity
  8
1外形線
100
AcDbLine
 10
633.7454802667702
 20
-164.7812866668396
 30
0.0
 11
633.74548026677
 21
-180.7979950783216
 31
0.0
  0
LINE
  5
1D12
330
1446
100
AcDbEntity
  8
1外形線
100
AcDbLine
 10
653.9675247315084
 20
-175.8307298945415
 30
0.0
 11
653.9675247315089
 21
-192.7757826045449
 31
0.0
  0
LINE
  5
1D13
330
1446
100
AcDbEntity
  8
1外形線
100
AcDbLine
 10
668.9675247315093
 20
-176.6307298945398
 30
0.0
 11
668.9675247315093
 21
-247.9307298945391
 31
0.0
  0
LINE
  5
1D14
330
1446
100
AcDbEntity
  8
1外形線
100
AcDbLine
 10
573.8926154717445
 20
-165.3109686275152
 30
0.0
 11
573.8926154717445
 21
-247.93072989454
 31
0.0
  0
LINE
  5
1D15
330
1446
100
AcDbEntity
  8
1外形線
100
AcDbLine
 10
665.9675247315093
 20
-175.8307298945396
 30
0.0
 11
665.9675247315093
 21
-247.9307298945391
 31
0.0
  0
LINE
  5
1D16
330
1446
100
AcDbEntity
  8
1外形線
100
AcDbLine
 10
636.0317573745968
 20
-165.7195985385911
 30
0.0
 11
651.6812476236813
 21
-174.5418612504886
 31
0.0
  0
ARC
  5
1D17
330
1446
100
AcDbEntity
  8
1外形線
100
AcDbCircle
 10
631.1209335639294
 20
-174.43072989454
 30
0.0
 40
10.0
100
AcDbArc
 50
60.58825180421816
 51
90.0
  0
LINE
  5
1D18
330
1446
100
AcDbEntity
  8
1外形線
100
AcDbLine
 10
560.2378782758802
 20
-178.0854670904039
 30
0.0
 11
571.0222619273726
 21
-167.301083438911
 31
0.0
  0
ARC
  5
1D19
330
1446
100
AcDbEntity
  8
1外形線
100
AcDbCircle
 10
577.9519083829995
 20
-174.2307298945356
 30
0.0
 40
9.8
100
AcDbArc
 50
89.99999999998697
 51
135.0000000000093
  0
LINE
  5
1D1A
330
1446
100
AcDbEntity
  8
1外形線
100
AcDbLine
 10
577.9519083830008
 20
-164.43072989454
 30
0.0
 11
631.1209335639294
 21
-164.43072989454
 31
0.0
  0
LINE
  5
1D1B
330
1446
100
AcDbEntity
  8
1外形線
100
AcDbLine
 10
665.9675247315107
 20
-175.8307298945396
 30
0.0
 11
668.9675247315093
 21
-176.6307298945398
 31
0.0
  0
LINE
  5
1D1C
330
1446
100
AcDbEntity
  8
1外形線
100
AcDbLine
 10
665.9675247315107
 20
-175.8307298945396
 30
0.0
 11
656.5920714343491
 21
-175.8307298945406
 31
0.0
  0
ARC
  5
1D1D
330
1446
100
AcDbEntity
  8
1外形線
100
AcDbCircle
 10
656.5920714343486
 20
-165.8307298945406
 30
0.0
 40
10.0
100
AcDbArc
 50
240.5882518042182
 51
270.0
  0
LINE
  5
1D1E
330
1446
100
AcDbEntity
  8
1外形線
100
AcDbLine
 10
557.3675247315089
 20
-247.93072989454
 30
0.0
 11
668.9675247315093
 21
-247.9307298945391
 31
0.0
  0
LINE
  5
1D1F
330
1446
100
AcDbEntity
  8
1外形線
100
AcDbLine
 10
636.1993408970637
 20
-181.9244428958768
 30
0.0
 11
651.5136641012149
 21
-191.6493347869886
 31
0.0
  0
ARC
  5
1D20
330
1446
100
AcDbEntity
  8
1外形線
100
AcDbCircle
 10
630.8386655072544
 20
-190.3661938614709
 30
0.0
 40
10.0
100
AcDbArc
 50
57.5836617228546
 51
90.0
  0
LINE
  5
1D21
330
1446
100
AcDbEntity
  8
1外形線
100
AcDbLine
 10
558.8182067939454
 20
-180.3661938614709
 30
0.0
 11
630.8386655072544
 21
-180.3661938614709
 31
0.0
  0
LINE
  5
1D22
330
1446
100
AcDbEntity
  8
1外形線
100
AcDbLine
 10
668.9675247315093
 20
-193.2075838213954
 30
0.0
 11
656.8743394910237
 21
-193.2075838213945
 31
0.0
  0
ARC
  5
1D23
330
1446
100
AcDbEntity
  8
1外形線
100
AcDbCircle
 10
656.8743394910242
 20
-183.2075838213945
 30
0.0
 40
10.0
100
AcDbArc
 50
237.5836617228546
 51
270.0
  0
LINE
  5
1D24
330
1446
100
AcDbEntity
  8
1外形線
100
AcDbLine
 10
557.3675247315089
 20
-247.93072989454
 30
0.0
 11
557.3675247315085
 21
-185.015113546032
 31
0.0
  0
ARC
  5
1D25
330
1446
100
AcDbEntity
  8
1外形線
100
AcDbCircle
 10
567.1675247315086
 20
-185.0151135460319
 30
0.0
 40
9.8
100
AcDbArc
 50
135.0000000000001
 51
180.0
  0
LINE
  5
1D26
330
1446
100
AcDbEntity
  8
1外形線
 48
3.0
100
AcDbLine
 10
559.3675247315091
 20
-303.9307298945402
 30
0.0
 11
559.3675247315089
 21
-247.9307298945363
 31
0.0
  0
ARC
  5
1D27
330
1446
100
AcDbEntity
  8
1外形線
 48
3.0
100
AcDbCircle
 10
557.8675247315089
 20
-304.43072989454
 30
0.0
 40
0.5
100
AcDbArc
 50
90.0
 51
180.0
  0
LINE
  5
1D28
330
1446
100
AcDbEntity
  8
1外形線
100
AcDbLine
 10
575.8926154717446
 20
-247.93072989454
 30
0.0
 11
575.8926154717446
 21
-303.9307298945402
 31
0.0
  0
LINE
  5
1D2A
330
1446
100
AcDbEntity
  8
1外形線
100
AcDbLine
 10
42.10349254229202
 20
-234.6984968475065
 30
0.0
 11
54.17456035415773
 21
-222.6274290356408
 31
0.0
  0
ARC
  5
1D2B
330
1446
100
AcDbEntity
  8
1外形線
100
AcDbCircle
 10
47.40679340119135
 20
-240.0017977064056
 30
0.0
 40
7.500000000000111
100
AcDbArc
 50
134.9999999999996
 51
180.0
  0
LINE
  5
1D2C
330
1446
100
AcDbEntity
  8
1外形線
100
AcDbLine
 10
59.47786121305654
 20
-220.43072989454
 30
0.0
 11
110.335725589326
 21
-220.4307298945399
 31
0.0
  0
ARC
  5
1D2D
330
1446
100
AcDbEntity
  8
1外形線
100
AcDbCircle
 10
59.47786121305654
 20
-227.9307298945401
 30
0.0
 40
7.500000000000111
100
AcDbArc
 50
90.0
 51
134.9999999999996
  0
ARC
  5
1D2E
330
1446
100
AcDbEntity
  8
1外形線
100
AcDbCircle
 10
110.335725589326
 20
-227.9307298945401
 30
0.0
 40
7.500000000000111
100
AcDbArc
 50
45.00000000000043
 51
90.0
  0
ARC
  5
1D2F
330
1446
100
AcDbEntity
  8
1外形線
100
AcDbCircle
 10
122.4067934011912
 20
-240.0017977064056
 30
0.0
 40
7.500000000000111
100
AcDbArc
 50
0.0
 51
45.00000000000043
  0
LINE
  5
1D30
330
1446
100
AcDbEntity
  8
1外形線
100
AcDbLine
 10
127.7100942600904
 20
-234.6984968475064
 30
0.0
 11
115.6390264482248
 21
-222.6274290356408
 31
0.0
  0
LINE
  5
1D34
330
1446
100
AcDbEntity
  8
1外形線
100
AcDbLine
 10
113.442327307124
 20
-308.604381986106
 30
0.0
 11
113.442327307124
 21
-221.1043819861064
 31
0.0
  0
LINE
  5
1D35
330
1446
100
AcDbEntity
  8
1外形線
100
AcDbLine
 10
40.58044549275785
 20
-236.8951959886073
 30
0.0
 11
129.2331413096247
 21
-236.8951959886073
 31
0.0
  0
LINE
  5
1D36
330
1446
100
AcDbEntity
  8
1外形線
100
AcDbLine
 10
56.37125949525842
 20
-308.604381986106
 30
0.0
 11
56.3712594952584
 21
-221.1043819861064
 31
0.0
  0
LINE
  5
1D38
330
1446
100
AcDbEntity
  8
1外形線
100
AcDbLine
 10
129.9067934011914
 20
-303.9307298945399
 30
0.0
 11
39.90679340119129
 21
-303.9307298945398
 31
0.0
  0
LINE
  5
1D39
330
1446
100
AcDbEntity
  8
1外形線
100
AcDbLine
 10
169.1412550810406
 20
-382.9307298945397
 30
0.0
 11
259.1412550810409
 21
-382.9307298945397
 31
0.0
  0
LINE
  5
1D3A
330
1446
100
AcDbEntity
  8
1外形線
100
AcDbLine
 10
171.6412550810409
 20
-380.4307298945399
 30
0.0
 11
256.641255081041
 21
-380.4307298945396
 31
0.0
  0
LINE
  5
1D3B
330
1446
100
AcDbEntity
  8
1外形線
100
AcDbLine
 10
169.1412550810411
 20
-184.0017977064055
 30
0.0
 11
169.141255081041
 21
-247.9307298945419
 31
0.0
  0
LINE
  5
1D3C
330
1446
100
AcDbEntity
  8
1外形線
100
AcDbLine
 10
171.6412550810409
 20
-382.9307298945396
 30
0.0
 11
171.6412550810409
 21
-327.5017977064051
 31
0.0
  0
LINE
  5
1D3D
330
1446
100
AcDbEntity
  8
1外形線
100
AcDbLine
 10
171.3379542221416
 20
-322.198496847506
 30
0.0
 11
183.4090220340073
 21
-310.1274290356404
 31
0.0
  0
ARC
  5
1D3E
330
1446
100
AcDbEntity
  8
1外形線
100
AcDbCircle
 10
176.6412550810409
 20
-327.5017977064051
 30
0.0
 40
5.0
100
AcDbArc
 50
134.9999999999998
 51
180.0
  0
ARC
  5
1D3F
330
1446
100
AcDbEntity
  8
1外形線
100
AcDbCircle
 10
176.6412550810409
 20
-327.5017977064051
 30
0.0
 40
7.500000000000111
100
AcDbArc
 50
134.9999999999998
 51
180.0
  0
LINE
  5
1D40
330
1446
100
AcDbEntity
  8
1外形線
100
AcDbLine
 10
188.7123228929061
 20
-307.9307298945396
 30
0.0
 11
239.5701872691756
 21
-307.9307298945395
 31
0.0
  0
LINE
  5
1D41
330
1446
100
AcDbEntity
  8
1外形線
100
AcDbLine
 10
188.7123228929061
 20
-310.4307298945396
 30
0.0
 11
239.5701872691756
 21
-310.4307298945396
 31
0.0
  0
LINE
  5
1D42
330
1446
100
AcDbEntity
  8
1外形線
100
AcDbLine
 10
173.1057211751079
 20
-323.9662638004725
 30
0.0
 11
185.1767889869738
 21
-311.8951959886071
 31
0.0
  0
ARC
  5
1D43
330
1446
100
AcDbEntity
  8
1外形線
100
AcDbCircle
 10
188.7123228929061
 20
-315.4307298945396
 30
0.0
 40
7.500000000000111
100
AcDbArc
 50
90.0
 51
134.9999999999998
  0
ARC
  5
1D44
330
1446
100
AcDbEntity
  8
1外形線
100
AcDbCircle
 10
188.7123228929061
 20
-315.4307298945396
 30
0.0
 40
5.0
100
AcDbArc
 50
90.0
 51
134.9999999999998
  0
LINE
  5
1D45
330
1446
100
AcDbEntity
  8
1外形線
100
AcDbLine
 10
259.1412550810412
 20
-184.0017977064055
 30
0.0
 11
259.1412550810411
 21
-247.9307298945421
 31
0.0
  0
LINE
  5
1D46
330
1446
100
AcDbEntity
  8
1外形線
100
AcDbLine
 10
256.641255081041
 20
-382.9307298945397
 30
0.0
 11
256.6412550810406
 21
-327.5017977064053
 31
0.0
  0
ARC
  5
1D47
330
1446
100
AcDbEntity
  8
1外形線
100
AcDbCircle
 10
239.5701872691756
 20
-315.4307298945396
 30
0.0
 40
7.500000000000111
100
AcDbArc
 50
45.0000000000002
 51
90.0
  0
ARC
  5
1D48
330
1446
100
AcDbEntity
  8
1外形線
100
AcDbCircle
 10
239.5701872691756
 20
-315.4307298945396
 30
0.0
 40
5.0
100
AcDbArc
 50
45.0000000000002
 51
90.0
  0
ARC
  5
1D49
330
1446
100
AcDbEntity
  8
1外形線
100
AcDbCircle
 10
251.6412550810408
 20
-327.5017977064051
 30
0.0
 40
7.500000000000111
100
AcDbArc
 50
0.0
 51
45.0000000000002
  0
ARC
  5
1D4A
330
1446
100
AcDbEntity
  8
1外形線
100
AcDbCircle
 10
251.6412550810408
 20
-327.5017977064051
 30
0.0
 40
5.0
100
AcDbArc
 50
0.0
 51
45.0000000000002
  0
LINE
  5
1D4B
330
1446
100
AcDbEntity
  8
1外形線
100
AcDbLine
 10
255.1767889869736
 20
-323.9662638004725
 30
0.0
 11
243.105721175108
 21
-311.8951959886071
 31
0.0
  0
LINE
  5
1D4C
330
1446
100
AcDbEntity
  8
1外形線
100
AcDbLine
 10
256.94455593994
 20
-322.1984968475059
 30
0.0
 11
244.8734881280746
 21
-310.1274290356406
 31
0.0
  0
LINE
  5
1D4D
330
1446
100
AcDbEntity
  8
1外形線
100
AcDbLine
 10
171.3379542221416
 20
-178.6984968475064
 30
0.0
 11
183.4090220340073
 21
-166.6274290356408
 31
0.0
  0
ARC
  5
1D4E
330
1446
100
AcDbEntity
  8
1外形線
100
AcDbCircle
 10
176.6412550810409
 20
-184.0017977064055
 30
0.0
 40
7.500000000000111
100
AcDbArc
 50
134.9999999999998
 51
180.0
  0
LINE
  5
1D4F
330
1446
100
AcDbEntity
  8
1外形線
100
AcDbLine
 10
188.7123228929061
 20
-164.43072989454
 30
0.0
 11
239.5701872691756
 21
-164.4307298945399
 31
0.0
  0
ARC
  5
1D50
330
1446
100
AcDbEntity
  8
1外形線
100
AcDbCircle
 10
188.7123228929061
 20
-171.93072989454
 30
0.0
 40
7.500000000000111
100
AcDbArc
 50
90.0
 51
134.9999999999998
  0
ARC
  5
1D51
330
1446
100
AcDbEntity
  8
1外形線
100
AcDbCircle
 10
239.5701872691756
 20
-171.93072989454
 30
0.0
 40
7.500000000000111
100
AcDbArc
 50
45.0000000000002
 51
90.0
  0
ARC
  5
1D52
330
1446
100
AcDbEntity
  8
1外形線
100
AcDbCircle
 10
251.6412550810408
 20
-184.0017977064055
 30
0.0
 40
7.500000000000111
100
AcDbArc
 50
0.0
 51
45.0000000000002
  0
LINE
  5
1D53
330
1446
100
AcDbEntity
  8
1外形線
100
AcDbLine
 10
256.94455593994
 20
-178.6984968475063
 30
0.0
 11
244.8734881280745
 21
-166.6274290356408
 31
0.0
  0
LINE
  5
1D54
330
1446
100
AcDbEntity
  8
1外形線
100
AcDbLine
 10
242.6767889869736
 20
-308.604381986106
 30
0.0
 11
242.6767889869736
 21
-303.93072989454
 31
0.0
  0
LINE
  5
1D55
330
1446
100
AcDbEntity
  8
1外形線
100
AcDbLine
 10
169.8149071726074
 20
-180.8951959886073
 30
0.0
 11
258.4676029894743
 21
-180.8951959886073
 31
0.0
  0
LINE
  5
1D56
330
1446
100
AcDbEntity
  8
1外形線
100
AcDbLine
 10
185.605721175108
 20
-308.604381986106
 30
0.0
 11
185.605721175108
 21
-303.9307298945398
 31
0.0
  0
LINE
  5
1D57
330
1446
100
AcDbEntity
  8
1外形線
100
AcDbLine
 10
259.141255081041
 20
-303.9307298945399
 30
0.0
 11
169.1412550810409
 21
-303.9307298945398
 31
0.0
  0
LINE
  5
1D59
330
1446
100
AcDbEntity
  8
1外形線
100
AcDbLine
 10
259.1412550810411
 20
-247.9307298945421
 30
0.0
 11
169.141255081041
 21
-247.9307298945419
 31
0.0
  0
LINE
  5
1D5A
330
1446
100
AcDbEntity
  8
1外形線
100
AcDbLine
 10
259.141255081041
 20
-303.93072989454
 30
0.0
 11
259.1412550810409
 21
-382.9307298945397
 31
0.0
  0
LINE
  5
1D5B
330
1446
100
AcDbEntity
  8
1外形線
100
AcDbLine
 10
242.6767889869736
 20
-247.930729894542
 30
0.0
 11
242.6767889869737
 21
-165.1043819861064
 31
0.0
  0
LINE
  5
1D5C
330
1446
100
AcDbEntity
  8
1外形線
100
AcDbLine
 10
185.605721175108
 20
-247.9307298945418
 30
0.0
 11
185.6057211751079
 21
-165.1043819861065
 31
0.0
  0
LINE
  5
1D5D
330
1446
100
AcDbEntity
  8
1外形線
100
AcDbLine
 10
169.1412550810409
 20
-303.9307298945399
 30
0.0
 11
169.1412550810407
 21
-382.9307298945397
 31
0.0
  0
LINE
  5
1D5E
330
1446
100
AcDbEntity
  8
1外形線
 48
3.0
100
AcDbLine
 10
171.141255081041
 20
-303.9307298945399
 30
0.0
 11
171.141255081041
 21
-247.93072989454
 31
0.0
  0
LINE
  5
1D66
330
1446
100
AcDbEntity
  8
1外形線
 48
3.0
100
AcDbLine
 10
189.2625754245976
 20
-303.93072989454
 30
0.0
 11
189.2625754245976
 21
-247.9307298945418
 31
0.0
  0
LINE
  5
1D67
330
1446
100
AcDbEntity
  8
1外形線
 48
3.0
100
AcDbLine
 10
257.1412550810411
 20
-303.9307298945399
 30
0.0
 11
257.1412550810411
 21
-247.93072989454
 31
0.0
  0
LINE
  5
1D68
330
1446
100
AcDbEntity
  8
1外形線
 48
3.0
100
AcDbLine
 10
239.0199347374844
 20
-303.93072989454
 30
0.0
 11
239.0199347374844
 21
-247.9307298945418
 31
0.0
  0
LINE
  5
1D69
330
1446
100
AcDbEntity
  8
1外形線
 48
3.0
100
AcDbLine
 10
357.4523521309341
 20
-97.45299699983014
 30
0.0
 11
357.4523521309341
 21
-9.452996999830247
 31
0.0
  0
LINE
  5
1D6D
330
1446
100
AcDbEntity
  8
1外形線
 48
3.0
100
AcDbLine
 10
357.4523521309341
 20
-9.452996999830247
 30
0.0
 11
360.452352130934
 21
-8.452996999830247
 31
0.0
  0
LINE
  5
1D6E
330
1446
100
AcDbEntity
  8
1外形線
 48
3.0
100
AcDbLine
 10
357.4523521309341
 20
-97.45299699983014
 30
0.0
 11
360.452352130934
 21
-98.45299699983014
 31
0.0
  0
LINE
  5
1D6F
330
1446
100
AcDbEntity
  8
1外形線
100
AcDbLine
 10
360.452352130934
 20
-8.452996999830247
 30
0.0
 11
360.452352130934
 21
-98.45299699983014
 31
0.0
  0
LINE
  5
1D70
330
1446
100
AcDbEntity
  8
1外形線
 48
3.0
100
AcDbLine
 10
490.052352130935
 20
-97.45299699983014
 30
0.0
 11
490.052352130935
 21
-9.452996999830247
 31
0.0
  0
LINE
  5
1D73
330
1446
100
AcDbEntity
  8
1外形線
 48
3.0
100
AcDbLine
 10
490.052352130935
 20
-9.452996999830247
 30
0.0
 11
487.0523521309349
 21
-8.452996999830247
 31
0.0
  0
LINE
  5
1D74
330
1446
100
AcDbEntity
  8
1外形線
 48
3.0
100
AcDbLine
 10
490.052352130935
 20
-97.45299699983014
 30
0.0
 11
487.0523521309349
 21
-98.45299699983014
 31
0.0
  0
LINE
  5
1D75
330
1446
100
AcDbEntity
  8
1外形線
100
AcDbLine
 10
487.0523521309349
 20
-8.452996999830247
 30
0.0
 11
487.0523521309349
 21
-98.45299699983014
 31
0.0
  0
LINE
  5
1D77
330
1446
100
AcDbEntity
  8
1外形線
100
AcDbLine
 10
360.452352130934
 20
-8.452996999830247
 30
0.0
 11
487.0523521309349
 21
-8.452996999830247
 31
0.0
  0
LINE
  5
1D78
330
1446
100
AcDbEntity
  8
1外形線
100
AcDbLine
 10
360.452352130934
 20
-98.45299699983014
 30
0.0
 11
487.0523521309349
 21
-98.45299699983014
 31
0.0
  0
LINE
  5
1D79
330
1446
100
AcDbEntity
  8
1外形線
100
AcDbLine
 10
360.452352130934
 20
-81.98853090576278
 30
0.0
 11
487.0523521309349
 21
-81.98853090576291
 31
0.0
  0
LINE
  5
1D7A
330
1446
100
AcDbEntity
  8
1外形線
100
AcDbLine
 10
360.452352130934
 20
-24.9174630938976
 30
0.0
 11
487.0523521309349
 21
-24.91746309389771
 31
0.0
  0
LINE
  5
1D7B
330
1446
100
AcDbEntity
  8
1外形線
100
AcDbLine
 10
392.7201190839009
 20
-96.256297858729
 30
0.0
 11
380.6490512720353
 21
-84.18523004686335
 31
0.0
  0
ARC
  5
1D7C
330
1446
100
AcDbEntity
  8
1外形線
100
AcDbCircle
 10
398.0234199428
 20
-90.95299699982968
 30
0.0
 40
7.500000000000111
100
AcDbArc
 50
225.0
 51
270.0
  0
LINE
  5
1D7D
330
1446
100
AcDbEntity
  8
1外形線
100
AcDbLine
 10
378.4523521309345
 20
-78.8819291879646
 30
0.0
 11
378.4523521309343
 21
-28.0240648116951
 31
0.0
  0
ARC
  5
1D7E
330
1446
100
AcDbEntity
  8
1外形線
100
AcDbCircle
 10
385.9523521309345
 20
-78.8819291879646
 30
0.0
 40
7.500000000000111
100
AcDbArc
 50
180.0
 51
225.0
  0
ARC
  5
1D7F
330
1446
100
AcDbEntity
  8
1外形線
100
AcDbCircle
 10
385.9523521309345
 20
-28.0240648116951
 30
0.0
 40
7.500000000000111
100
AcDbArc
 50
134.9999999999999
 51
180.0
  0
ARC
  5
1D80
330
1446
100
AcDbEntity
  8
1外形線
100
AcDbCircle
 10
398.0234199428
 20
-15.95299699982985
 30
0.0
 40
7.500000000000111
100
AcDbArc
 50
90.0
 51
134.9999999999999
  0
LINE
  5
1D81
330
1446
100
AcDbEntity
  8
1外形線
100
AcDbLine
 10
392.7201190839008
 20
-10.6496961409307
 30
0.0
 11
380.6490512720353
 21
-22.72076395279623
 31
0.0
  0
LINE
  5
1D83
330
1446
100
AcDbEntity
  8
1外形線
100
AcDbLine
 10
394.9774428711702
 20
-97.80661091360594
 30
0.0
 11
394.9774428711702
 21
-9.099383086053592
 31
0.0
  0
LINE
  5
1D84
330
1446
100
AcDbEntity
  8
1外形線
100
AcDbLine
 10
454.8303076661958
 20
-98.45299699983014
 30
0.0
 11
454.8303076661958
 21
-8.452996999830247
 31
0.0
  0
LINE
  5
1D85
330
1446
100
AcDbEntity
  8
1外形線
100
AcDbLine
 10
475.0523521309343
 20
-98.45299699983014
 30
0.0
 11
475.0523521309343
 21
-8.452996999830247
 31
0.0
  0
ENDSEC
  0
SECTION
  2
OBJECTS
  0
DICTIONARY
  5
1434
330
0
100
AcDbDictionary
281
     1
  3
ACAD_COLOR
350
1B1E
  3
ACAD_GROUP
350
1435
  3
ACAD_LAYOUT
350
1441
  3
ACAD_MATERIAL
350
1AEC
  3
ACAD_MLEADERSTYLE
350
1B33
  3
ACAD_MLINESTYLE
350
143E
  3
ACAD_PLOTSETTINGS
350
1440
  3
ACAD_PLOTSTYLENAME
350
1436
  3
ACAD_SCALELIST
350
1B21
  3
ACAD_TABLESTYLE
350
1B1F
  3
ACAD_VISUALSTYLE
350
1B05
  3
ACDB_RECOMPOSE_DATA
350
1DD9
  3
ACDBVARIABLEDICTIONARY
350
1A48
  3
DWGPROPS
350
1DDA
  0
DICTIONARY
  5
1D92
330
1430
100
AcDbDictionary
280
     1
281
     1
  0
DICTIONARY
  5
14C4
330
142A
100
AcDbDictionary
280
     1
281
     1
  3
ACAD_LAYERSTATES
360
14C5
  0
DICTIONARY
  5
1D86
330
1438
100
AcDbDictionary
280
     1
281
     1
  3
ADSK_XREC_LAYER_RECONCILED
360
1D87
  0
DICTIONARY
  5
1D88
330
144A
100
AcDbDictionary
280
     1
281
     1
  3
ADSK_XREC_LAYER_RECONCILED
360
1D89
  0
DICTIONARY
  5
1D8A
330
144C
100
AcDbDictionary
280
     1
281
     1
  3
ADSK_XREC_LAYER_RECONCILED
360
1D8B
  0
DICTIONARY
  5
1D8C
330
1CA4
100
AcDbDictionary
280
     1
281
     1
  3
ADSK_XREC_LAYER_RECONCILED
360
1D8D
  0
DICTIONARY
  5
1A92
330
1446
100
AcDbDictionary
280
     1
281
     1
  3
ACAD_LAYOUTSELFREF
360
1AE7
  3
ACAD_SORTENTS
360
1C95
  0
DICTIONARY
  5
1A90
330
1442
100
AcDbDictionary
280
     1
281
     1
  3
ACAD_LAYOUTSELFREF
360
1AE6
  0
DICTIONARY
  5
1B1E
102
{ACAD_REACTORS
330
1434
102
}
330
1434
100
AcDbDictionary
281
     1
  0
DICTIONARY
  5
1435
102
{ACAD_REACTORS
330
1434
102
}
330
1434
100
AcDbDictionary
281
     1
  0
DICTIONARY
  5
1441
102
{ACAD_REACTORS
330
1434
102
}
330
1434
100
AcDbDictionary
281
     1
  3
Model
350
1B35
  3
レイアウト1
350
1B36
  0
DICTIONARY
  5
1AEC
102
{ACAD_REACTORS
330
1434
102
}
330
1434
100
AcDbDictionary
281
     1
  3
ByBlock
350
1AF5
  3
ByLayer
350
1AED
  3
Global
350
1AFD
  0
DICTIONARY
  5
1B33
102
{ACAD_REACTORS
330
1434
102
}
330
1434
100
AcDbDictionary
281
     1
  3
Standard
350
1B34
  0
DICTIONARY
  5
143E
102
{ACAD_REACTORS
330
1434
102
}
330
1434
100
AcDbDictionary
281
     1
  3
STANDARD
350
143F
  0
DICTIONARY
  5
1440
102
{ACAD_REACTORS
330
1434
102
}
330
1434
100
AcDbDictionary
281
     1
  0
ACDBDICTIONARYWDFLT
  5
1436
102
{ACAD_REACTORS
330
1434
102
}
330
1434
100
AcDbDictionary
281
     1
  3
Normal
350
1437
100
AcDbDictionaryWithDefault
340
1437
  0
DICTIONARY
  5
1B21
102
{ACAD_REACTORS
330
1434
102
}
330
1434
100
AcDbDictionary
281
     1
  3
A0
350
1B22
  3
A1
350
1B23
  3
A2
350
1B24
  3
A3
350
1B25
  3
A4
350
1B26
  3
A5
350
1B27
  3
A6
350
1B28
  3
A7
350
1B29
  3
A8
350
1B2A
  3
A9
350
1B2B
  3
B0
350
1B2C
  3
B1
350
1B2D
  3
B2
350
1B2E
  3
B3
350
1B2F
  3
B4
350
1B30
  3
B5
350
1B31
  3
B6
350
1B32
  0
DICTIONARY
  5
1B1F
102
{ACAD_REACTORS
330
1434
102
}
330
1434
100
AcDbDictionary
281
     1
  3
Standard
350
1B20
  0
DICTIONARY
  5
1B05
102
{ACAD_REACTORS
330
1434
102
}
330
1434
100
AcDbDictionary
281
     1
  3
2dWireframe
350
1B0B
  3
Basic
350
1B0A
  3
Brighten
350
1B11
  3
ColorChange
350
1B15
  3
Conceptual
350
1B0E
  3
Dim
350
1B10
  3
EdgeColorOff
350
1B1D
  3
Facepattern
350
1B14
  3
Flat
350
1B06
  3
FlatWithEdges
350
1B07
  3
Gouraud
350
1B08
  3
GouraudWithEdges
350
1B09
  3
Hidden
350
1B0D
  3
JitterOff
350
1B1B
  3
Linepattern
350
1B13
  3
OverhangOff
350
1B1C
  3
Realistic
350
1B0F
  3
Shaded
350
1B1A
  3
Shaded with edges
350
1B19
  3
Shades of Gray
350
1B16
  3
Sketchy
350
1B17
  3
Thicken
350
1B12
  3
Wireframe
350
1B0C
  3
X-Ray
350
1B18
  0
XRECORD
  5
1DD9
102
{ACAD_REACTORS
330
1434
102
}
330
1434
100
AcDbXrecord
280
     1
 90
        1
330
1B20
  0
DICTIONARY
  5
1A48
102
{ACAD_REACTORS
330
1434
102
}
330
1434
100
AcDbDictionary
281
     1
  3
CANNOSCALE
350
1DCF
  3
CMLEADERSTYLE
350
1DCE
  3
CTABLESTYLE
350
1DCD
  3
DIMASSOC
350
1A49
  3
INDEXCTL
350
1DD1
  3
SORTENTS
350
1DD0
  3
XCLIPFRAME
350
1DD7
  0
XRECORD
  5
1DDA
102
{ACAD_REACTORS
330
1434
102
}
330
1434
100
AcDbXrecord
280
     1
  1
DWGPROPS COOKIE
  2

  3

  4

  6

  7

  8
ryuji.ikebe
  9

300
=
301
=
302
=
303
=
304
=
305
=
306
=
307
=
308
=
309
=
 40
0.7656719907407408
 41
2454253.600058947
 42
2457872.626188507
  1

 90
        0
  0
DICTIONARY
  5
14C5
102
{ACAD_REACTORS
330
14C4
102
}
330
14C4
100
AcDbDictionary
281
     1
  0
XRECORD
  5
1D87
102
{ACAD_REACTORS
330
1D86
102
}
330
1D86
100
AcDbXrecord
280
     1
290
     1
  0
XRECORD
  5
1D89
102
{ACAD_REACTORS
330
1D88
102
}
330
1D88
100
AcDbXrecord
280
     1
290
     1
  0
XRECORD
  5
1D8B
102
{ACAD_REACTORS
330
1D8A
102
}
330
1D8A
100
AcDbXrecord
280
     1
290
     1
  0
XRECORD
  5
1D8D
102
{ACAD_REACTORS
330
1D8C
102
}
330
1D8C
100
AcDbXrecord
280
     1
290
     1
  0
XRECORD
  5
1AE7
102
{ACAD_REACTORS
330
1A92
102
}
330
1A92
100
AcDbXrecord
280
     1
340
1446
  0
SORTENTSTABLE
  5
1C95
102
{ACAD_REACTORS
330
1A92
102
}
330
1A92
100
AcDbSortentsTable
330
1446
331
1577
  5
1577
331
15B6
  5
15B6
331
1573
  5
1573
331
15B2
  5
15B2
331
1815
  5
1815
331
15AE
  5
15AE
331
15AA
  5
15AA
331
1811
  5
1811
331
1D3F
  5
1D40
331
186C
  5
186C
331
1868
  5
1868
331
1D3B
  5
1D3B
331
156F
  5
156F
331
15A6
  5
15A6
331
180D
  5
180D
331
1567
  5
1567
331
1563
  5
1563
331
1864
  5
1864
331
15A2
  5
15A2
331
1809
  5
1809
331
1805
  5
1805
331
1860
  5
1860
331
159E
  5
159E
331
1CE4
  5
1CE5
331
1801
  5
1801
331
1C8D
  5
1C90
331
1CE0
  5
1CE1
331
1D2F
  5
1D30
331
185C
  5
185C
331
159A
  5
159A
331
1858
  5
1858
331
1C89
  5
1C8A
331
1CDC
  5
1CDD
331
1D2B
  5
1D2C
331
1CD8
  5
1CD9
331
155F
  5
155F
331
1596
  5
1596
331
17FD
  5
17FD
331
1557
  5
1557
331
1553
  5
1553
331
1854
  5
1854
331
1592
  5
1592
331
1C85
  5
1C86
331
1D27
  5
1D11
331
1850
  5
1850
331
158E
  5
158E
331
1D23
  5
1D25
331
1C81
  5
1C81
331
15C9
  5
15C9
331
184C
  5
184C
331
158A
  5
158A
331
1D1F
  5
1D21
331
1D5A
  5
1D47
331
1C7D
  5
1C7D
331
1848
  5
1848
331
1C79
  5
1C79
331
1D1B
  5
1D1D
331
1D56
  5
1D5A
331
1D52
  5
1D54
331
1CB0
  5
1CB3
331
154F
  5
154F
331
1586
  5
1586
331
15C5
  5
15C5
331
1844
  5
1844
331
1582
  5
1582
331
15C1
  5
15C1
331
1D17
  5
1D19
331
157E
  5
157E
331
1D13
  5
1D15
331
1D4E
  5
1D50
331
1C09
  5
1C09
331
1840
  5
1840
331
1A47
  5
1A47
331
15BD
  5
15BD
331
15B9
  5
15B9
331
1A43
  5
1A43
331
1D0F
  5
1D10
331
1D4A
  5
1D4C
331
1C05
  5
1C05
331
183C
  5
183C
331
157A
  5
157A
331
1D0B
  5
1D0C
331
1D46
  5
1D48
331
1D42
  5
1D43
331
1576
  5
1576
331
1877
  5
1877
331
15B5
  5
15B5
331
1572
  5
1572
331
1873
  5
1873
331
15B1
  5
15B1
331
1D07
  5
1D08
331
1814
  5
1814
331
186F
  5
186F
331
15AD
  5
15AD
331
1D03
  5
1D05
331
1810
  5
1810
331
1D3E
  5
1D3F
331
186B
  5
186B
331
1D3A
  5
1D3A
331
156E
  5
156E
331
1566
  5
1566
331
1867
  5
1867
331
15A5
  5
15A5
331
180C
  5
180C
331
1562
  5
1562
331
1863
  5
1863
331
15A1
  5
15A1
331
1C94
  5
1C8E
331
1808
  5
1808
331
1CE7
  5
1CE9
331
1D36
  5
1D36
331
1804
  5
1804
331
185F
  5
185F
331
159D
  5
159D
331
1C90
  5
1C94
331
1599
  5
1599
331
1800
  5
1800
331
1CDF
  5
1CE0
331
1D2E
  5
1D2F
331
185B
  5
185B
331
1C88
  5
1C89
331
1CDB
  5
1CDC
331
1D2A
  5
1D2B
331
155E
  5
155E
331
155A
  5
155A
331
1857
  5
1857
331
1595
  5
1595
331
17FC
  5
17FC
331
1556
  5
1556
331
1552
  5
1552
331
1853
  5
1853
331
1D26
  5
1D28
331
184F
  5
184F
331
158D
  5
158D
331
1D22
  5
1D24
331
1D5D
  5
1D3C
331
1C80
  5
1C80
331
1C7C
  5
1C7C
331
1D1E
  5
1D20
331
1D59
  5
1D5D
331
184B
  5
184B
331
1589
  5
1589
331
1C78
  5
1C78
331
1D1A
  5
1D1C
331
1D55
  5
1D59
331
1CB3
  5
1CD5
331
1D51
  5
1D53
331
154E
  5
154E
331
1847
  5
1847
331
1585
  5
1585
331
1843
  5
1843
331
1581
  5
1581
331
15C0
  5
15C0
331
1CAF
  5
1CB2
331
1D16
  5
1D18
331
15BC
  5
15BC
331
157D
  5
157D
331
1D12
  5
1D14
331
1D4D
  5
1D4F
331
1C08
  5
1C08
331
183F
  5
183F
331
1A46
  5
1A46
331
15B8
  5
15B8
331
1A42
  5
1A42
331
1D0E
  5
1D0F
331
1D49
  5
1D4B
331
1C04
  5
1C04
331
183B
  5
183B
331
1579
  5
1579
331
1D0A
  5
1D0B
331
1D45
  5
1D46
331
1D41
  5
1D42
331
1575
  5
1575
331
1876
  5
1876
331
15B4
  5
15B4
331
1571
  5
1571
331
1872
  5
1872
331
15B0
  5
15B0
331
1D06
  5
1D07
331
1813
  5
1813
331
186E
  5
186E
331
15AC
  5
15AC
331
1C9F
  5
1CB1
331
186A
  5
186A
331
1D3D
  5
1D3E
331
1D39
  5
1D39
331
1CEA
  5
1D01
331
156D
  5
156D
331
180F
  5
180F
331
1569
  5
1569
331
1565
  5
1565
331
1866
  5
1866
331
15A4
  5
15A4
331
1C97
  5
1CB0
331
180B
  5
180B
331
1561
  5
1561
331
1D35
  5
1D35
331
1862
  5
1862
331
15A0
  5
15A0
331
1CE6
  5
1CE7
331
1807
  5
1807
331
1803
  5
1803
331
185E
  5
185E
331
159C
  5
159C
331
1C8F
  5
1C92
331
1CE2
  5
1CE4
331
1598
  5
1598
331
1CDE
  5
1CDF
331
1D2D
  5
1D2E
331
185A
  5
185A
331
1CDA
  5
1CDB
331
155D
  5
155D
331
17FF
  5
17FF
331
1559
  5
1559
331
1555
  5
1555
331
1856
  5
1856
331
1594
  5
1594
331
1C87
  5
1C88
331
17FB
  5
17FB
331
1551
  5
1551
331
1852
  5
1852
331
1C83
  5
1C83
331
1CD6
  5
1CD8
331
1D25
  5
1D27
331
15CB
  5
15CB
331
184E
  5
184E
331
158C
  5
158C
331
1D21
  5
1D23
331
1D5C
  5
1D5B
331
1C7F
  5
1C7F
331
1588
  5
1588
331
1C7B
  5
1C7B
331
1D1D
  5
1D1F
331
184A
  5
184A
331
1D19
  5
1D1B
331
1D54
  5
1D56
331
1CB2
  5
1C9F
331
1D50
  5
1D52
331
15C7
  5
15C7
331
1846
  5
1846
331
1584
  5
1584
331
15C3
  5
15C3
331
1842
  5
1842
331
1580
  5
1580
331
15BF
  5
15BF
331
1D15
  5
1D17
331
15BB
  5
15BB
331
157C
  5
157C
331
1D11
  5
1D13
331
1D4C
  5
1D4E
331
1C07
  5
1C07
331
183E
  5
183E
331
1A45
  5
1A45
331
1D0D
  5
1D0E
331
1D48
  5
1D4A
331
183A
  5
183A
331
1578
  5
1578
331
1D09
  5
1D0A
331
1D44
  5
1D45
331
1D40
  5
1D41
331
15B7
  5
15B7
331
1574
  5
1574
331
1875
  5
1875
331
15B3
  5
15B3
331
1570
  5
1570
331
1871
  5
1871
331
15AF
  5
15AF
331
1D05
  5
1D06
331
1812
  5
1812
331
1D01
  5
1D03
331
186D
  5
186D
331
15AB
  5
15AB
331
1869
  5
1869
331
1D3C
  5
1D3D
331
1D38
  5
1D38
331
1CE9
  5
1CEA
331
156C
  5
156C
331
15A7
  5
15A7
331
180E
  5
180E
331
1568
  5
1568
331
1564
  5
1564
331
1865
  5
1865
331
15A3
  5
15A3
331
1C96
  5
1C85
331
180A
  5
180A
331
1806
  5
1806
331
1560
  5
1560
331
1861
  5
1861
331
159F
  5
159F
331
1D34
  5
1D34
331
1C92
  5
1CAF
331
1CE5
  5
1CE6
331
1802
  5
1802
331
185D
  5
185D
331
159B
  5
159B
331
1D30
  5
1D31
331
1C8E
  5
1C91
331
1CE1
  5
1CE2
331
1859
  5
1859
331
1C8A
  5
1C8B
331
1CDD
  5
1CDE
331
1D2C
  5
1D2D
331
1CD9
  5
1CDA
331
1D28
  5
1D29
331
1597
  5
1597
331
17FE
  5
17FE
331
1558
  5
1558
331
1554
  5
1554
331
1855
  5
1855
331
1593
  5
1593
331
1C86
  5
1C87
331
17FA
  5
17FA
331
1550
  5
1550
331
1851
  5
1851
331
158F
  5
158F
331
1D24
  5
1D26
331
1C82
  5
1C82
331
1CD5
  5
1CD6
331
15CA
  5
15CA
331
184D
  5
184D
331
158B
  5
158B
331
1D20
  5
1D22
331
1D5B
  5
1D57
331
1C7E
  5
1C7E
331
1C7A
  5
1C7A
331
1D1C
  5
1D1E
331
1D57
  5
1D5C
331
1849
  5
1849
331
1D18
  5
1D1A
331
1D53
  5
1D55
331
1CB1
  5
1C97
331
1587
  5
1587
331
15C6
  5
15C6
331
1845
  5
1845
331
1583
  5
1583
331
15C2
  5
15C2
331
1841
  5
1841
331
157F
  5
157F
331
15BE
  5
15BE
331
1D4F
  5
1D51
331
1D14
  5
1D16
331
15BA
  5
15BA
331
1A44
  5
1A44
331
1D10
  5
1D12
331
1D4B
  5
1D4D
331
1C06
  5
1C06
331
183D
  5
183D
331
157B
  5
157B
331
1D0C
  5
1D0D
331
1D47
  5
1D49
331
1D08
  5
1D09
331
1D43
  5
1D44
  0
XRECORD
  5
1AE6
102
{ACAD_REACTORS
330
1A90
102
}
330
1A90
100
AcDbXrecord
280
     1
340
1442
  0
LAYOUT
  5
1B35
102
{ACAD_XDICTIONARY
360
1E0F
102
}
102
{ACAD_REACTORS
330
1441
102
}
330
1441
100
AcDbPlotSettings
  1

  2
SHARP MX-M350N SPDL2_T1
  4

  6

 40
0.0
 41
0.0
 42
0.0
 43
0.0
 44
0.0
 45
0.0
 46
0.0
 47
0.0
 48
0.0
 49
0.0
140
0.0
141
0.0
142
1.0
143
1.0
 70
  1712
 72
     0
 73
     0
 74
     0
  7
mono.ctb
 75
     0
147
1.0
148
0.0
149
0.0
100
AcDbLayout
  1
Model
 70
     1
 71
     0
 10
0.0
 20
0.0
 11
12.0
 21
9.0
 12
0.0
 22
0.0
 32
0.0
 14
0.0
 24
0.0
 34
0.0
 15
0.0
 25
0.0
 35
0.0
146
0.0
 13
0.0
 23
0.0
 33
0.0
 16
1.0
 26
0.0
 36
0.0
 17
0.0
 27
1.0
 37
0.0
 76
     0
330
1446
331
1AC5
  0
LAYOUT
  5
1B36
102
{ACAD_XDICTIONARY
360
1E11
102
}
102
{ACAD_REACTORS
330
1441
102
}
330
1441
100
AcDbPlotSettings
  1

  2
SHARP MX-M350N SPDL2_T1
  4

  6

 40
0.0
 41
0.0
 42
0.0
 43
0.0
 44
0.0
 45
0.0
 46
0.0
 47
0.0
 48
0.0
 49
0.0
140
0.0
141
0.0
142
1.0
143
1.0
 70
   688
 72
     0
 73
     0
 74
     5
  7
mono.ctb
 75
    16
147
1.0
148
0.0
149
0.0
100
AcDbLayout
  1
レイアウト1
 70
     1
 71
     1
 10
0.0
 20
0.0
 11
420.0
 21
297.0
 12
0.0
 22
0.0
 32
0.0
 14
1.000000000000000E+20
 24
1.000000000000000E+20
 34
1.000000000000000E+20
 15
-1.000000000000000E+20
 25
-1.000000000000000E+20
 35
-1.000000000000000E+20
146
0.0
 13
0.0
 23
0.0
 33
0.0
 16
1.0
 26
0.0
 36
0.0
 17
0.0
 27
1.0
 37
0.0
 76
     0
330
1442
  0
MATERIAL
  5
1AF5
102
{ACAD_XDICTIONARY
360
1AF6
102
}
102
{ACAD_REACTORS
330
1AEC
102
}
330
1AEC
100
AcDbMaterial
  1
ByBlock
 72
     0
 43
0.0208333333333333
 43
0.0
 43
0.0
 43
0.0
 43
0.0
 43
0.0208333333333333
 43
0.0
 43
0.0
 43
0.0
 43
0.0
 43
1.0
 43
0.0
 43
0.0
 43
0.0
 43
0.0
 43
1.0
 77
     0
 47
0.0208333333333333
 47
0.0
 47
0.0
 47
0.0
 47
0.0
 47
0.0208333333333333
 47
0.0
 47
0.0
 47
0.0
 47
0.0
 47
1.0
 47
0.0
 47
0.0
 47
0.0
 47
0.0
 47
1.0
171
     0
 49
0.0208333333333333
 49
0.0
 49
0.0
 49
0.0
 49
0.0
 49
0.0208333333333333
 49
0.0
 49
0.0
 49
0.0
 49
0.0
 49
1.0
 49
0.0
 49
0.0
 49
0.0
 49
0.0
 49
1.0
175
     0
142
0.0208333333333333
142
0.0
142
0.0
142
0.0
142
0.0
142
0.0208333333333333
142
0.0
142
0.0
142
0.0
142
0.0
142
1.0
142
0.0
142
0.0
142
0.0
142
0.0
142
1.0
179
     0
144
0.0208333333333333
144
0.0
144
0.0
144
0.0
144
0.0
144
0.0208333333333333
144
0.0
144
0.0
144
0.0
144
0.0
144
1.0
144
0.0
144
0.0
144
0.0
144
0.0
144
1.0
147
0.0208333333333333
147
0.0
147
0.0
147
0.0
147
0.0
147
0.0208333333333333
147
0.0
147
0.0
147
0.0
147
0.0
147
1.0
147
0.0
147
0.0
147
0.0
147
0.0
147
1.0
  0
MATERIAL
  5
1AED
102
{ACAD_XDICTIONARY
360
1AEE
102
}
102
{ACAD_REACTORS
330
1AEC
102
}
330
1AEC
100
AcDbMaterial
  1
ByLayer
 72
     0
 43
0.0208333333333333
 43
0.0
 43
0.0
 43
0.0
 43
0.0
 43
0.0208333333333333
 43
0.0
 43
0.0
 43
0.0
 43
0.0
 43
1.0
 43
0.0
 43
0.0
 43
0.0
 43
0.0
 43
1.0
 77
     0
 47
0.0208333333333333
 47
0.0
 47
0.0
 47
0.0
 47
0.0
 47
0.0208333333333333
 47
0.0
 47
0.0
 47
0.0
 47
0.0
 47
1.0
 47
0.0
 47
0.0
 47
0.0
 47
0.0
 47
1.0
171
     0
 49
0.0208333333333333
 49
0.0
 49
0.0
 49
0.0
 49
0.0
 49
0.0208333333333333
 49
0.0
 49
0.0
 49
0.0
 49
0.0
 49
1.0
 49
0.0
 49
0.0
 49
0.0
 49
0.0
 49
1.0
175
     0
142
0.0208333333333333
142
0.0
142
0.0
142
0.0
142
0.0
142
0.0208333333333333
142
0.0
142
0.0
142
0.0
142
0.0
142
1.0
142
0.0
142
0.0
142
0.0
142
0.0
142
1.0
179
     0
144
0.0208333333333333
144
0.0
144
0.0
144
0.0
144
0.0
144
0.0208333333333333
144
0.0
144
0.0
144
0.0
144
0.0
144
1.0
144
0.0
144
0.0
144
0.0
144
0.0
144
1.0
147
0.0208333333333333
147
0.0
147
0.0
147
0.0
147
0.0
147
0.0208333333333333
147
0.0
147
0.0
147
0.0
147
0.0
147
1.0
147
0.0
147
0.0
147
0.0
147
0.0
147
1.0
  0
MATERIAL
  5
1AFD
102
{ACAD_XDICTIONARY
360
1AFE
102
}
102
{ACAD_REACTORS
330
1AEC
102
}
330
1AEC
100
AcDbMaterial
  1
Global
 72
     0
 43
0.0208333333333333
 43
0.0
 43
0.0
 43
0.0
 43
0.0
 43
0.0208333333333333
 43
0.0
 43
0.0
 43
0.0
 43
0.0
 43
1.0
 43
0.0
 43
0.0
 43
0.0
 43
0.0
 43
1.0
 77
     0
 47
0.0208333333333333
 47
0.0
 47
0.0
 47
0.0
 47
0.0
 47
0.0208333333333333
 47
0.0
 47
0.0
 47
0.0
 47
0.0
 47
1.0
 47
0.0
 47
0.0
 47
0.0
 47
0.0
 47
1.0
171
     0
 49
0.0208333333333333
 49
0.0
 49
0.0
 49
0.0
 49
0.0
 49
0.0208333333333333
 49
0.0
 49
0.0
 49
0.0
 49
0.0
 49
1.0
 49
0.0
 49
0.0
 49
0.0
 49
0.0
 49
1.0
175
     0
142
0.0208333333333333
142
0.0
142
0.0
142
0.0
142
0.0
142
0.0208333333333333
142
0.0
142
0.0
142
0.0
142
0.0
142
1.0
142
0.0
142
0.0
142
0.0
142
0.0
142
1.0
179
     0
144
0.0208333333333333
144
0.0
144
0.0
144
0.0
144
0.0
144
0.0208333333333333
144
0.0
144
0.0
144
0.0
144
0.0
144
1.0
144
0.0
144
0.0
144
0.0
144
0.0
144
1.0
147
0.0208333333333333
147
0.0
147
0.0
147
0.0
147
0.0
147
0.0208333333333333
147
0.0
147
0.0
147
0.0
147
0.0
147
1.0
147
0.0
147
0.0
147
0.0
147
0.0
147
1.0
  0
MLEADERSTYLE
  5
1B34
102
{ACAD_REACTORS
330
1B33
102
}
330
1B33
100
AcDbMLeaderStyle
170
     2
171
     1
172
     0
 90
        2
 40
0.0
 41
0.0
173
     1
 91
-1056964608
340
143B
 92
       -2
290
     1
 42
0.09
291
     1
 43
0.36
  3
Standard
 44
0.18
300

342
1439
174
     1
178
     6
175
     1
176
     0
 93
-1056964608
 45
0.18
292
     0
297
     0
 46
0.18
 94
-1056964608
 47
1.0
 49
1.0
140
1.0
293
     1
141
0.0
294
     1
177
     0
142
1.0
295
     0
296
     0
143
0.125
1001
ACAD_MLEADERVER
1070
     2
  0
MLINESTYLE
  5
143F
102
{ACAD_REACTORS
330
143E
102
}
330
143E
100
AcDbMlineStyle
  2
STANDARD
 70
     0
  3

 62
   256
 51
90.0
 52
90.0
 71
     2
 49
0.5
 62
   256
  6
BYLAYER
 49
-0.5
 62
   256
  6
BYLAYER
  0
ACDBPLACEHOLDER
  5
1437
102
{ACAD_REACTORS
330
1436
102
}
330
1436
  0
SCALE
  5
1B22
102
{ACAD_REACTORS
330
1B21
102
}
330
1B21
100
AcDbScale
 70
     0
300
1:1
140
1.0
141
1.0
290
     1
  0
SCALE
  5
1B23
102
{ACAD_REACTORS
330
1B21
102
}
330
1B21
100
AcDbScale
 70
     0
300
1/128" = 1'-0"
140
0.0078125
141
12.0
290
     0
  0
SCALE
  5
1B24
102
{ACAD_REACTORS
330
1B21
102
}
330
1B21
100
AcDbScale
 70
     0
300
1/64" = 1'-0"
140
0.015625
141
12.0
290
     0
  0
SCALE
  5
1B25
102
{ACAD_REACTORS
330
1B21
102
}
330
1B21
100
AcDbScale
 70
     0
300
1/32" = 1'-0"
140
0.03125
141
12.0
290
     0
  0
SCALE
  5
1B26
102
{ACAD_REACTORS
330
1B21
102
}
330
1B21
100
AcDbScale
 70
     0
300
1/16" = 1'-0"
140
0.0625
141
12.0
290
     0
  0
SCALE
  5
1B27
102
{ACAD_REACTORS
330
1B21
102
}
330
1B21
100
AcDbScale
 70
     0
300
3/32" = 1'-0"
140
0.09375
141
12.0
290
     0
  0
SCALE
  5
1B28
102
{ACAD_REACTORS
330
1B21
102
}
330
1B21
100
AcDbScale
 70
     0
300
1/8" = 1'-0"
140
0.125
141
12.0
290
     0
  0
SCALE
  5
1B29
102
{ACAD_REACTORS
330
1B21
102
}
330
1B21
100
AcDbScale
 70
     0
300
3/16" = 1'-0"
140
0.1875
141
12.0
290
     0
  0
SCALE
  5
1B2A
102
{ACAD_REACTORS
330
1B21
102
}
330
1B21
100
AcDbScale
 70
     0
300
1/4" = 1'-0"
140
0.25
141
12.0
290
     0
  0
SCALE
  5
1B2B
102
{ACAD_REACTORS
330
1B21
102
}
330
1B21
100
AcDbScale
 70
     0
300
3/8" = 1'-0"
140
0.375
141
12.0
290
     0
  0
SCALE
  5
1B2C
102
{ACAD_REACTORS
330
1B21
102
}
330
1B21
100
AcDbScale
 70
     0
300
1/2" = 1'-0"
140
0.5
141
12.0
290
     0
  0
SCALE
  5
1B2D
102
{ACAD_REACTORS
330
1B21
102
}
330
1B21
100
AcDbScale
 70
     0
300
3/4" = 1'-0"
140
0.75
141
12.0
290
     0
  0
SCALE
  5
1B2E
102
{ACAD_REACTORS
330
1B21
102
}
330
1B21
100
AcDbScale
 70
     0
300
1" = 1'-0"
140
1.0
141
12.0
290
     0
  0
SCALE
  5
1B2F
102
{ACAD_REACTORS
330
1B21
102
}
330
1B21
100
AcDbScale
 70
     0
300
1-1/2" = 1'-0"
140
1.5
141
12.0
290
     0
  0
SCALE
  5
1B30
102
{ACAD_REACTORS
330
1B21
102
}
330
1B21
100
AcDbScale
 70
     0
300
3" = 1'-0"
140
3.0
141
12.0
290
     0
  0
SCALE
  5
1B31
102
{ACAD_REACTORS
330
1B21
102
}
330
1B21
100
AcDbScale
 70
     0
300
6" = 1'-0"
140
6.0
141
12.0
290
     0
  0
SCALE
  5
1B32
102
{ACAD_REACTORS
330
1B21
102
}
330
1B21
100
AcDbScale
 70
     0
300
1'-0" = 1'-0"
140
12.0
141
12.0
290
     0
  0
TABLESTYLE
  5
1B20
102
{ACAD_XDICTIONARY
360
1D8E
102
}
102
{ACAD_REACTORS
330
1B1F
102
}
330
1B1F
100
AcDbTableStyle
  3
Standard
 70
     0
 71
     0
 40
0.06
 41
0.06
280
     0
281
     0
  7
STANDARD
140
0.18
170
     2
 62
     0
 63
     7
283
     0
274
    -2
284
     1
 64
     0
275
    -2
285
     1
 65
     0
276
    -2
286
     1
 66
     0
277
    -2
287
     1
 67
     0
278
    -2
288
     1
 68
     0
279
    -2
289
     1
 69
     0
  7
STANDARD
140
0.25
170
     5
 62
     0
 63
     7
283
     0
274
    -2
284
     1
 64
     0
275
    -2
285
     1
 65
     0
276
    -2
286
     1
 66
     0
277
    -2
287
     1
 67
     0
278
    -2
288
     1
 68
     0
279
    -2
289
     1
 69
     0
  7
STANDARD
140
0.18
170
     5
 62
     0
 63
     7
283
     0
274
    -2
284
     1
 64
     0
275
    -2
285
     1
 65
     0
276
    -2
286
     1
 66
     0
277
    -2
287
     1
 67
     0
278
    -2
288
     1
 68
     0
279
    -2
289
     1
 69
     0
  0
VISUALSTYLE
  5
1B0B
102
{ACAD_XDICTIONARY
360
1DE8
102
}
102
{ACAD_REACTORS
330
1B05
102
}
330
1B05
100
AcDbVisualStyle
  2
2dWireframe
 70
     4
 71
     0
 72
     2
 73
     0
 90
        0
 40
-0.6
 41
-30.0
 62
     5
 63
     7
 74
     1
 91
        4
 64
     7
 65
   257
 75
     1
175
     1
 42
1.0
 92
        0
 66
   257
 43
1.0
 76
     1
 77
     6
 78
     2
 67
     7
 79
     5
170
     0
171
     0
290
     0
174
     0
 93
        1
 44
0.0
173
     0
291
     0
 45
0.0
1001
ACAD
1000
AcDbSavedByObjectVersion
1070
     0
  0
VISUALSTYLE
  5
1B0A
102
{ACAD_XDICTIONARY
360
1DE6
102
}
102
{ACAD_REACTORS
330
1B05
102
}
330
1B05
100
AcDbVisualStyle
  2
Basic
 70
     7
 71
     1
 72
     0
 73
     1
 90
        0
 40
-0.6
 41
-30.0
 62
     5
 63
     7
 74
     0
 91
        4
 64
     7
 65
   257
 75
     1
175
     1
 42
1.0
 92
        8
 66
     7
 43
1.0
 76
     1
 77
     6
 78
     2
 67
     7
 79
     5
170
     0
171
     0
290
     0
174
     0
 93
        1
 44
0.0
173
     0
291
     1
 45
0.0
1001
ACAD
1000
AcDbSavedByObjectVersion
1070
     0
  0
VISUALSTYLE
  5
1B11
102
{ACAD_XDICTIONARY
360
1DF4
102
}
102
{ACAD_REACTORS
330
1B05
102
}
330
1B05
100
AcDbVisualStyle
  2
Brighten
 70
    12
 71
     2
 72
     2
 73
     0
 90
        0
 40
-0.6
 41
-30.0
 62
     5
 63
     7
 74
     1
 91
        4
 64
     7
 65
   257
 75
     1
175
     1
 42
1.0
 92
        8
 66
     7
 43
1.0
 76
     1
 77
     6
 78
     2
 67
     7
 79
     5
170
     0
171
     0
290
     0
174
     0
 93
        1
 44
50.0
173
     0
291
     1
 45
0.0
1001
ACAD
1000
AcDbSavedByObjectVersion
1070
     0
  0
VISUALSTYLE
  5
1B15
102
{ACAD_XDICTIONARY
360
1DFC
102
}
102
{ACAD_REACTORS
330
1B05
102
}
330
1B05
100
AcDbVisualStyle
  2
ColorChange
 70
    16
 71
     2
 72
     2
 73
     3
 90
        0
 40
-0.6
 41
-30.0
 62
     5
 63
     8
 74
     1
 91
        4
 64
     7
 65
   257
 75
     1
175
     1
 42
1.0
 92
        8
 66
     8
 43
1.0
 76
     1
 77
     6
 78
     2
 67
     7
 79
     5
170
     0
171
     0
290
     0
174
     0
 93
        1
 44
0.0
173
     0
291
     1
 45
0.0
1001
ACAD
1000
AcDbSavedByObjectVersion
1070
     0
  0
VISUALSTYLE
  5
1B0E
102
{ACAD_XDICTIONARY
360
1DEE
102
}
102
{ACAD_REACTORS
330
1B05
102
}
330
1B05
100
AcDbVisualStyle
  2
Conceptual
 70
     9
 71
     3
 72
     2
 73
     0
 90
        0
 40
-0.6
 41
-30.0
 62
     5
 63
     7
 74
     2
 91
        2
 64
     7
 65
   257
 75
     1
175
     1
 42
179.0
 92
        8
 66
     7
 43
1.0
 76
     1
 77
     6
 78
     2
 67
     7
 79
     3
170
     0
171
     0
290
     0
174
     0
 93
        1
 44
0.0
173
     0
291
     0
 45
0.0
1001
ACAD
1000
AcDbSavedByObjectVersion
1070
     0
  0
VISUALSTYLE
  5
1B10
102
{ACAD_XDICTIONARY
360
1DF2
102
}
102
{ACAD_REACTORS
330
1B05
102
}
330
1B05
100
AcDbVisualStyle
  2
Dim
 70
    11
 71
     2
 72
     2
 73
     0
 90
        0
 40
-0.6
 41
-30.0
 62
     5
 63
     7
 74
     1
 91
        4
 64
     7
 65
   257
 75
     1
175
     1
 42
1.0
 92
        8
 66
     7
 43
1.0
 76
     1
 77
     6
 78
     2
 67
     7
 79
     5
170
     0
171
     0
290
     0
174
     0
 93
        1
 44
-50.0
173
     0
291
     1
 45
0.0
1001
ACAD
1000
AcDbSavedByObjectVersion
1070
     0
  0
VISUALSTYLE
  5
1B1D
102
{ACAD_XDICTIONARY
360
1E0C
102
}
102
{ACAD_REACTORS
330
1B05
102
}
330
1B05
100
AcDbVisualStyle
  2
EdgeColorOff
 70
    22
 71
     2
 72
     2
 73
     0
 90
        0
 40
-0.6
 41
-30.0
 62
     5
 63
     7
 74
     1
 91
        4
 64
     7
 65
   257
 75
     1
175
     1
 42
1.0
 92
        8
 66
     7
 43
1.0
 76
     1
 77
     6
 78
     2
 67
     7
 79
     5
170
     0
171
     0
290
     0
174
     0
 93
        1
 44
0.0
173
     0
291
     1
 45
0.0
1001
ACAD
1000
AcDbSavedByObjectVersion
1070
     0
  0
VISUALSTYLE
  5
1B14
102
{ACAD_XDICTIONARY
360
1DFA
102
}
102
{ACAD_REACTORS
330
1B05
102
}
330
1B05
100
AcDbVisualStyle
  2
Facepattern
 70
    15
 71
     2
 72
     2
 73
     0
 90
        0
 40
-0.6
 41
-30.0
 62
     5
 63
     7
 74
     1
 91
        4
 64
     7
 65
   257
 75
     1
175
     1
 42
1.0
 92
        8
 66
     7
 43
1.0
 76
     1
 77
     6
 78
     2
 67
     7
 79
     5
170
     0
171
     0
290
     0
174
     0
 93
        1
 44
0.0
173
     0
291
     1
 45
0.0
1001
ACAD
1000
AcDbSavedByObjectVersion
1070
     0
  0
VISUALSTYLE
  5
1B06
102
{ACAD_XDICTIONARY
360
1DDE
102
}
102
{ACAD_REACTORS
330
1B05
102
}
330
1B05
100
AcDbVisualStyle
  2
Flat
 70
     0
 71
     2
 72
     1
 73
     1
 90
        2
 40
-0.6
 41
30.0
 62
     5
 63
     7
 74
     0
 91
        0
 64
     7
 65
   257
 75
     1
175
     1
 42
1.0
 92
        8
 66
     7
 43
1.0
 76
     1
 77
     6
 78
     2
 67
     7
 79
     5
170
     0
171
     0
290
     0
174
     0
 93
       13
 44
0.0
173
     0
291
     1
 45
0.0
1001
ACAD
1000
AcDbSavedByObjectVersion
1070
     0
  0
VISUALSTYLE
  5
1B07
102
{ACAD_XDICTIONARY
360
1DE0
102
}
102
{ACAD_REACTORS
330
1B05
102
}
330
1B05
100
AcDbVisualStyle
  2
FlatWithEdges
 70
     1
 71
     2
 72
     1
 73
     1
 90
        2
 40
-0.6
 41
30.0
 62
     5
 63
     7
 74
     1
 91
        0
 64
     7
 65
   257
 75
     1
175
     1
 42
1.0
 92
        0
 66
   257
 43
1.0
 76
     1
 77
     6
 78
     2
 67
     7
 79
     5
170
     0
171
     0
290
     0
174
     0
 93
       13
 44
0.0
173
     0
291
     1
 45
0.0
1001
ACAD
1000
AcDbSavedByObjectVersion
1070
     0
  0
VISUALSTYLE
  5
1B08
102
{ACAD_XDICTIONARY
360
1DE2
102
}
102
{ACAD_REACTORS
330
1B05
102
}
330
1B05
100
AcDbVisualStyle
  2
Gouraud
 70
     2
 71
     2
 72
     2
 73
     1
 90
        2
 40
-0.6
 41
30.0
 62
     5
 63
     7
 74
     0
 91
        0
 64
     7
 65
   257
 75
     1
175
     1
 42
1.0
 92
        0
 66
     7
 43
1.0
 76
     1
 77
     6
 78
     2
 67
     7
 79
     5
170
     0
171
     0
290
     0
174
     0
 93
       13
 44
0.0
173
     0
291
     1
 45
0.0
1001
ACAD
1000
AcDbSavedByObjectVersion
1070
     0
  0
VISUALSTYLE
  5
1B09
102
{ACAD_XDICTIONARY
360
1DE4
102
}
102
{ACAD_REACTORS
330
1B05
102
}
330
1B05
100
AcDbVisualStyle
  2
GouraudWithEdges
 70
     3
 71
     2
 72
     2
 73
     1
 90
        2
 40
-0.6
 41
30.0
 62
     5
 63
     7
 74
     1
 91
        0
 64
     7
 65
   257
 75
     1
175
     1
 42
1.0
 92
        0
 66
   257
 43
1.0
 76
     1
 77
     6
 78
     2
 67
     7
 79
     5
170
     0
171
     0
290
     0
174
     0
 93
       13
 44
0.0
173
     0
291
     1
 45
0.0
1001
ACAD
1000
AcDbSavedByObjectVersion
1070
     0
  0
VISUALSTYLE
  5
1B0D
102
{ACAD_XDICTIONARY
360
1DEC
102
}
102
{ACAD_REACTORS
330
1B05
102
}
330
1B05
100
AcDbVisualStyle
  2
Hidden
 70
     6
 71
     1
 72
     2
 73
     2
 90
        0
 40
-0.6
 41
-30.0
 62
     5
 63
     7
 74
     2
 91
        2
 64
     7
 65
   257
 75
     2
175
     1
 42
40.0
 92
        0
 66
   257
 43
1.0
 76
     1
 77
     6
 78
     2
 67
     7
 79
     3
170
     0
171
     0
290
     0
174
     0
 93
        1
 44
0.0
173
     0
291
     0
 45
0.0
1001
ACAD
1000
AcDbSavedByObjectVersion
1070
     0
  0
VISUALSTYLE
  5
1B1B
102
{ACAD_XDICTIONARY
360
1E08
102
}
102
{ACAD_REACTORS
330
1B05
102
}
330
1B05
100
AcDbVisualStyle
  2
JitterOff
 70
    20
 71
     2
 72
     2
 73
     0
 90
        0
 40
-0.6
 41
-30.0
 62
     5
 63
     7
 74
     1
 91
        4
 64
     7
 65
   257
 75
     1
175
     1
 42
1.0
 92
       10
 66
     7
 43
1.0
 76
     1
 77
     6
 78
     2
 67
     7
 79
     5
170
     0
171
     0
290
     0
174
     0
 93
        1
 44
0.0
173
     0
291
     1
 45
0.0
1001
ACAD
1000
AcDbSavedByObjectVersion
1070
     0
  0
VISUALSTYLE
  5
1B13
102
{ACAD_XDICTIONARY
360
1DF8
102
}
102
{ACAD_REACTORS
330
1B05
102
}
330
1B05
100
AcDbVisualStyle
  2
Linepattern
 70
    14
 71
     2
 72
     2
 73
     0
 90
        0
 40
-0.6
 41
-30.0
 62
     5
 63
     7
 74
     1
 91
        4
 64
     7
 65
   257
 75
     7
175
     7
 42
1.0
 92
        8
 66
     7
 43
1.0
 76
     1
 77
     6
 78
     2
 67
     7
 79
     5
170
     0
171
     0
290
     0
174
     0
 93
        1
 44
0.0
173
     0
291
     1
 45
0.0
1001
ACAD
1000
AcDbSavedByObjectVersion
1070
     0
  0
VISUALSTYLE
  5
1B1C
102
{ACAD_XDICTIONARY
360
1E0A
102
}
102
{ACAD_REACTORS
330
1B05
102
}
330
1B05
100
AcDbVisualStyle
  2
OverhangOff
 70
    21
 71
     2
 72
     2
 73
     0
 90
        0
 40
-0.6
 41
-30.0
 62
     5
 63
     7
 74
     1
 91
        4
 64
     7
 65
   257
 75
     1
175
     1
 42
1.0
 92
        9
 66
     7
 43
1.0
 76
     1
 77
     6
 78
     2
 67
     7
 79
     5
170
     0
171
     0
290
     0
174
     0
 93
        1
 44
0.0
173
     0
291
     1
 45
0.0
1001
ACAD
1000
AcDbSavedByObjectVersion
1070
     0
  0
VISUALSTYLE
  5
1B0F
102
{ACAD_XDICTIONARY
360
1DF0
102
}
102
{ACAD_REACTORS
330
1B05
102
}
330
1B05
100
AcDbVisualStyle
  2
Realistic
 70
     8
 71
     2
 72
     2
 73
     0
 90
        2
 40
-0.6
 41
30.0
 62
     5
 63
     7
 74
     0
 91
        0
 64
     7
 65
   257
 75
     1
175
     1
 42
1.0
 92
        8
 66
   257
 43
1.0
 76
     1
 77
     6
 78
     2
 67
     7
 79
     3
170
     0
171
     0
290
     0
174
     0
 93
       13
 44
0.0
173
     0
291
     0
 45
0.0
1001
ACAD
1000
AcDbSavedByObjectVersion
1070
     0
  0
VISUALSTYLE
  5
1B1A
102
{ACAD_XDICTIONARY
360
1E06
102
}
102
{ACAD_REACTORS
330
1B05
102
}
330
1B05
100
AcDbVisualStyle
  2
Shaded
 70
    27
 71
     2
 72
     2
 73
     1
 90
        2
 40
-0.6
 41
30.0
 62
     5
 63
     7
 74
     0
 91
        4
 64
     7
 65
   257
 75
     1
175
     1
 42
1.0
 92
        8
 66
   257
 43
1.0
 76
     1
 77
     6
 78
     2
 67
     8
 79
     3
170
     0
171
     0
290
     0
174
     0
 93
        5
 44
0.0
173
     0
291
     0
 45
0.0
1001
ACAD
1000
AcDbSavedByObjectVersion
1070
     0
  0
VISUALSTYLE
  5
1B19
102
{ACAD_XDICTIONARY
360
1E04
102
}
102
{ACAD_REACTORS
330
1B05
102
}
330
1B05
100
AcDbVisualStyle
  2
Shaded with edges
 70
    26
 71
     2
 72
     2
 73
     1
 90
        2
 40
-0.6
 41
30.0
 62
     5
 63
     7
 74
     1
 91
       10
 64
     7
 65
   257
 75
     2
175
     1
 42
1.0
 92
        8
 66
   257
 43
1.0
 76
     1
 77
     6
 78
     2
 67
     7
 79
     3
170
     0
171
     0
290
     0
174
     0
 93
        5
 44
0.0
173
     0
291
     0
 45
0.0
1001
ACAD
1000
AcDbSavedByObjectVersion
1070
     0
  0
VISUALSTYLE
  5
1B16
102
{ACAD_XDICTIONARY
360
1DFE
102
}
102
{ACAD_REACTORS
330
1B05
102
}
330
1B05
100
AcDbVisualStyle
  2
Shades of Gray
 70
    23
 71
     2
 72
     2
 73
     3
 90
        0
 40
-0.6
 41
-30.0
 62
     5
 63
     7
 74
     2
 91
        2
 64
     7
 65
     7
 75
     1
175
     1
 42
40.0
 92
        8
 66
     7
 43
1.0
 76
     1
 77
     6
 78
     2
 67
     7
 79
     3
170
     0
171
     0
290
     0
174
     0
 93
        1
 44
0.0
173
     0
291
     0
 45
0.0
1001
ACAD
1000
AcDbSavedByObjectVersion
1070
     0
  0
VISUALSTYLE
  5
1B17
102
{ACAD_XDICTIONARY
360
1E00
102
}
102
{ACAD_REACTORS
330
1B05
102
}
330
1B05
100
AcDbVisualStyle
  2
Sketchy
 70
    24
 71
     1
 72
     2
 73
     2
 90
        0
 40
-0.6
 41
-30.0
 62
     5
 63
     7
 74
     2
 91
        2
 64
     7
 65
     7
 75
     1
175
     1
 42
40.0
 92
       11
 66
     7
 43
1.0
 76
     1
 77
     6
 78
     2
 67
     7
 79
     6
170
     0
171
     0
290
     0
174
     0
 93
        1
 44
0.0
173
     0
291
     0
 45
0.0
1001
ACAD
1000
AcDbSavedByObjectVersion
1070
     0
  0
VISUALSTYLE
  5
1B12
102
{ACAD_XDICTIONARY
360
1DF6
102
}
102
{ACAD_REACTORS
330
1B05
102
}
330
1B05
100
AcDbVisualStyle
  2
Thicken
 70
    13
 71
     2
 72
     2
 73
     0
 90
        0
 40
-0.6
 41
-30.0
 62
     5
 63
     7
 74
     1
 91
        4
 64
     7
 65
   257
 75
     1
175
     1
 42
1.0
 92
       12
 66
     7
 43
1.0
 76
     1
 77
     6
 78
     2
 67
     7
 79
     5
170
     0
171
     0
290
     0
174
     0
 93
        1
 44
0.0
173
     0
291
     1
 45
0.0
1001
ACAD
1000
AcDbSavedByObjectVersion
1070
     0
  0
VISUALSTYLE
  5
1B0C
102
{ACAD_XDICTIONARY
360
1DEA
102
}
102
{ACAD_REACTORS
330
1B05
102
}
330
1B05
100
AcDbVisualStyle
  2
Wireframe
 70
     5
 71
     0
 72
     2
 73
     0
 90
        0
 40
-0.6
 41
-30.0
 62
     5
 63
     7
 74
     1
 91
        4
 64
     7
 65
   257
 75
     1
175
     1
 42
1.0
 92
        0
 66
   257
 43
1.0
 76
     1
 77
     6
 78
     2
 67
     7
 79
     3
170
     0
171
     0
290
     0
174
     0
 93
        1
 44
0.0
173
     0
291
     0
 45
0.0
1001
ACAD
1000
AcDbSavedByObjectVersion
1070
     0
  0
VISUALSTYLE
  5
1B18
102
{ACAD_XDICTIONARY
360
1E02
102
}
102
{ACAD_REACTORS
330
1B05
102
}
330
1B05
100
AcDbVisualStyle
  2
X-Ray
 70
    25
 71
     2
 72
     2
 73
     1
 90
        1
 40
0.5
 41
-30.0
 62
     5
 63
     7
 74
     1
 91
        0
 64
     7
 65
   257
 75
     1
175
     1
 42
1.0
 92
        8
 66
     7
 43
1.0
 76
     1
 77
     6
 78
     2
 67
     7
 79
     3
170
     0
171
     0
290
     0
174
     0
 93
       13
 44
0.0
173
     0
291
     0
 45
0.0
1001
ACAD
1000
AcDbSavedByObjectVersion
1070
     0
  0
DICTIONARYVAR
  5
1DCF
102
{ACAD_REACTORS
330
1A48
102
}
330
1A48
100
DictionaryVariables
280
     0
  1
1:1
  0
DICTIONARYVAR
  5
1DCE
102
{ACAD_REACTORS
330
1A48
102
}
330
1A48
100
DictionaryVariables
280
     0
  1
STANDARD
  0
DICTIONARYVAR
  5
1DCD
102
{ACAD_REACTORS
330
1A48
102
}
330
1A48
100
DictionaryVariables
280
     0
  1
STANDARD
  0
DICTIONARYVAR
  5
1A49
102
{ACAD_REACTORS
330
1A48
102
}
330
1A48
100
DictionaryVariables
280
     0
  1
1
  0
DICTIONARYVAR
  5
1DD1
102
{ACAD_REACTORS
330
1A48
102
}
330
1A48
100
DictionaryVariables
280
     0
  1
0
  0
DICTIONARYVAR
  5
1DD0
102
{ACAD_REACTORS
330
1A48
102
}
330
1A48
100
DictionaryVariables
280
     0
  1
127
  0
DICTIONARYVAR
  5
1DD7
102
{ACAD_REACTORS
330
1A48
102
}
330
1A48
100
DictionaryVariables
280
     0
  1
2
  0
DICTIONARY
  5
1E0F
330
1B35
100
AcDbDictionary
280
     1
281
     1
  3
ACAD_XREC_ROUNDTRIP
360
1E10
  0
DICTIONARY
  5
1E11
330
1B36
100
AcDbDictionary
280
     1
281
     1
  3
ACAD_XREC_ROUNDTRIP
360
1E12
  0
DICTIONARY
  5
1AF6
330
1AF5
100
AcDbDictionary
280
     1
281
     1
  3
ACAD_XREC_ROUNDTRIP
360
1DDC
  3
BUMPTILE
360
1AF8
  3
DIFFUSETILE
360
1AF7
  3
OPACITYTILE
360
1AFB
  3
REFLECTIONTILE
360
1AFA
  3
REFRACTIONTILE
360
1AFC
  3
SPECULARTILE
360
1AF9
  0
DICTIONARY
  5
1AEE
330
1AED
100
AcDbDictionary
280
     1
281
     1
  3
ACAD_XREC_ROUNDTRIP
360
1DDB
  3
BUMPTILE
360
1AF0
  3
DIFFUSETILE
360
1AEF
  3
OPACITYTILE
360
1AF3
  3
REFLECTIONTILE
360
1AF2
  3
REFRACTIONTILE
360
1AF4
  3
SPECULARTILE
360
1AF1
  0
DICTIONARY
  5
1AFE
330
1AFD
100
AcDbDictionary
280
     1
281
     1
  3
ACAD_XREC_ROUNDTRIP
360
1DDD
  3
BUMPTILE
360
1B00
  3
DIFFUSETILE
360
1AFF
  3
OPACITYTILE
360
1B03
  3
REFLECTIONTILE
360
1B02
  3
REFRACTIONTILE
360
1B04
  3
SPECULARTILE
360
1B01
  0
DICTIONARY
  5
1D8E
330
1B20
100
AcDbDictionary
280
     1
281
     1
  3
ACAD_ROUNDTRIP_2008_TABLESTYLE_CELLSTYLEMAP
360
1DD8
  3
ACAD_XREC_ROUNDTRIP
360
1E0E
  0
DICTIONARY
  5
1DE8
330
1B0B
100
AcDbDictionary
280
     1
281
     1
  3
ACAD_XREC_ROUNDTRIP
360
1DE9
  0
DICTIONARY
  5
1DE6
330
1B0A
100
AcDbDictionary
280
     1
281
     1
  3
ACAD_XREC_ROUNDTRIP
360
1DE7
  0
DICTIONARY
  5
1DF4
330
1B11
100
AcDbDictionary
280
     1
281
     1
  3
ACAD_XREC_ROUNDTRIP
360
1DF5
  0
DICTIONARY
  5
1DFC
330
1B15
100
AcDbDictionary
280
     1
281
     1
  3
ACAD_XREC_ROUNDTRIP
360
1DFD
  0
DICTIONARY
  5
1DEE
330
1B0E
100
AcDbDictionary
280
     1
281
     1
  3
ACAD_XREC_ROUNDTRIP
360
1DEF
  0
DICTIONARY
  5
1DF2
330
1B10
100
AcDbDictionary
280
     1
281
     1
  3
ACAD_XREC_ROUNDTRIP
360
1DF3
  0
DICTIONARY
  5
1E0C
330
1B1D
100
AcDbDictionary
280
     1
281
     1
  3
ACAD_XREC_ROUNDTRIP
360
1E0D
  0
DICTIONARY
  5
1DFA
330
1B14
100
AcDbDictionary
280
     1
281
     1
  3
ACAD_XREC_ROUNDTRIP
360
1DFB
  0
DICTIONARY
  5
1DDE
330
1B06
100
AcDbDictionary
280
     1
281
     1
  3
ACAD_XREC_ROUNDTRIP
360
1DDF
  0
DICTIONARY
  5
1DE0
330
1B07
100
AcDbDictionary
280
     1
281
     1
  3
ACAD_XREC_ROUNDTRIP
360
1DE1
  0
DICTIONARY
  5
1DE2
330
1B08
100
AcDbDictionary
280
     1
281
     1
  3
ACAD_XREC_ROUNDTRIP
360
1DE3
  0
DICTIONARY
  5
1DE4
330
1B09
100
AcDbDictionary
280
     1
281
     1
  3
ACAD_XREC_ROUNDTRIP
360
1DE5
  0
DICTIONARY
  5
1DEC
330
1B0D
100
AcDbDictionary
280
     1
281
     1
  3
ACAD_XREC_ROUNDTRIP
360
1DED
  0
DICTIONARY
  5
1E08
330
1B1B
100
AcDbDictionary
280
     1
281
     1
  3
ACAD_XREC_ROUNDTRIP
360
1E09
  0
DICTIONARY
  5
1DF8
330
1B13
100
AcDbDictionary
280
     1
281
     1
  3
ACAD_XREC_ROUNDTRIP
360
1DF9
  0
DICTIONARY
  5
1E0A
330
1B1C
100
AcDbDictionary
280
     1
281
     1
  3
ACAD_XREC_ROUNDTRIP
360
1E0B
  0
DICTIONARY
  5
1DF0
330
1B0F
100
AcDbDictionary
280
     1
281
     1
  3
ACAD_XREC_ROUNDTRIP
360
1DF1
  0
DICTIONARY
  5
1E06
330
1B1A
100
AcDbDictionary
280
     1
281
     1
  3
ACAD_XREC_ROUNDTRIP
360
1E07
  0
DICTIONARY
  5
1E04
330
1B19
100
AcDbDictionary
280
     1
281
     1
  3
ACAD_XREC_ROUNDTRIP
360
1E05
  0
DICTIONARY
  5
1DFE
330
1B16
100
AcDbDictionary
280
     1
281
     1
  3
ACAD_XREC_ROUNDTRIP
360
1DFF
  0
DICTIONARY
  5
1E00
330
1B17
100
AcDbDictionary
280
     1
281
     1
  3
ACAD_XREC_ROUNDTRIP
360
1E01
  0
DICTIONARY
  5
1DF6
330
1B12
100
AcDbDictionary
280
     1
281
     1
  3
ACAD_XREC_ROUNDTRIP
360
1DF7
  0
DICTIONARY
  5
1DEA
330
1B0C
100
AcDbDictionary
280
     1
281
     1
  3
ACAD_XREC_ROUNDTRIP
360
1DEB
  0
DICTIONARY
  5
1E02
330
1B18
100
AcDbDictionary
280
     1
281
     1
  3
ACAD_XREC_ROUNDTRIP
360
1E03
  0
XRECORD
  5
1E10
102
{ACAD_REACTORS
330
1E0F
102
}
330
1E0F
100
AcDbXrecord
280
     1
102
SHADEPLOT
 70
     0
102
SHADEPLOTRESLEVEL
 70
     2
102
SHADEPLOTCUSTOMDPI
 70
   300
  0
XRECORD
  5
1E12
102
{ACAD_REACTORS
330
1E11
102
}
330
1E11
100
AcDbXrecord
280
     1
102
SHADEPLOT
 70
     0
102
SHADEPLOTRESLEVEL
 70
     2
102
SHADEPLOTCUSTOMDPI
 70
   300
  0
XRECORD
  5
1DDC
102
{ACAD_REACTORS
330
1AF6
102
}
330
1AF6
100
AcDbXrecord
280
     1
102
MATERIAL
148
0.0
149
0.0
149
0.0
 93
        0
 94
      127
282
     0
 72
     0
 77
     0
171
     0
175
     0
179
     0
273
     0
  0
XRECORD
  5
1AF8
102
{ACAD_REACTORS
330
1AF6
102
}
330
1AF6
100
AcDbXrecord
280
     1
270
     1
271
     1
  0
XRECORD
  5
1AF7
102
{ACAD_REACTORS
330
1AF6
102
}
330
1AF6
100
AcDbXrecord
280
     1
270
     1
271
     1
  0
XRECORD
  5
1AFB
102
{ACAD_REACTORS
330
1AF6
102
}
330
1AF6
100
AcDbXrecord
280
     1
270
     1
271
     1
  0
XRECORD
  5
1AFA
102
{ACAD_REACTORS
330
1AF6
102
}
330
1AF6
100
AcDbXrecord
280
     1
270
     1
271
     1
  0
XRECORD
  5
1AFC
102
{ACAD_REACTORS
330
1AF6
102
}
330
1AF6
100
AcDbXrecord
280
     1
270
     1
271
     1
  0
XRECORD
  5
1AF9
102
{ACAD_REACTORS
330
1AF6
102
}
330
1AF6
100
AcDbXrecord
280
     1
270
     1
271
     1
  0
XRECORD
  5
1DDB
102
{ACAD_REACTORS
330
1AEE
102
}
330
1AEE
100
AcDbXrecord
280
     1
102
MATERIAL
148
0.0
149
0.0
149
0.0
 93
        0
 94
      127
282
     0
 72
     0
 77
     0
171
     0
175
     0
179
     0
273
     0
  0
XRECORD
  5
1AF0
102
{ACAD_REACTORS
330
1AEE
102
}
330
1AEE
100
AcDbXrecord
280
     1
270
     1
271
     1
  0
XRECORD
  5
1AEF
102
{ACAD_REACTORS
330
1AEE
102
}
330
1AEE
100
AcDbXrecord
280
     1
270
     1
271
     1
  0
XRECORD
  5
1AF3
102
{ACAD_REACTORS
330
1AEE
102
}
330
1AEE
100
AcDbXrecord
280
     1
270
     1
271
     1
  0
XRECORD
  5
1AF2
102
{ACAD_REACTORS
330
1AEE
102
}
330
1AEE
100
AcDbXrecord
280
     1
270
     1
271
     1
  0
XRECORD
  5
1AF4
102
{ACAD_REACTORS
330
1AEE
102
}
330
1AEE
100
AcDbXrecord
280
     1
270
     1
271
     1
  0
XRECORD
  5
1AF1
102
{ACAD_REACTORS
330
1AEE
102
}
330
1AEE
100
AcDbXrecord
280
     1
270
     1
271
     1
  0
XRECORD
  5
1DDD
102
{ACAD_REACTORS
330
1AFE
102
}
330
1AFE
100
AcDbXrecord
280
     1
102
MATERIAL
148
0.0
149
0.0
149
0.0
 93
        0
 94
      127
282
     0
 72
     0
 77
     0
171
     0
175
     0
179
     0
273
     0
  0
XRECORD
  5
1B00
102
{ACAD_REACTORS
330
1AFE
102
}
330
1AFE
100
AcDbXrecord
280
     1
270
     1
271
     1
  0
XRECORD
  5
1AFF
102
{ACAD_REACTORS
330
1AFE
102
}
330
1AFE
100
AcDbXrecord
280
     1
270
     1
271
     1
  0
XRECORD
  5
1B03
102
{ACAD_REACTORS
330
1AFE
102
}
330
1AFE
100
AcDbXrecord
280
     1
270
     1
271
     1
  0
XRECORD
  5
1B02
102
{ACAD_REACTORS
330
1AFE
102
}
330
1AFE
100
AcDbXrecord
280
     1
270
     1
271
     1
  0
XRECORD
  5
1B04
102
{ACAD_REACTORS
330
1AFE
102
}
330
1AFE
100
AcDbXrecord
280
     1
270
     1
271
     1
  0
XRECORD
  5
1B01
102
{ACAD_REACTORS
330
1AFE
102
}
330
1AFE
100
AcDbXrecord
280
     1
270
     1
271
     1
  0
CELLSTYLEMAP
  5
1DD8
102
{ACAD_REACTORS
330
1D8E
102
}
330
1D8E
100
AcDbCellStyleMap
 90
        3
300
CELLSTYLE
  1
TABLEFORMAT_BEGIN
 90
        5
170
     1
 91
        0
 92
    32768
 62
   257
 93
        1
300
CONTENTFORMAT
  1
CONTENTFORMAT_BEGIN
 90
        0
 91
        0
 92
      512
 93
        0
300

 40
0.0
140
1.0
 94
        5
 62
     0
340
1439
144
0.25
309
CONTENTFORMAT_END
171
     0
 94
        0
309
TABLEFORMAT_END
  1
CELLSTYLE_BEGIN
 90
        1
 91
        1
300
_TITLE
309
CELLSTYLE_END
300
CELLSTYLE
  1
TABLEFORMAT_BEGIN
 90
        5
170
     1
 91
        0
 92
        0
 62
   257
 93
        1
300
CONTENTFORMAT
  1
CONTENTFORMAT_BEGIN
 90
        0
 91
        0
 92
      512
 93
        0
300

 40
0.0
140
1.0
 94
        5
 62
     0
340
1439
144
0.18
309
CONTENTFORMAT_END
171
     0
 94
        0
309
TABLEFORMAT_END
  1
CELLSTYLE_BEGIN
 90
        2
 91
        1
300
_HEADER
309
CELLSTYLE_END
300
CELLSTYLE
  1
TABLEFORMAT_BEGIN
 90
        5
170
     1
 91
        0
 92
        0
 62
   257
 93
        1
300
CONTENTFORMAT
  1
CONTENTFORMAT_BEGIN
 90
        0
 91
        0
 92
      512
 93
        0
300

 40
0.0
140
1.0
 94
        2
 62
     0
340
1439
144
0.18
309
CONTENTFORMAT_END
171
     0
 94
        0
309
TABLEFORMAT_END
  1
CELLSTYLE_BEGIN
 90
        3
 91
        2
300
_DATA
309
CELLSTYLE_END
  0
XRECORD
  5
1E0E
102
{ACAD_REACTORS
330
1D8E
102
}
330
1D8E
100
AcDbXrecord
280
     1
102
ACAD_ROUNDTRIP_PRE2007_TABLESTYLE
 90
      512
 91
        0
  1

 92
      512
 93
        0
  2

 94
      512
 95
        0
  3

  0
XRECORD
  5
1DE9
102
{ACAD_REACTORS
330
1DE8
102
}
330
1DE8
100
AcDbXrecord
280
     1
102
RTVSPropertyOp0
 70
     1
102
RTVSPropertyOp1
 70
     1
102
RTVSPropertyOp2
 70
     1
102
RTVSPropertyOp3
 70
     1
102
RTVSPropertyOp4
 70
     1
102
RTVSPropertyOp5
 70
     1
102
RTVSPropertyOp6
 70
     1
102
RTVSPropertyOp7
 70
     1
102
RTVSPropertyOp8
 70
     1
102
RTVSPropertyOp9
 70
     1
102
RTVSPropertyOp10
 70
     1
102
RTVSPropertyOp11
 70
     1
102
RTVSPropertyOp12
 70
     1
102
RTVSPropertyOp13
 70
     1
102
RTVSPropertyOp14
 70
     1
102
RTVSPropertyOp15
 70
     1
102
RTVSPropertyOp16
 70
     1
102
RTVSPropertyOp17
 70
     1
102
RTVSPropertyOp18
 70
     1
102
RTVSPropertyOp19
 70
     1
102
RTVSPropertyOp20
 70
     1
102
RTVSPropertyOp21
 70
     1
102
RTVSPropertyOp22
 70
     1
102
RTVSPropertyOp23
 70
     1
102
RTVSPropertyOp24
 70
     1
102
RTVSPropertyOp25
 70
     1
102
RTVSPropertyOp26
 70
     1
102
RTVSPropertyOp27
 70
     1
102
RTVSPropertyOp28
 70
     1
102
RTVSPropertyOp29
 70
     1
102
RTVSPropertyOp30
 70
     1
102
RTVSPropertyOp31
 70
     1
102
RTVSPropertyOp32
 70
     1
  0
XRECORD
  5
1DE7
102
{ACAD_REACTORS
330
1DE6
102
}
330
1DE6
100
AcDbXrecord
280
     1
102
RTVSPropertyOp0
 70
     1
102
RTVSPropertyOp1
 70
     1
102
RTVSPropertyOp2
 70
     1
102
RTVSPropertyOp3
 70
     1
102
RTVSPropertyOp4
 70
     1
102
RTVSPropertyOp5
 70
     1
102
RTVSPropertyOp6
 70
     1
102
RTVSPropertyOp7
 70
     1
102
RTVSPropertyOp8
 70
     1
102
RTVSPropertyOp9
 70
     1
102
RTVSPropertyOp10
 70
     1
102
RTVSPropertyOp11
 70
     1
102
RTVSPropertyOp12
 70
     1
102
RTVSPropertyOp13
 70
     1
102
RTVSPropertyOp14
 70
     1
102
RTVSPropertyOp15
 70
     1
102
RTVSPropertyOp16
 70
     1
102
RTVSPropertyOp17
 70
     1
102
RTVSPropertyOp18
 70
     1
102
RTVSPropertyOp19
 70
     1
102
RTVSPropertyOp20
 70
     1
102
RTVSPropertyOp21
 70
     1
102
RTVSPropertyOp22
 70
     1
102
RTVSPropertyOp23
 70
     1
102
RTVSPropertyOp24
 70
     1
102
RTVSPropertyOp25
 70
     1
102
RTVSPropertyOp26
 70
     1
102
RTVSPropertyOp27
 70
     1
102
RTVSPropertyOp28
 70
     1
102
RTVSPropertyOp29
 70
     1
102
RTVSPropertyOp30
 70
     1
102
RTVSPropertyOp31
 70
     1
102
RTVSPropertyOp32
 70
     1
  0
XRECORD
  5
1DF5
102
{ACAD_REACTORS
330
1DF4
102
}
330
1DF4
100
AcDbXrecord
280
     1
102
RTVSPropertyOp0
 70
     1
102
RTVSPropertyOp1
 70
     1
102
RTVSPropertyOp2
 70
     1
102
RTVSPropertyOp3
 70
     1
102
RTVSPropertyOp4
 70
     1
102
RTVSPropertyOp5
 70
     1
102
RTVSPropertyOp6
 70
     1
102
RTVSPropertyOp7
 70
     1
102
RTVSPropertyOp8
 70
     1
102
RTVSPropertyOp9
 70
     1
102
RTVSPropertyOp10
 70
     1
102
RTVSPropertyOp11
 70
     1
102
RTVSPropertyOp12
 70
     1
102
RTVSPropertyOp13
 70
     1
102
RTVSPropertyOp14
 70
     1
102
RTVSPropertyOp15
 70
     1
102
RTVSPropertyOp16
 70
     1
102
RTVSPropertyOp17
 70
     1
102
RTVSPropertyOp18
 70
     1
102
RTVSPropertyOp19
 70
     1
102
RTVSPropertyOp20
 70
     1
102
RTVSPropertyOp21
 70
     1
102
RTVSPropertyOp22
 70
     1
102
RTVSPropertyOp23
 70
     1
102
RTVSPropertyOp24
 70
     1
102
RTVSPropertyOp25
 70
     1
102
RTVSPropertyOp26
 70
     1
102
RTVSPropertyOp27
 70
     1
102
RTVSPropertyOp28
 70
     1
102
RTVSPropertyOp29
 70
     1
102
RTVSPropertyOp30
 70
     1
102
RTVSPropertyOp31
 70
     1
102
RTVSPropertyOp32
 70
     1
  0
XRECORD
  5
1DFD
102
{ACAD_REACTORS
330
1DFC
102
}
330
1DFC
100
AcDbXrecord
280
     1
102
RTVSPropertyOp0
 70
     1
102
RTVSPropertyOp1
 70
     1
102
RTVSPropertyOp2
 70
     1
102
RTVSPropertyOp3
 70
     1
102
RTVSPropertyOp4
 70
     1
102
RTVSPropertyOp5
 70
     1
102
RTVSPropertyOp6
 70
     1
102
RTVSPropertyOp7
 70
     1
102
RTVSPropertyOp8
 70
     1
102
RTVSPropertyOp9
 70
     1
102
RTVSPropertyOp10
 70
     1
102
RTVSPropertyOp11
 70
     1
102
RTVSPropertyOp12
 70
     1
102
RTVSPropertyOp13
 70
     1
102
RTVSPropertyOp14
 70
     1
102
RTVSPropertyOp15
 70
     1
102
RTVSPropertyOp16
 70
     1
102
RTVSPropertyOp17
 70
     1
102
RTVSPropertyOp18
 70
     1
102
RTVSPropertyOp19
 70
     1
102
RTVSPropertyOp20
 70
     1
102
RTVSPropertyOp21
 70
     1
102
RTVSPropertyOp22
 70
     1
102
RTVSPropertyOp23
 70
     1
102
RTVSPropertyOp24
 70
     1
102
RTVSPropertyOp25
 70
     1
102
RTVSPropertyOp26
 70
     1
102
RTVSPropertyOp27
 70
     1
102
RTVSPropertyOp28
 70
     1
102
RTVSPropertyOp29
 70
     1
102
RTVSPropertyOp30
 70
     1
102
RTVSPropertyOp31
 70
     1
102
RTVSPropertyOp32
 70
     1
  0
XRECORD
  5
1DEF
102
{ACAD_REACTORS
330
1DEE
102
}
330
1DEE
100
AcDbXrecord
280
     1
102
RTVSPropertyOp0
 70
     1
102
RTVSPropertyOp1
 70
     1
102
RTVSPropertyOp2
 70
     1
102
RTVSPropertyOp3
 70
     1
102
RTVSPropertyOp4
 70
     1
102
RTVSPropertyOp5
 70
     1
102
RTVSPropertyOp6
 70
     1
102
RTVSPropertyOp7
 70
     1
102
RTVSPropertyOp8
 70
     1
102
RTVSPropertyOp9
 70
     1
102
RTVSPropertyOp10
 70
     1
102
RTVSPropertyOp11
 70
     1
102
RTVSPropertyOp12
 70
     1
102
RTVSPropertyOp13
 70
     1
102
RTVSPropertyOp14
 70
     1
102
RTVSPropertyOp15
 70
     1
102
RTVSPropertyOp16
 70
     1
102
RTVSPropertyOp17
 70
     1
102
RTVSPropertyOp18
 70
     1
102
RTVSPropertyOp19
 70
     1
102
RTVSPropertyOp20
 70
     1
102
RTVSPropertyOp21
 70
     1
102
RTVSPropertyOp22
 70
     1
102
RTVSPropertyOp23
 70
     1
102
RTVSPropertyOp24
 70
     1
102
RTVSPropertyOp25
 70
     1
102
RTVSPropertyOp26
 70
     1
102
RTVSPropertyOp27
 70
     1
102
RTVSPropertyOp28
 70
     1
102
RTVSPropertyOp29
 70
     1
102
RTVSPropertyOp30
 70
     1
102
RTVSPropertyOp31
 70
     1
102
RTVSPropertyOp32
 70
     1
  0
XRECORD
  5
1DF3
102
{ACAD_REACTORS
330
1DF2
102
}
330
1DF2
100
AcDbXrecord
280
     1
102
RTVSPropertyOp0
 70
     1
102
RTVSPropertyOp1
 70
     1
102
RTVSPropertyOp2
 70
     1
102
RTVSPropertyOp3
 70
     1
102
RTVSPropertyOp4
 70
     1
102
RTVSPropertyOp5
 70
     1
102
RTVSPropertyOp6
 70
     1
102
RTVSPropertyOp7
 70
     1
102
RTVSPropertyOp8
 70
     1
102
RTVSPropertyOp9
 70
     1
102
RTVSPropertyOp10
 70
     1
102
RTVSPropertyOp11
 70
     1
102
RTVSPropertyOp12
 70
     1
102
RTVSPropertyOp13
 70
     1
102
RTVSPropertyOp14
 70
     1
102
RTVSPropertyOp15
 70
     1
102
RTVSPropertyOp16
 70
     1
102
RTVSPropertyOp17
 70
     1
102
RTVSPropertyOp18
 70
     1
102
RTVSPropertyOp19
 70
     1
102
RTVSPropertyOp20
 70
     1
102
RTVSPropertyOp21
 70
     1
102
RTVSPropertyOp22
 70
     1
102
RTVSPropertyOp23
 70
     1
102
RTVSPropertyOp24
 70
     1
102
RTVSPropertyOp25
 70
     1
102
RTVSPropertyOp26
 70
     1
102
RTVSPropertyOp27
 70
     1
102
RTVSPropertyOp28
 70
     1
102
RTVSPropertyOp29
 70
     1
102
RTVSPropertyOp30
 70
     1
102
RTVSPropertyOp31
 70
     1
102
RTVSPropertyOp32
 70
     1
  0
XRECORD
  5
1E0D
102
{ACAD_REACTORS
330
1E0C
102
}
330
1E0C
100
AcDbXrecord
280
     1
102
RTVSPropertyOp0
 70
     0
102
RTVSPropertyOp1
 70
     0
102
RTVSPropertyOp2
 70
     0
102
RTVSPropertyOp3
 70
     0
102
RTVSPropertyOp4
 70
     0
102
RTVSPropertyOp5
 70
     0
102
RTVSPropertyOp6
 70
     0
102
RTVSPropertyOp7
 70
     0
102
RTVSPropertyOp8
 70
     0
102
RTVSPropertyOp9
 70
     0
102
RTVSPropertyOp10
 70
     0
102
RTVSPropertyOp11
 70
     0
102
RTVSPropertyOp12
 70
     0
102
RTVSPropertyOp13
 70
     0
102
RTVSPropertyOp14
 70
     2
102
RTVSPropertyOp15
 70
     0
102
RTVSPropertyOp16
 70
     0
102
RTVSPropertyOp17
 70
     0
102
RTVSPropertyOp18
 70
     0
102
RTVSPropertyOp19
 70
     0
102
RTVSPropertyOp20
 70
     0
102
RTVSPropertyOp21
 70
     0
102
RTVSPropertyOp22
 70
     0
102
RTVSPropertyOp23
 70
     0
102
RTVSPropertyOp24
 70
     0
102
RTVSPropertyOp25
 70
     0
102
RTVSPropertyOp26
 70
     0
102
RTVSPropertyOp27
 70
     0
102
RTVSPropertyOp28
 70
     0
102
RTVSPropertyOp29
 70
     0
102
RTVSPropertyOp30
 70
     0
102
RTVSPropertyOp31
 70
     0
102
RTVSPropertyOp32
 70
     0
  0
XRECORD
  5
1DFB
102
{ACAD_REACTORS
330
1DFA
102
}
330
1DFA
100
AcDbXrecord
280
     1
102
RTVSPropertyOp0
 70
     1
102
RTVSPropertyOp1
 70
     1
102
RTVSPropertyOp2
 70
     1
102
RTVSPropertyOp3
 70
     1
102
RTVSPropertyOp4
 70
     1
102
RTVSPropertyOp5
 70
     1
102
RTVSPropertyOp6
 70
     1
102
RTVSPropertyOp7
 70
     1
102
RTVSPropertyOp8
 70
     1
102
RTVSPropertyOp9
 70
     1
102
RTVSPropertyOp10
 70
     1
102
RTVSPropertyOp11
 70
     1
102
RTVSPropertyOp12
 70
     1
102
RTVSPropertyOp13
 70
     1
102
RTVSPropertyOp14
 70
     1
102
RTVSPropertyOp15
 70
     1
102
RTVSPropertyOp16
 70
     1
102
RTVSPropertyOp17
 70
     1
102
RTVSPropertyOp18
 70
     1
102
RTVSPropertyOp19
 70
     1
102
RTVSPropertyOp20
 70
     1
102
RTVSPropertyOp21
 70
     1
102
RTVSPropertyOp22
 70
     1
102
RTVSPropertyOp23
 70
     1
102
RTVSPropertyOp24
 70
     1
102
RTVSPropertyOp25
 70
     1
102
RTVSPropertyOp26
 70
     1
102
RTVSPropertyOp27
 70
     1
102
RTVSPropertyOp28
 70
     1
102
RTVSPropertyOp29
 70
     1
102
RTVSPropertyOp30
 70
     1
102
RTVSPropertyOp31
 70
     1
102
RTVSPropertyOp32
 70
     1
  0
XRECORD
  5
1DDF
102
{ACAD_REACTORS
330
1DDE
102
}
330
1DDE
100
AcDbXrecord
280
     1
102
RTVSPropertyOp0
 70
     1
102
RTVSPropertyOp1
 70
     1
102
RTVSPropertyOp2
 70
     1
102
RTVSPropertyOp3
 70
     1
102
RTVSPropertyOp4
 70
     1
102
RTVSPropertyOp5
 70
     1
102
RTVSPropertyOp6
 70
     1
102
RTVSPropertyOp7
 70
     1
102
RTVSPropertyOp8
 70
     1
102
RTVSPropertyOp9
 70
     1
102
RTVSPropertyOp10
 70
     1
102
RTVSPropertyOp11
 70
     1
102
RTVSPropertyOp12
 70
     1
102
RTVSPropertyOp13
 70
     1
102
RTVSPropertyOp14
 70
     1
102
RTVSPropertyOp15
 70
     1
102
RTVSPropertyOp16
 70
     1
102
RTVSPropertyOp17
 70
     1
102
RTVSPropertyOp18
 70
     1
102
RTVSPropertyOp19
 70
     1
102
RTVSPropertyOp20
 70
     1
102
RTVSPropertyOp21
 70
     1
102
RTVSPropertyOp22
 70
     1
102
RTVSPropertyOp23
 70
     1
102
RTVSPropertyOp24
 70
     1
102
RTVSPropertyOp25
 70
     1
102
RTVSPropertyOp26
 70
     1
102
RTVSPropertyOp27
 70
     1
102
RTVSPropertyOp28
 70
     1
102
RTVSPropertyOp29
 70
     1
102
RTVSPropertyOp30
 70
     1
102
RTVSPropertyOp31
 70
     1
102
RTVSPropertyOp32
 70
     1
  0
XRECORD
  5
1DE1
102
{ACAD_REACTORS
330
1DE0
102
}
330
1DE0
100
AcDbXrecord
280
     1
102
RTVSPropertyOp0
 70
     1
102
RTVSPropertyOp1
 70
     1
102
RTVSPropertyOp2
 70
     1
102
RTVSPropertyOp3
 70
     1
102
RTVSPropertyOp4
 70
     1
102
RTVSPropertyOp5
 70
     1
102
RTVSPropertyOp6
 70
     1
102
RTVSPropertyOp7
 70
     1
102
RTVSPropertyOp8
 70
     1
102
RTVSPropertyOp9
 70
     1
102
RTVSPropertyOp10
 70
     1
102
RTVSPropertyOp11
 70
     1
102
RTVSPropertyOp12
 70
     1
102
RTVSPropertyOp13
 70
     1
102
RTVSPropertyOp14
 70
     1
102
RTVSPropertyOp15
 70
     1
102
RTVSPropertyOp16
 70
     1
102
RTVSPropertyOp17
 70
     1
102
RTVSPropertyOp18
 70
     1
102
RTVSPropertyOp19
 70
     1
102
RTVSPropertyOp20
 70
     1
102
RTVSPropertyOp21
 70
     1
102
RTVSPropertyOp22
 70
     1
102
RTVSPropertyOp23
 70
     1
102
RTVSPropertyOp24
 70
     1
102
RTVSPropertyOp25
 70
     1
102
RTVSPropertyOp26
 70
     1
102
RTVSPropertyOp27
 70
     1
102
RTVSPropertyOp28
 70
     1
102
RTVSPropertyOp29
 70
     1
102
RTVSPropertyOp30
 70
     1
102
RTVSPropertyOp31
 70
     1
102
RTVSPropertyOp32
 70
     1
  0
XRECORD
  5
1DE3
102
{ACAD_REACTORS
330
1DE2
102
}
330
1DE2
100
AcDbXrecord
280
     1
102
RTVSPropertyOp0
 70
     1
102
RTVSPropertyOp1
 70
     1
102
RTVSPropertyOp2
 70
     1
102
RTVSPropertyOp3
 70
     1
102
RTVSPropertyOp4
 70
     1
102
RTVSPropertyOp5
 70
     1
102
RTVSPropertyOp6
 70
     1
102
RTVSPropertyOp7
 70
     1
102
RTVSPropertyOp8
 70
     1
102
RTVSPropertyOp9
 70
     1
102
RTVSPropertyOp10
 70
     1
102
RTVSPropertyOp11
 70
     1
102
RTVSPropertyOp12
 70
     1
102
RTVSPropertyOp13
 70
     1
102
RTVSPropertyOp14
 70
     1
102
RTVSPropertyOp15
 70
     1
102
RTVSPropertyOp16
 70
     1
102
RTVSPropertyOp17
 70
     1
102
RTVSPropertyOp18
 70
     1
102
RTVSPropertyOp19
 70
     1
102
RTVSPropertyOp20
 70
     1
102
RTVSPropertyOp21
 70
     1
102
RTVSPropertyOp22
 70
     1
102
RTVSPropertyOp23
 70
     1
102
RTVSPropertyOp24
 70
     1
102
RTVSPropertyOp25
 70
     1
102
RTVSPropertyOp26
 70
     1
102
RTVSPropertyOp27
 70
     1
102
RTVSPropertyOp28
 70
     1
102
RTVSPropertyOp29
 70
     1
102
RTVSPropertyOp30
 70
     1
102
RTVSPropertyOp31
 70
     1
102
RTVSPropertyOp32
 70
     1
  0
XRECORD
  5
1DE5
102
{ACAD_REACTORS
330
1DE4
102
}
330
1DE4
100
AcDbXrecord
280
     1
102
RTVSPropertyOp0
 70
     1
102
RTVSPropertyOp1
 70
     1
102
RTVSPropertyOp2
 70
     1
102
RTVSPropertyOp3
 70
     1
102
RTVSPropertyOp4
 70
     1
102
RTVSPropertyOp5
 70
     1
102
RTVSPropertyOp6
 70
     1
102
RTVSPropertyOp7
 70
     1
102
RTVSPropertyOp8
 70
     1
102
RTVSPropertyOp9
 70
     1
102
RTVSPropertyOp10
 70
     1
102
RTVSPropertyOp11
 70
     1
102
RTVSPropertyOp12
 70
     1
102
RTVSPropertyOp13
 70
     1
102
RTVSPropertyOp14
 70
     1
102
RTVSPropertyOp15
 70
     1
102
RTVSPropertyOp16
 70
     1
102
RTVSPropertyOp17
 70
     1
102
RTVSPropertyOp18
 70
     1
102
RTVSPropertyOp19
 70
     1
102
RTVSPropertyOp20
 70
     1
102
RTVSPropertyOp21
 70
     1
102
RTVSPropertyOp22
 70
     1
102
RTVSPropertyOp23
 70
     1
102
RTVSPropertyOp24
 70
     1
102
RTVSPropertyOp25
 70
     1
102
RTVSPropertyOp26
 70
     1
102
RTVSPropertyOp27
 70
     1
102
RTVSPropertyOp28
 70
     1
102
RTVSPropertyOp29
 70
     1
102
RTVSPropertyOp30
 70
     1
102
RTVSPropertyOp31
 70
     1
102
RTVSPropertyOp32
 70
     1
  0
XRECORD
  5
1DED
102
{ACAD_REACTORS
330
1DEC
102
}
330
1DEC
100
AcDbXrecord
280
     1
102
RTVSPropertyOp0
 70
     1
102
RTVSPropertyOp1
 70
     1
102
RTVSPropertyOp2
 70
     1
102
RTVSPropertyOp3
 70
     1
102
RTVSPropertyOp4
 70
     1
102
RTVSPropertyOp5
 70
     1
102
RTVSPropertyOp6
 70
     1
102
RTVSPropertyOp7
 70
     1
102
RTVSPropertyOp8
 70
     1
102
RTVSPropertyOp9
 70
     1
102
RTVSPropertyOp10
 70
     1
102
RTVSPropertyOp11
 70
     1
102
RTVSPropertyOp12
 70
     1
102
RTVSPropertyOp13
 70
     1
102
RTVSPropertyOp14
 70
     1
102
RTVSPropertyOp15
 70
     1
102
RTVSPropertyOp16
 70
     1
102
RTVSPropertyOp17
 70
     1
102
RTVSPropertyOp18
 70
     1
102
RTVSPropertyOp19
 70
     1
102
RTVSPropertyOp20
 70
     1
102
RTVSPropertyOp21
 70
     1
102
RTVSPropertyOp22
 70
     1
102
RTVSPropertyOp23
 70
     1
102
RTVSPropertyOp24
 70
     1
102
RTVSPropertyOp25
 70
     1
102
RTVSPropertyOp26
 70
     1
102
RTVSPropertyOp27
 70
     1
102
RTVSPropertyOp28
 70
     1
102
RTVSPropertyOp29
 70
     1
102
RTVSPropertyOp30
 70
     1
102
RTVSPropertyOp31
 70
     1
102
RTVSPropertyOp32
 70
     1
  0
XRECORD
  5
1E09
102
{ACAD_REACTORS
330
1E08
102
}
330
1E08
100
AcDbXrecord
280
     1
102
RTVSPropertyOp0
 70
     0
102
RTVSPropertyOp1
 70
     0
102
RTVSPropertyOp2
 70
     0
102
RTVSPropertyOp3
 70
     0
102
RTVSPropertyOp4
 70
     0
102
RTVSPropertyOp5
 70
     0
102
RTVSPropertyOp6
 70
     0
102
RTVSPropertyOp7
 70
     0
102
RTVSPropertyOp8
 70
     0
102
RTVSPropertyOp9
 70
     0
102
RTVSPropertyOp10
 70
     0
102
RTVSPropertyOp11
 70
     0
102
RTVSPropertyOp12
 70
     0
102
RTVSPropertyOp13
 70
     0
102
RTVSPropertyOp14
 70
     2
102
RTVSPropertyOp15
 70
     0
102
RTVSPropertyOp16
 70
     0
102
RTVSPropertyOp17
 70
     0
102
RTVSPropertyOp18
 70
     0
102
RTVSPropertyOp19
 70
     0
102
RTVSPropertyOp20
 70
     0
102
RTVSPropertyOp21
 70
     0
102
RTVSPropertyOp22
 70
     0
102
RTVSPropertyOp23
 70
     0
102
RTVSPropertyOp24
 70
     0
102
RTVSPropertyOp25
 70
     0
102
RTVSPropertyOp26
 70
     0
102
RTVSPropertyOp27
 70
     0
102
RTVSPropertyOp28
 70
     0
102
RTVSPropertyOp29
 70
     0
102
RTVSPropertyOp30
 70
     0
102
RTVSPropertyOp31
 70
     0
102
RTVSPropertyOp32
 70
     0
  0
XRECORD
  5
1DF9
102
{ACAD_REACTORS
330
1DF8
102
}
330
1DF8
100
AcDbXrecord
280
     1
102
RTVSPropertyOp0
 70
     1
102
RTVSPropertyOp1
 70
     1
102
RTVSPropertyOp2
 70
     1
102
RTVSPropertyOp3
 70
     1
102
RTVSPropertyOp4
 70
     1
102
RTVSPropertyOp5
 70
     1
102
RTVSPropertyOp6
 70
     1
102
RTVSPropertyOp7
 70
     1
102
RTVSPropertyOp8
 70
     1
102
RTVSPropertyOp9
 70
     1
102
RTVSPropertyOp10
 70
     1
102
RTVSPropertyOp11
 70
     1
102
RTVSPropertyOp12
 70
     1
102
RTVSPropertyOp13
 70
     1
102
RTVSPropertyOp14
 70
     1
102
RTVSPropertyOp15
 70
     1
102
RTVSPropertyOp16
 70
     1
102
RTVSPropertyOp17
 70
     1
102
RTVSPropertyOp18
 70
     1
102
RTVSPropertyOp19
 70
     1
102
RTVSPropertyOp20
 70
     1
102
RTVSPropertyOp21
 70
     1
102
RTVSPropertyOp22
 70
     1
102
RTVSPropertyOp23
 70
     1
102
RTVSPropertyOp24
 70
     1
102
RTVSPropertyOp25
 70
     1
102
RTVSPropertyOp26
 70
     1
102
RTVSPropertyOp27
 70
     1
102
RTVSPropertyOp28
 70
     1
102
RTVSPropertyOp29
 70
     1
102
RTVSPropertyOp30
 70
     1
102
RTVSPropertyOp31
 70
     1
102
RTVSPropertyOp32
 70
     1
  0
XRECORD
  5
1E0B
102
{ACAD_REACTORS
330
1E0A
102
}
330
1E0A
100
AcDbXrecord
280
     1
102
RTVSPropertyOp0
 70
     0
102
RTVSPropertyOp1
 70
     0
102
RTVSPropertyOp2
 70
     0
102
RTVSPropertyOp3
 70
     0
102
RTVSPropertyOp4
 70
     0
102
RTVSPropertyOp5
 70
     0
102
RTVSPropertyOp6
 70
     0
102
RTVSPropertyOp7
 70
     0
102
RTVSPropertyOp8
 70
     0
102
RTVSPropertyOp9
 70
     0
102
RTVSPropertyOp10
 70
     0
102
RTVSPropertyOp11
 70
     0
102
RTVSPropertyOp12
 70
     0
102
RTVSPropertyOp13
 70
     0
102
RTVSPropertyOp14
 70
     2
102
RTVSPropertyOp15
 70
     0
102
RTVSPropertyOp16
 70
     0
102
RTVSPropertyOp17
 70
     0
102
RTVSPropertyOp18
 70
     0
102
RTVSPropertyOp19
 70
     0
102
RTVSPropertyOp20
 70
     0
102
RTVSPropertyOp21
 70
     0
102
RTVSPropertyOp22
 70
     0
102
RTVSPropertyOp23
 70
     0
102
RTVSPropertyOp24
 70
     0
102
RTVSPropertyOp25
 70
     0
102
RTVSPropertyOp26
 70
     0
102
RTVSPropertyOp27
 70
     0
102
RTVSPropertyOp28
 70
     0
102
RTVSPropertyOp29
 70
     0
102
RTVSPropertyOp30
 70
     0
102
RTVSPropertyOp31
 70
     0
102
RTVSPropertyOp32
 70
     0
  0
XRECORD
  5
1DF1
102
{ACAD_REACTORS
330
1DF0
102
}
330
1DF0
100
AcDbXrecord
280
     1
102
RTVSPropertyOp0
 70
     1
102
RTVSPropertyOp1
 70
     1
102
RTVSPropertyOp2
 70
     1
102
RTVSPropertyOp3
 70
     1
102
RTVSPropertyOp4
 70
     1
102
RTVSPropertyOp5
 70
     1
102
RTVSPropertyOp6
 70
     1
102
RTVSPropertyOp7
 70
     1
102
RTVSPropertyOp8
 70
     1
102
RTVSPropertyOp9
 70
     1
102
RTVSPropertyOp10
 70
     1
102
RTVSPropertyOp11
 70
     1
102
RTVSPropertyOp12
 70
     1
102
RTVSPropertyOp13
 70
     1
102
RTVSPropertyOp14
 70
     1
102
RTVSPropertyOp15
 70
     1
102
RTVSPropertyOp16
 70
     1
102
RTVSPropertyOp17
 70
     1
102
RTVSPropertyOp18
 70
     1
102
RTVSPropertyOp19
 70
     1
102
RTVSPropertyOp20
 70
     1
102
RTVSPropertyOp21
 70
     1
102
RTVSPropertyOp22
 70
     1
102
RTVSPropertyOp23
 70
     1
102
RTVSPropertyOp24
 70
     1
102
RTVSPropertyOp25
 70
     1
102
RTVSPropertyOp26
 70
     1
102
RTVSPropertyOp27
 70
     1
102
RTVSPropertyOp28
 70
     1
102
RTVSPropertyOp29
 70
     1
102
RTVSPropertyOp30
 70
     1
102
RTVSPropertyOp31
 70
     1
102
RTVSPropertyOp32
 70
     1
  0
XRECORD
  5
1E07
102
{ACAD_REACTORS
330
1E06
102
}
330
1E06
100
AcDbXrecord
280
     1
102
RTVSPropertyOp0
 70
     1
102
RTVSPropertyOp1
 70
     1
102
RTVSPropertyOp2
 70
     1
102
RTVSPropertyOp3
 70
     1
102
RTVSPropertyOp4
 70
     1
102
RTVSPropertyOp5
 70
     1
102
RTVSPropertyOp6
 70
     1
102
RTVSPropertyOp7
 70
     1
102
RTVSPropertyOp8
 70
     1
102
RTVSPropertyOp9
 70
     1
102
RTVSPropertyOp10
 70
     1
102
RTVSPropertyOp11
 70
     1
102
RTVSPropertyOp12
 70
     1
102
RTVSPropertyOp13
 70
     1
102
RTVSPropertyOp14
 70
     1
102
RTVSPropertyOp15
 70
     1
102
RTVSPropertyOp16
 70
     1
102
RTVSPropertyOp17
 70
     1
102
RTVSPropertyOp18
 70
     1
102
RTVSPropertyOp19
 70
     1
102
RTVSPropertyOp20
 70
     1
102
RTVSPropertyOp21
 70
     1
102
RTVSPropertyOp22
 70
     1
102
RTVSPropertyOp23
 70
     1
102
RTVSPropertyOp24
 70
     1
102
RTVSPropertyOp25
 70
     1
102
RTVSPropertyOp26
 70
     1
102
RTVSPropertyOp27
 70
     1
102
RTVSPropertyOp28
 70
     1
102
RTVSPropertyOp29
 70
     1
102
RTVSPropertyOp30
 70
     1
102
RTVSPropertyOp31
 70
     1
102
RTVSPropertyOp32
 70
     1
  0
XRECORD
  5
1E05
102
{ACAD_REACTORS
330
1E04
102
}
330
1E04
100
AcDbXrecord
280
     1
102
RTVSPropertyOp0
 70
     1
102
RTVSPropertyOp1
 70
     1
102
RTVSPropertyOp2
 70
     1
102
RTVSPropertyOp3
 70
     1
102
RTVSPropertyOp4
 70
     1
102
RTVSPropertyOp5
 70
     1
102
RTVSPropertyOp6
 70
     1
102
RTVSPropertyOp7
 70
     1
102
RTVSPropertyOp8
 70
     1
102
RTVSPropertyOp9
 70
     1
102
RTVSPropertyOp10
 70
     1
102
RTVSPropertyOp11
 70
     1
102
RTVSPropertyOp12
 70
     1
102
RTVSPropertyOp13
 70
     1
102
RTVSPropertyOp14
 70
     1
102
RTVSPropertyOp15
 70
     1
102
RTVSPropertyOp16
 70
     1
102
RTVSPropertyOp17
 70
     1
102
RTVSPropertyOp18
 70
     1
102
RTVSPropertyOp19
 70
     1
102
RTVSPropertyOp20
 70
     1
102
RTVSPropertyOp21
 70
     1
102
RTVSPropertyOp22
 70
     1
102
RTVSPropertyOp23
 70
     1
102
RTVSPropertyOp24
 70
     1
102
RTVSPropertyOp25
 70
     1
102
RTVSPropertyOp26
 70
     1
102
RTVSPropertyOp27
 70
     1
102
RTVSPropertyOp28
 70
     1
102
RTVSPropertyOp29
 70
     1
102
RTVSPropertyOp30
 70
     1
102
RTVSPropertyOp31
 70
     1
102
RTVSPropertyOp32
 70
     1
  0
XRECORD
  5
1DFF
102
{ACAD_REACTORS
330
1DFE
102
}
330
1DFE
100
AcDbXrecord
280
     1
102
RTVSPropertyOp0
 70
     1
102
RTVSPropertyOp1
 70
     1
102
RTVSPropertyOp2
 70
     1
102
RTVSPropertyOp3
 70
     1
102
RTVSPropertyOp4
 70
     1
102
RTVSPropertyOp5
 70
     1
102
RTVSPropertyOp6
 70
     1
102
RTVSPropertyOp7
 70
     1
102
RTVSPropertyOp8
 70
     1
102
RTVSPropertyOp9
 70
     1
102
RTVSPropertyOp10
 70
     1
102
RTVSPropertyOp11
 70
     1
102
RTVSPropertyOp12
 70
     1
102
RTVSPropertyOp13
 70
     1
102
RTVSPropertyOp14
 70
     1
102
RTVSPropertyOp15
 70
     1
102
RTVSPropertyOp16
 70
     1
102
RTVSPropertyOp17
 70
     1
102
RTVSPropertyOp18
 70
     1
102
RTVSPropertyOp19
 70
     1
102
RTVSPropertyOp20
 70
     1
102
RTVSPropertyOp21
 70
     1
102
RTVSPropertyOp22
 70
     1
102
RTVSPropertyOp23
 70
     1
102
RTVSPropertyOp24
 70
     1
102
RTVSPropertyOp25
 70
     1
102
RTVSPropertyOp26
 70
     1
102
RTVSPropertyOp27
 70
     1
102
RTVSPropertyOp28
 70
     1
102
RTVSPropertyOp29
 70
     1
102
RTVSPropertyOp30
 70
     1
102
RTVSPropertyOp31
 70
     1
102
RTVSPropertyOp32
 70
     1
  0
XRECORD
  5
1E01
102
{ACAD_REACTORS
330
1E00
102
}
330
1E00
100
AcDbXrecord
280
     1
102
RTVSPropertyOp0
 70
     1
102
RTVSPropertyOp1
 70
     1
102
RTVSPropertyOp2
 70
     1
102
RTVSPropertyOp3
 70
     1
102
RTVSPropertyOp4
 70
     1
102
RTVSPropertyOp5
 70
     1
102
RTVSPropertyOp6
 70
     1
102
RTVSPropertyOp7
 70
     1
102
RTVSPropertyOp8
 70
     1
102
RTVSPropertyOp9
 70
     1
102
RTVSPropertyOp10
 70
     1
102
RTVSPropertyOp11
 70
     1
102
RTVSPropertyOp12
 70
     1
102
RTVSPropertyOp13
 70
     1
102
RTVSPropertyOp14
 70
     1
102
RTVSPropertyOp15
 70
     1
102
RTVSPropertyOp16
 70
     1
102
RTVSPropertyOp17
 70
     1
102
RTVSPropertyOp18
 70
     1
102
RTVSPropertyOp19
 70
     1
102
RTVSPropertyOp20
 70
     1
102
RTVSPropertyOp21
 70
     1
102
RTVSPropertyOp22
 70
     1
102
RTVSPropertyOp23
 70
     1
102
RTVSPropertyOp24
 70
     1
102
RTVSPropertyOp25
 70
     1
102
RTVSPropertyOp26
 70
     1
102
RTVSPropertyOp27
 70
     1
102
RTVSPropertyOp28
 70
     1
102
RTVSPropertyOp29
 70
     1
102
RTVSPropertyOp30
 70
     1
102
RTVSPropertyOp31
 70
     1
102
RTVSPropertyOp32
 70
     1
  0
XRECORD
  5
1DF7
102
{ACAD_REACTORS
330
1DF6
102
}
330
1DF6
100
AcDbXrecord
280
     1
102
RTVSPropertyOp0
 70
     1
102
RTVSPropertyOp1
 70
     1
102
RTVSPropertyOp2
 70
     1
102
RTVSPropertyOp3
 70
     1
102
RTVSPropertyOp4
 70
     1
102
RTVSPropertyOp5
 70
     1
102
RTVSPropertyOp6
 70
     1
102
RTVSPropertyOp7
 70
     1
102
RTVSPropertyOp8
 70
     1
102
RTVSPropertyOp9
 70
     1
102
RTVSPropertyOp10
 70
     1
102
RTVSPropertyOp11
 70
     1
102
RTVSPropertyOp12
 70
     1
102
RTVSPropertyOp13
 70
     1
102
RTVSPropertyOp14
 70
     1
102
RTVSPropertyOp15
 70
     1
102
RTVSPropertyOp16
 70
     1
102
RTVSPropertyOp17
 70
     1
102
RTVSPropertyOp18
 70
     1
102
RTVSPropertyOp19
 70
     1
102
RTVSPropertyOp20
 70
     1
102
RTVSPropertyOp21
 70
     1
102
RTVSPropertyOp22
 70
     1
102
RTVSPropertyOp23
 70
     1
102
RTVSPropertyOp24
 70
     1
102
RTVSPropertyOp25
 70
     1
102
RTVSPropertyOp26
 70
     1
102
RTVSPropertyOp27
 70
     1
102
RTVSPropertyOp28
 70
     1
102
RTVSPropertyOp29
 70
     1
102
RTVSPropertyOp30
 70
     1
102
RTVSPropertyOp31
 70
     1
102
RTVSPropertyOp32
 70
     1
  0
XRECORD
  5
1DEB
102
{ACAD_REACTORS
330
1DEA
102
}
330
1DEA
100
AcDbXrecord
280
     1
102
RTVSPropertyOp0
 70
     1
102
RTVSPropertyOp1
 70
     1
102
RTVSPropertyOp2
 70
     1
102
RTVSPropertyOp3
 70
     1
102
RTVSPropertyOp4
 70
     1
102
RTVSPropertyOp5
 70
     1
102
RTVSPropertyOp6
 70
     1
102
RTVSPropertyOp7
 70
     1
102
RTVSPropertyOp8
 70
     1
102
RTVSPropertyOp9
 70
     1
102
RTVSPropertyOp10
 70
     1
102
RTVSPropertyOp11
 70
     1
102
RTVSPropertyOp12
 70
     1
102
RTVSPropertyOp13
 70
     1
102
RTVSPropertyOp14
 70
     1
102
RTVSPropertyOp15
 70
     1
102
RTVSPropertyOp16
 70
     1
102
RTVSPropertyOp17
 70
     1
102
RTVSPropertyOp18
 70
     1
102
RTVSPropertyOp19
 70
     1
102
RTVSPropertyOp20
 70
     1
102
RTVSPropertyOp21
 70
     1
102
RTVSPropertyOp22
 70
     1
102
RTVSPropertyOp23
 70
     1
102
RTVSPropertyOp24
 70
     1
102
RTVSPropertyOp25
 70
     1
102
RTVSPropertyOp26
 70
     1
102
RTVSPropertyOp27
 70
     1
102
RTVSPropertyOp28
 70
     1
102
RTVSPropertyOp29
 70
     1
102
RTVSPropertyOp30
 70
     1
102
RTVSPropertyOp31
 70
     1
102
RTVSPropertyOp32
 70
     1
  0
XRECORD
  5
1E03
102
{ACAD_REACTORS
330
1E02
102
}
330
1E02
100
AcDbXrecord
280
     1
102
RTVSPropertyOp0
 70
     1
102
RTVSPropertyOp1
 70
     1
102
RTVSPropertyOp2
 70
     1
102
RTVSPropertyOp3
 70
     1
102
RTVSPropertyOp4
 70
     1
102
RTVSPropertyOp5
 70
     1
102
RTVSPropertyOp6
 70
     1
102
RTVSPropertyOp7
 70
     1
102
RTVSPropertyOp8
 70
     1
102
RTVSPropertyOp9
 70
     1
102
RTVSPropertyOp10
 70
     1
102
RTVSPropertyOp11
 70
     1
102
RTVSPropertyOp12
 70
     1
102
RTVSPropertyOp13
 70
     1
102
RTVSPropertyOp14
 70
     1
102
RTVSPropertyOp15
 70
     1
102
RTVSPropertyOp16
 70
     1
102
RTVSPropertyOp17
 70
     1
102
RTVSPropertyOp18
 70
     1
102
RTVSPropertyOp19
 70
     1
102
RTVSPropertyOp20
 70
     1
102
RTVSPropertyOp21
 70
     1
102
RTVSPropertyOp22
 70
     1
102
RTVSPropertyOp23
 70
     1
102
RTVSPropertyOp24
 70
     1
102
RTVSPropertyOp25
 70
     1
102
RTVSPropertyOp26
 70
     1
102
RTVSPropertyOp27
 70
     1
102
RTVSPropertyOp28
 70
     1
102
RTVSPropertyOp29
 70
     1
102
RTVSPropertyOp30
 70
     1
102
RTVSPropertyOp31
 70
     1
102
RTVSPropertyOp32
 70
     1
  0
ENDSEC
  0
EOF
