  0
SECTION
  2
HEADER
  9
$ACADVER
  1
AC1015
  9
$ACADMAINTVER
 70
    14
  9
$DWGCODEPAGE
  3
ANSI_932
  9
$INSBASE
 10
0.0
 20
0.0
 30
0.0
  9
$EXTMIN
 10
66.67350351229107
 20
73.17022621214187
 30
0.0
  9
$EXTMAX
 10
509.4476418280041
 20
871.6337501394272
 30
0.0
  9
$LIMMIN
 10
0.0
 20
0.0
  9
$LIMMAX
 10
420.0
 20
297.0
  9
$ORTHOMODE
 70
     1
  9
$REGENMODE
 70
     1
  9
$FILLMODE
 70
     1
  9
$QTEXTMODE
 70
     0
  9
$MIRRTEXT
 70
     1
  9
$LTSCALE
 40
1.0
  9
$ATTMODE
 70
     1
  9
$TEXTSIZE
 40
2.5
  9
$TRACEWID
 40
1.0
  9
$TEXTSTYLE
  7
STANDARD
  9
$CLAYER
  8
2寸法線
  9
$CELTYPE
  6
ByLayer
  9
$CECOLOR
 62
   256
  9
$CELTSCALE
 40
1.0
  9
$DISPSILH
 70
     0
  9
$DIMSCALE
 40
1.0
  9
$DIMASZ
 40
2.5
  9
$DIMEXO
 40
0.625
  9
$DIMDLI
 40
3.75
  9
$DIMRND
 40
0.0
  9
$DIMDLE
 40
0.0
  9
$DIMEXE
 40
1.25
  9
$DIMTP
 40
0.0
  9
$DIMTM
 40
0.0
  9
$DIMTXT
 40
2.5
  9
$DIMCEN
 40
2.5
  9
$DIMTSZ
 40
0.0
  9
$DIMTOL
 70
     0
  9
$DIMLIM
 70
     0
  9
$DIMTIH
 70
     0
  9
$DIMTOH
 70
     0
  9
$DIMSE1
 70
     0
  9
$DIMSE2
 70
     0
  9
$DIMTAD
 70
     1
  9
$DIMZIN
 70
     8
  9
$DIMBLK
  1

  9
$DIMASO
 70
     1
  9
$DIMSHO
 70
     1
  9
$DIMPOST
  1

  9
$DIMAPOST
  1

  9
$DIMALT
 70
     0
  9
$DIMALTD
 70
     3
  9
$DIMALTF
 40
0.03937007874016
  9
$DIMLFAC
 40
1.0
  9
$DIMTOFL
 70
     1
  9
$DIMTVP
 40
0.0
  9
$DIMTIX
 70
     0
  9
$DIMSOXD
 70
     0
  9
$DIMSAH
 70
     0
  9
$DIMBLK1
  1

  9
$DIMBLK2
  1

  9
$DIMSTYLE
  2
ISO-25
  9
$DIMCLRD
 70
     0
  9
$DIMCLRE
 70
     0
  9
$DIMCLRT
 70
     0
  9
$DIMTFAC
 40
1.0
  9
$DIMGAP
 40
0.625
  9
$DIMJUST
 70
     0
  9
$DIMSD1
 70
     0
  9
$DIMSD2
 70
     0
  9
$DIMTOLJ
 70
     1
  9
$DIMTZIN
 70
     0
  9
$DIMALTZ
 70
     0
  9
$DIMALTTZ
 70
     0
  9
$DIMUPT
 70
     0
  9
$DIMDEC
 70
     4
  9
$DIMTDEC
 70
     4
  9
$DIMALTU
 70
     2
  9
$DIMALTTD
 70
     2
  9
$DIMTXSTY
  7
STANDARD
  9
$DIMAUNIT
 70
     0
  9
$DIMADEC
 70
     0
  9
$DIMALTRND
 40
0.0
  9
$DIMAZIN
 70
     0
  9
$DIMDSEP
 70
    46
  9
$DIMATFIT
 70
     3
  9
$DIMFRAC
 70
     0
  9
$DIMLDRBLK
  1

  9
$DIMLUNIT
 70
     2
  9
$DIMLWD
 70
    -2
  9
$DIMLWE
 70
    -2
  9
$DIMTMOVE
 70
     0
  9
$LUNITS
 70
     2
  9
$LUPREC
 70
     4
  9
$SKETCHINC
 40
1.0
  9
$FILLETRAD
 40
0.0
  9
$AUNITS
 70
     0
  9
$AUPREC
 70
     0
  9
$MENU
  1
.
  9
$ELEVATION
 40
0.0
  9
$PELEVATION
 40
0.0
  9
$THICKNESS
 40
0.0
  9
$LIMCHECK
 70
     0
  9
$CHAMFERA
 40
10.0
  9
$CHAMFERB
 40
10.0
  9
$CHAMFERC
 40
0.0
  9
$CHAMFERD
 40
0.0
  9
$SKPOLY
 70
     0
  9
$TDCREATE
 40
2452263.785105242
  9
$TDUCREATE
 40
2452263.410105242
  9
$TDUPDATE
 40
2454258.406705729
  9
$TDUUPDATE
 40
2454258.031705729
  9
$TDINDWG
 40
0.0390945949
  9
$TDUSRTIMER
 40
0.0390940625
  9
$USRTIMER
 70
     1
  9
$ANGBASE
 50
0.0
  9
$ANGDIR
 70
     0
  9
$PDMODE
 70
     0
  9
$PDSIZE
 40
0.0
  9
$PLINEWID
 40
0.0
  9
$SPLFRAME
 70
     0
  9
$SPLINETYPE
 70
     6
  9
$SPLINESEGS
 70
     8
  9
$HANDSEED
  5
4D2
  9
$SURFTAB1
 70
     6
  9
$SURFTAB2
 70
     6
  9
$SURFTYPE
 70
     6
  9
$SURFU
 70
     6
  9
$SURFV
 70
     6
  9
$UCSBASE
  2

  9
$UCSNAME
  2

  9
$UCSORG
 10
0.0
 20
0.0
 30
0.0
  9
$UCSXDIR
 10
1.0
 20
0.0
 30
0.0
  9
$UCSYDIR
 10
0.0
 20
1.0
 30
0.0
  9
$UCSORTHOREF
  2

  9
$UCSORTHOVIEW
 70
     0
  9
$UCSORGTOP
 10
0.0
 20
0.0
 30
0.0
  9
$UCSORGBOTTOM
 10
0.0
 20
0.0
 30
0.0
  9
$UCSORGLEFT
 10
0.0
 20
0.0
 30
0.0
  9
$UCSORGRIGHT
 10
0.0
 20
0.0
 30
0.0
  9
$UCSORGFRONT
 10
0.0
 20
0.0
 30
0.0
  9
$UCSORGBACK
 10
0.0
 20
0.0
 30
0.0
  9
$PUCSBASE
  2

  9
$PUCSNAME
  2

  9
$PUCSORG
 10
0.0
 20
0.0
 30
0.0
  9
$PUCSXDIR
 10
1.0
 20
0.0
 30
0.0
  9
$PUCSYDIR
 10
0.0
 20
1.0
 30
0.0
  9
$PUCSORTHOREF
  2

  9
$PUCSORTHOVIEW
 70
     0
  9
$PUCSORGTOP
 10
0.0
 20
0.0
 30
0.0
  9
$PUCSORGBOTTOM
 10
0.0
 20
0.0
 30
0.0
  9
$PUCSORGLEFT
 10
0.0
 20
0.0
 30
0.0
  9
$PUCSORGRIGHT
 10
0.0
 20
0.0
 30
0.0
  9
$PUCSORGFRONT
 10
0.0
 20
0.0
 30
0.0
  9
$PUCSORGBACK
 10
0.0
 20
0.0
 30
0.0
  9
$USERI1
 70
     0
  9
$USERI2
 70
     0
  9
$USERI3
 70
     0
  9
$USERI4
 70
     0
  9
$USERI5
 70
     0
  9
$USERR1
 40
0.0
  9
$USERR2
 40
0.0
  9
$USERR3
 40
0.0
  9
$USERR4
 40
0.0
  9
$USERR5
 40
0.0
  9
$WORLDVIEW
 70
     1
  9
$SHADEDGE
 70
     3
  9
$SHADEDIF
 70
    70
  9
$TILEMODE
 70
     1
  9
$MAXACTVP
 70
    64
  9
$PINSBASE
 10
0.0
 20
0.0
 30
0.0
  9
$PLIMCHECK
 70
     0
  9
$PEXTMIN
 10
1.000000000000000E+20
 20
1.000000000000000E+20
 30
1.000000000000000E+20
  9
$PEXTMAX
 10
-1.000000000000000E+20
 20
-1.000000000000000E+20
 30
-1.000000000000000E+20
  9
$PLIMMIN
 10
0.0
 20
0.0
  9
$PLIMMAX
 10
420.0
 20
297.0
  9
$UNITMODE
 70
     0
  9
$VISRETAIN
 70
     1
  9
$PLINEGEN
 70
     0
  9
$PSLTSCALE
 70
     1
  9
$TREEDEPTH
 70
  3020
  9
$CMLSTYLE
  2
Standard
  9
$CMLJUST
 70
     0
  9
$CMLSCALE
 40
1.0
  9
$PROXYGRAPHICS
 70
     1
  9
$MEASUREMENT
 70
     0
  9
$CELWEIGHT
370
    -1
  9
$ENDCAPS
280
     0
  9
$JOINSTYLE
280
     0
  9
$LWDISPLAY
290
     0
  9
$INSUNITS
 70
     0
  9
$HYPERLINKBASE
  1

  9
$STYLESHEET
  1

  9
$XEDIT
290
     1
  9
$CEPSNTYPE
380
     0
  9
$PSTYLEMODE
290
     1
  9
$FINGERPRINTGUID
  2
{4216DC54-4152-4118-BEC1-0B97FE533ABC}
  9
$VERSIONGUID
  2
{5DB3C4E7-5D21-436A-91E2-79B21E069A3F}
  9
$EXTNAMES
290
     1
  9
$PSVPSCALE
 40
0.0
  9
$OLESTARTUP
290
     0
  0
ENDSEC
  0
SECTION
  2
CLASSES
  0
CLASS
  1
ACDBDICTIONARYWDFLT
  2
AcDbDictionaryWithDefault
  3
AutoCAD 2000
 90
        0
280
     0
281
     0
  0
CLASS
  1
ACDBPLACEHOLDER
  2
AcDbPlaceHolder
  3
AutoCAD 2000
 90
        0
280
     0
281
     0
  0
CLASS
  1
LAYOUT
  2
AcDbLayout
  3
AutoCAD 2000
 90
        0
280
     0
281
     0
  0
CLASS
  1
DICTIONARYVAR
  2
AcDbDictionaryVar
  3
AutoCAD 2000
 90
        0
280
     0
281
     0
  0
ENDSEC
  0
SECTION
  2
TABLES
  0
TABLE
  2
VPORT
  5
1E6
330
0
100
AcDbSymbolTable
 70
     2
  0
VPORT
  5
4D1
330
1E6
100
AcDbSymbolTableRecord
100
AcDbViewportTableRecord
  2
*Active
 70
     0
 10
0.0
 20
0.0
 11
1.0
 21
1.0
 12
475.6184147253065
 22
478.5286925016062
 13
0.0
 23
0.0
 14
10.0
 24
10.0
 15
10.0
 25
10.0
 16
0.0
 26
0.0
 36
1.0
 17
0.0
 27
0.0
 37
0.0
 40
885.1114015833832
 41
1.22509702457956
 42
50.0
 43
0.0
 44
0.0
 50
0.0
 51
0.0
 71
     0
 72
   100
 73
     1
 74
     3
 75
     0
 76
     0
 77
     0
 78
     0
281
     0
 65
     1
110
0.0
120
0.0
130
0.0
111
1.0
121
0.0
131
0.0
112
0.0
122
1.0
132
0.0
 79
     0
146
0.0
  0
ENDTAB
  0
TABLE
  2
LTYPE
  5
1E3
330
0
100
AcDbSymbolTable
 70
     1
  0
LTYPE
  5
1F1
330
1E3
100
AcDbSymbolTableRecord
100
AcDbLinetypeTableRecord
  2
ByBlock
 70
     0
  3

 72
    65
 73
     0
 40
0.0
  0
LTYPE
  5
1F2
330
1E3
100
AcDbSymbolTableRecord
100
AcDbLinetypeTableRecord
  2
ByLayer
 70
     0
  3

 72
    65
 73
     0
 40
0.0
  0
LTYPE
  5
1F3
330
1E3
100
AcDbSymbolTableRecord
100
AcDbLinetypeTableRecord
  2
CONTINUOUS
 70
     0
  3
Solid line
 72
    65
 73
     0
 40
0.0
  0
ENDTAB
  0
TABLE
  2
LAYER
  5
1E0
330
0
100
AcDbSymbolTable
 70
     6
  0
LAYER
  5
1EE
330
1E0
100
AcDbSymbolTableRecord
100
AcDbLayerTableRecord
  2
0
 70
     0
 62
     7
  6
CONTINUOUS
370
    -3
390
1ED
  0
LAYER
  5
201
330
1E0
100
AcDbSymbolTableRecord
100
AcDbLayerTableRecord
  2
1外形線
 70
     0
 62
     3
  6
CONTINUOUS
370
    -3
390
1ED
  0
LAYER
  5
202
330
1E0
100
AcDbSymbolTableRecord
100
AcDbLayerTableRecord
  2
DEFPOINTS
 70
     0
 62
     7
  6
CONTINUOUS
290
     0
370
    -3
390
1ED
  0
LAYER
  5
203
330
1E0
100
AcDbSymbolTableRecord
100
AcDbLayerTableRecord
  2
C4
 70
     0
 62
     3
  6
CONTINUOUS
370
    -3
390
1ED
  0
LAYER
  5
213
330
1E0
100
AcDbSymbolTableRecord
100
AcDbLayerTableRecord
  2
2寸法線
 70
     0
 62
     2
  6
CONTINUOUS
370
    -3
390
1ED
  0
ENDTAB
  0
TABLE
  2
STYLE
  5
1E1
330
0
100
AcDbSymbolTable
 70
     2
  0
STYLE
  5
1EF
330
1E1
100
AcDbSymbolTableRecord
100
AcDbTextStyleTableRecord
  2
STANDARD
 70
     0
 40
0.0
 41
1.0
 50
0.0
 71
     0
 42
2.5
  3
txt
  4

  0
STYLE
  5
205
330
1E1
100
AcDbSymbolTableRecord
100
AcDbTextStyleTableRecord
  2
KANJI
 70
     0
 40
0.0
 41
1.0
 50
0.0
 71
     0
 42
2.5
  3
simplex.shx
  4
extfont.shx
  0
ENDTAB
  0
TABLE
  2
VIEW
  5
1E4
330
0
100
AcDbSymbolTable
 70
     0
  0
ENDTAB
  0
TABLE
  2
UCS
  5
1E5
330
0
100
AcDbSymbolTable
 70
     0
  0
ENDTAB
  0
TABLE
  2
APPID
  5
1E7
330
0
100
AcDbSymbolTable
 70
     1
  0
APPID
  5
1F0
330
1E7
100
AcDbSymbolTableRecord
100
AcDbRegAppTableRecord
  2
ACAD
 70
     0
  0
ENDTAB
  0
TABLE
  2
DIMSTYLE
  5
1E8
330
0
100
AcDbSymbolTable
 70
     2
100
AcDbDimStyleTable
 71
     1
340
206
  0
DIMSTYLE
105
206
330
1E8
100
AcDbSymbolTableRecord
100
AcDbDimStyleTableRecord
  2
ISO-25
 70
     0
 41
2.5
 42
0.625
 43
3.75
 44
1.25
 73
     0
 74
     0
 77
     1
 78
     8
140
2.5
141
2.5
143
0.03937007874016
147
0.625
171
     3
172
     1
274
     3
279
     2
284
     8
285
     8
286
     8
340
1EF
  0
DIMSTYLE
105
207
330
1E8
100
AcDbSymbolTableRecord
100
AcDbDimStyleTableRecord
  2
STANDARD
 70
     0
274
     3
279
     2
284
     8
285
     8
286
     8
340
1EF
  0
ENDTAB
  0
TABLE
  2
BLOCK_RECORD
  5
1DF
330
0
100
AcDbSymbolTable
 70
     6
  0
BLOCK_RECORD
  5
1FC
330
1DF
100
AcDbSymbolTableRecord
100
AcDbBlockTableRecord
  2
*Model_Space
340
1FF
  0
BLOCK_RECORD
  5
1F8
330
1DF
100
AcDbSymbolTableRecord
100
AcDbBlockTableRecord
  2
*Paper_Space
340
1FB
  0
BLOCK_RECORD
  5
211
330
1DF
100
AcDbSymbolTableRecord
100
AcDbBlockTableRecord
  2
*U3
340
0
102
{BLKREFS
331
2C
102
}
  0
ENDTAB
  0
ENDSEC
  0
SECTION
  2
BLOCKS
  0
BLOCK
  5
1FD
330
1FC
100
AcDbEntity
  8
0
100
AcDbBlockBegin
  2
*Model_Space
 70
     0
 10
0.0
 20
0.0
 30
0.0
  3
*Model_Space
  1

  0
ENDBLK
  5
1FE
330
1FC
100
AcDbEntity
  8
0
100
AcDbBlockEnd
  0
BLOCK
  5
1F9
330
1F8
100
AcDbEntity
 67
     1
  8
0
100
AcDbBlockBegin
  2
*Paper_Space
 70
     0
 10
0.0
 20
0.0
 30
0.0
  3
*Paper_Space
  1

  0
ENDBLK
  5
1FA
330
1F8
100
AcDbEntity
 67
     1
  8
0
100
AcDbBlockEnd
  0
BLOCK
  5
212
330
211
100
AcDbEntity
  8
0
100
AcDbBlockBegin
  2
*U3
 70
     1
 10
0.0
 20
0.0
 30
0.0
  3
*U3
  1

  0
SOLID
  5
1A2
330
211
100
AcDbEntity
  8
0
  6
Continuous
100
AcDbTrace
 10
-0.5999999999988905
 20
0.0000000000000095
 30
0.0
 11
0.0000000000000284
 21
0.0
 31
0.0
 12
-0.899999999998343
 22
0.2411542731875897
 32
0.0
 13
-0.899999999998343
 23
0.2411542731875897
 33
0.0
  0
SOLID
  5
1A3
330
211
100
AcDbEntity
  8
0
  6
Continuous
100
AcDbTrace
 10
-0.5999999999988905
 20
0.0000000000000095
 30
0.0
 11
-0.899999999998343
 21
0.2411542731875897
 31
0.0
 12
-0.8999999999983572
 22
-0.2411542731875613
 32
0.0
 13
-0.8999999999983572
 23
-0.2411542731875613
 33
0.0
  0
SOLID
  5
1A4
330
211
100
AcDbEntity
  8
0
  6
Continuous
100
AcDbTrace
 10
-0.5999999999988905
 20
0.0000000000000095
 30
0.0
 11
-0.8999999999983572
 21
-0.2411542731875613
 31
0.0
 12
0.0000000000000284
 22
0.0
 32
0.0
 13
0.0000000000000284
 23
0.0
 33
0.0
  0
ENDBLK
  5
1A6
330
211
100
AcDbEntity
  8
0
100
AcDbBlockEnd
  0
ENDSEC
  0
SECTION
  2
ENTITIES
  0
LINE
  5
EC
330
1FC
100
AcDbEntity
  8
1外形線
100
AcDbLine
 10
66.67350351229107
 20
499.8092483202224
 30
0.0
 11
509.4476418280041
 21
499.8092483202224
 31
0.0
  0
LINE
  5
ED
330
1FC
100
AcDbEntity
  8
1外形線
100
AcDbLine
 10
66.67350351229107
 20
871.6337501394272
 30
0.0
 11
509.4476418280041
 21
871.6337501394272
 31
0.0
  0
LINE
  5
EE
330
1FC
100
AcDbEntity
  8
1外形線
100
AcDbLine
 10
66.67350351229107
 20
871.6337501394272
 30
0.0
 11
66.67350351229107
 21
73.17022621214187
 31
0.0
  0
TEXT
  5
136
330
1FC
100
AcDbEntity
  8
1外形線
100
AcDbText
 10
116.6735027174793
 20
846.76863615579
 30
0.0
 40
10.0
  1
MKF-75
  7
KANJI
100
AcDbText
  0
LINE
  5
15B
330
1FC
100
AcDbEntity
  8
1外形線
100
AcDbLine
 10
509.4476418280041
 20
871.6337501394272
 30
0.0
 11
509.4476418280038
 21
73.17022621214187
 31
0.0
  0
LINE
  5
286
330
1FC
100
AcDbEntity
  8
C4
100
AcDbLine
 10
341.8706951368641
 20
714.3066509142975
 30
0.0
 11
285.690500290259
 21
714.3066509142973
 31
0.0
  0
LINE
  5
287
330
1FC
100
AcDbEntity
  8
C4
100
AcDbLine
 10
338.8706951368642
 20
725.7711170083648
 30
0.0
 11
280.9417629487297
 21
725.7711170083648
 31
0.0
  0
LINE
  5
28F
330
1FC
100
AcDbEntity
  8
C4
100
AcDbLine
 10
463.4789306223233
 20
625.3619540798752
 30
0.0
 11
463.4789306223233
 21
685.7711170083647
 31
0.0
  0
LINE
  5
290
330
1FC
100
AcDbEntity
  8
C4
100
AcDbLine
 10
393.4789306223232
 20
660.3421848202303
 30
0.0
 11
393.4789306223232
 21
685.7711170083648
 31
0.0
  0
LINE
  5
291
330
1FC
100
AcDbEntity
  8
C4
100
AcDbLine
 10
395.9789306223232
 20
660.3421848202303
 30
0.0
 11
395.9789306223232
 21
685.7711170083648
 31
0.0
  0
LINE
  5
292
330
1FC
100
AcDbEntity
  8
C4
100
AcDbLine
 10
460.9789306223232
 20
625.3619540798752
 30
0.0
 11
460.9789306223232
 21
725.7711170083648
 31
0.0
  0
LINE
  5
293
330
1FC
100
AcDbEntity
  8
C4
100
AcDbLine
 10
341.8706951368641
 20
724.771117008365
 30
0.0
 11
341.8706951368641
 21
646.7711170083649
 31
0.0
  0
LINE
  5
294
330
1FC
100
AcDbEntity
  8
C4
100
AcDbLine
 10
338.8706951368642
 20
725.7711170083648
 30
0.0
 11
338.8706951368642
 21
645.771117008365
 31
0.0
  0
LINE
  5
295
330
1FC
100
AcDbEntity
  8
C4
100
AcDbLine
 10
408.0499984341888
 20
645.771117008365
 30
0.0
 11
460.9789306223232
 21
645.771117008365
 31
0.0
  0
LINE
  5
296
330
1FC
100
AcDbEntity
  8
C4
100
AcDbLine
 10
460.9789306223232
 20
648.2711170083648
 30
0.0
 11
408.0499984341888
 21
648.2711170083651
 31
0.0
  0
LINE
  5
29F
330
1FC
100
AcDbEntity
  8
C4
100
AcDbLine
 10
341.8706951368641
 20
657.2355831024324
 30
0.0
 11
320.5848328822477
 21
657.2355831024324
 31
0.0
  0
LINE
  5
2A0
330
1FC
100
AcDbEntity
  8
C4
100
AcDbLine
 10
338.8706951368642
 20
645.771117008365
 30
0.0
 11
321.8706951368641
 21
645.771117008365
 31
0.0
  0
LINE
  5
2A2
330
1FC
100
AcDbEntity
  8
C4
100
AcDbLine
 10
338.8706951368642
 20
645.771117008365
 30
0.0
 11
341.8706951368641
 21
646.7711170083649
 31
0.0
  0
LINE
  5
2A3
330
1FC
100
AcDbEntity
  8
C4
100
AcDbLine
 10
404.9433967163903
 20
646.4447690999317
 30
0.0
 11
404.9433967163903
 21
625.7508644261648
 31
0.0
  0
LINE
  5
2A4
330
1FC
100
AcDbEntity
  8
C4
100
AcDbLine
 10
393.4789306223232
 20
660.3421848202303
 30
0.0
 11
393.4789306223231
 21
634.8827693600465
 31
0.0
  0
ARC
  5
2A6
330
1FC
100
AcDbEntity
  8
C4
100
AcDbCircle
 10
408.0499984341888
 20
653.271117008365
 30
0.0
 40
5.0
100
AcDbArc
 50
225.0
 51
270.0
  0
ARC
  5
2A7
330
1FC
100
AcDbEntity
  8
C4
100
AcDbCircle
 10
408.0499984341888
 20
653.271117008365
 30
0.0
 40
7.500000000000013
100
AcDbArc
 50
225.0
 51
270.0
  0
LINE
  5
2A8
330
1FC
100
AcDbEntity
  8
C4
100
AcDbLine
 10
402.7466975752895
 20
647.9678161494657
 30
0.0
 11
395.6756297634242
 21
655.0388839613315
 31
0.0
  0
LINE
  5
2A9
330
1FC
100
AcDbEntity
  8
C4
100
AcDbLine
 10
404.514464528256
 20
649.7355831024322
 30
0.0
 11
397.4433967163905
 21
656.8066509142981
 31
0.0
  0
ARC
  5
2AA
330
1FC
100
AcDbEntity
  8
C4
100
AcDbCircle
 10
400.9789306223233
 20
660.3421848202303
 30
0.0
 40
7.500000000000013
100
AcDbArc
 50
180.0
 51
225.0
  0
ARC
  5
2AB
330
1FC
100
AcDbEntity
  8
C4
100
AcDbCircle
 10
400.9789306223233
 20
660.3421848202303
 30
0.0
 40
5.0
100
AcDbArc
 50
180.0
 51
225.0
  0
LINE
  5
2AC
330
1FC
100
AcDbEntity
  8
C4
100
AcDbLine
 10
408.0499984341888
 20
725.7711170083648
 30
0.0
 11
463.4789306223233
 21
725.7711170083648
 31
0.0
  0
LINE
  5
2AD
330
1FC
100
AcDbEntity
  8
C4
100
AcDbLine
 10
460.9789306223232
 20
723.2711170083647
 30
0.0
 11
408.0499984341888
 21
723.2711170083648
 31
0.0
  0
LINE
  5
2AE
330
1FC
100
AcDbEntity
  8
C4
100
AcDbLine
 10
338.8706951368642
 20
725.7711170083648
 30
0.0
 11
341.8706951368641
 21
724.771117008365
 31
0.0
  0
LINE
  5
2AF
330
1FC
100
AcDbEntity
  8
C4
100
AcDbLine
 10
393.4789306223232
 20
711.2000491964997
 30
0.0
 11
393.4789306223232
 21
685.7711170083648
 31
0.0
  0
LINE
  5
2B0
330
1FC
100
AcDbEntity
  8
C4
100
AcDbLine
 10
395.9789306223232
 20
711.2000491964997
 30
0.0
 11
395.9789306223232
 21
685.7711170083648
 31
0.0
  0
ARC
  5
2B1
330
1FC
100
AcDbEntity
  8
C4
100
AcDbCircle
 10
408.0499984341888
 20
718.2711170083648
 30
0.0
 40
7.500000000000013
100
AcDbArc
 50
90.0
 51
135.0
  0
ARC
  5
2B2
330
1FC
100
AcDbEntity
  8
C4
100
AcDbCircle
 10
408.0499984341888
 20
718.2711170083648
 30
0.0
 40
5.0
100
AcDbArc
 50
90.0
 51
135.0
  0
LINE
  5
2B3
330
1FC
100
AcDbEntity
  8
C4
100
AcDbLine
 10
402.7466975752895
 20
723.574417867264
 30
0.0
 11
395.6756297634242
 21
716.5033500553984
 31
0.0
  0
ARC
  5
2B4
330
1FC
100
AcDbEntity
  8
C4
100
AcDbCircle
 10
400.9789306223233
 20
711.2000491964997
 30
0.0
 40
7.500000000000013
100
AcDbArc
 50
135.0
 51
180.0
  0
LINE
  5
2B5
330
1FC
100
AcDbEntity
  8
C4
100
AcDbLine
 10
404.514464528256
 20
721.8066509142979
 30
0.0
 11
397.4433967163905
 21
714.7355831024319
 31
0.0
  0
ARC
  5
2B6
330
1FC
100
AcDbEntity
  8
C4
100
AcDbCircle
 10
400.9789306223233
 20
711.2000491964997
 30
0.0
 40
5.0
100
AcDbArc
 50
135.0
 51
180.0
  0
LINE
  5
2B7
330
1FC
100
AcDbEntity
  8
C4
100
AcDbLine
 10
463.4789306223233
 20
725.7711170083648
 30
0.0
 11
463.4789306223233
 21
685.7711170083647
 31
0.0
  0
LINE
  5
2BB
330
1FC
100
AcDbEntity
  8
C4
100
AcDbLine
 10
242.4295696399102
 20
673.1167880758139
 30
0.0
 11
282.1549663843261
 21
712.8421848202301
 31
0.0
  0
LINE
  5
2BC
330
1FC
100
AcDbEntity
  8
C4
100
AcDbLine
 10
236.4442882656715
 20
683.3447101371721
 30
0.0
 11
293.0128307605952
 21
626.7761676422484
 31
0.0
  0
LINE
  5
2BD
330
1FC
100
AcDbEntity
  8
C4
100
AcDbLine
 10
235.0300747032984
 20
680.5162830124258
 30
0.0
 11
290.1844036358489
 21
625.3619540798752
 31
0.0
  0
LINE
  5
2BE
330
1FC
100
AcDbEntity
  8
C4
100
AcDbLine
 10
236.4442882656712
 20
683.3447101371721
 30
0.0
 11
277.4062290427969
 21
724.3066509142977
 31
0.0
  0
LINE
  5
2BF
330
1FC
100
AcDbEntity
  8
C4
100
AcDbLine
 10
236.4442882656712
 20
683.3447101371721
 30
0.0
 11
235.0300747032984
 21
680.5162830124258
 31
0.0
  0
LINE
  5
2C0
330
1FC
100
AcDbEntity
  8
C4
100
AcDbLine
 10
293.0128307605952
 20
626.7761676422481
 30
0.0
 11
305.0336460407661
 21
638.7969829224192
 31
0.0
  0
LINE
  5
2C1
330
1FC
100
AcDbEntity
  8
C4
100
AcDbLine
 10
293.0128307605952
 20
626.7761676422481
 30
0.0
 11
290.1844036358489
 21
625.3619540798752
 31
0.0
  0
LINE
  5
2C2
330
1FC
100
AcDbEntity
  8
C4
100
AcDbLine
 10
282.7849086992372
 20
632.7614490164869
 30
0.0
 11
297.8362862428788
 21
647.8128265601284
 31
0.0
  0
LINE
  5
2C5
330
1FC
100
AcDbEntity
  8
C4
100
AcDbLine
 10
321.8706951368641
 20
645.771117008365
 30
0.0
 11
313.4521705888153
 21
642.2840499653922
 31
0.0
  0
LINE
  5
2C6
330
1FC
100
AcDbEntity
  8
C4
100
AcDbLine
 10
305.0336460407661
 20
638.7969829224192
 30
0.0
 11
313.4521705888153
 21
642.2840499653922
 31
0.0
  0
LINE
  5
2C7
330
1FC
100
AcDbEntity
  8
C4
100
AcDbLine
 10
318.6714157204221
 20
656.8549807649888
 30
0.0
 11
309.0649093537044
 21
652.8758355408707
 31
0.0
  0
LINE
  5
2C8
330
1FC
100
AcDbEntity
  8
C4
100
AcDbLine
 10
299.4584029869859
 20
648.8966903167522
 30
0.0
 11
309.0649093537042
 21
652.8758355408707
 31
0.0
  0
ARC
  5
2C9
330
1FC
100
AcDbEntity
  8
C4
100
AcDbCircle
 10
280.9417629487297
 20
720.771117008365
 30
0.0
 40
5.0
100
AcDbArc
 50
90.0
 51
135.0
  0
ARC
  5
2CA
330
1FC
100
AcDbEntity
  8
C4
100
AcDbCircle
 10
285.690500290259
 20
709.3066509142972
 30
0.0
 40
5.0
100
AcDbArc
 50
90.0
 51
135.0
  0
ARC
  5
2CB
330
1FC
100
AcDbEntity
  8
C4
100
AcDbCircle
 10
301.3718201488114
 20
644.2772926541959
 30
0.0
 40
5.0
100
AcDbArc
 50
112.5000000000015
 51
134.9999999999999
  0
ARC
  5
2CC
330
1FC
100
AcDbEntity
  8
C4
100
AcDbCircle
 10
320.5848328822477
 20
652.2355831024324
 30
0.0
 40
5.0
100
AcDbArc
 50
90.00000000000005
 51
112.5000000000001
  0
LINE
  5
2CF
330
1FC
100
AcDbEntity
  8
C4
100
AcDbLine
 10
463.4789306223233
 20
625.3619540798752
 30
0.0
 11
407.3271760553586
 21
625.3619540798754
 31
0.0
  0
LINE
  5
2D0
330
1FC
100
AcDbEntity
  8
C4
100
AcDbLine
 10
460.9789306223232
 20
626.7761676422481
 30
0.0
 11
407.3271760553588
 21
626.7761676422481
 31
0.0
  0
LINE
  5
311
330
1FC
100
AcDbEntity
  8
C4
100
AcDbLine
 10
402.9970490364362
 20
626.7382297229175
 30
0.0
 11
394.4789306223231
 21
632.7614490164871
 31
0.0
  0
LINE
  5
313
330
1FC
100
AcDbEntity
  8
C4
100
AcDbLine
 10
402.9970490364362
 20
628.1524432852903
 30
0.0
 11
393.4789306223231
 21
634.8827693600467
 31
0.0
  0
LINE
  5
315
330
1FC
100
AcDbEntity
  8
C4
100
AcDbLine
 10
393.4789306223231
 20
634.8827693600465
 30
0.0
 11
394.4789306223231
 21
632.7614490164871
 31
0.0
  0
ARC
  5
316
330
1FC
100
AcDbEntity
  8
C4
100
AcDbCircle
 10
407.3271760553586
 20
632.8619540798754
 30
0.0
 40
7.5
100
AcDbArc
 50
234.7356103172441
 51
270.0
  0
ARC
  5
317
330
1FC
100
AcDbEntity
  8
C4
100
AcDbCircle
 10
407.3271760553588
 20
634.2761676422481
 30
0.0
 40
7.5
100
AcDbArc
 50
234.7356103172436
 51
270.0
  0
LINE
  5
31C
330
1FC
100
AcDbEntity
  8
C4
100
AcDbLine
 10
126.5849609128844
 20
625.3619540798752
 30
0.0
 11
182.7367154798491
 21
625.3619540798754
 31
0.0
  0
LINE
  5
31E
330
1FC
100
AcDbEntity
  8
C4
100
AcDbLine
 10
182.0138931010189
 20
725.7711170083648
 30
0.0
 11
126.5849609128844
 21
725.7711170083648
 31
0.0
  0
LINE
  5
322
330
1FC
100
AcDbEntity
  8
C4
100
AcDbLine
 10
196.5849609128845
 20
660.3421848202303
 30
0.0
 11
196.5849609128846
 21
637.3508414742112
 31
0.0
  0
ARC
  5
324
330
1FC
100
AcDbEntity
  8
C4
100
AcDbCircle
 10
182.7367154798491
 20
632.8619540798754
 30
0.0
 40
7.5
100
AcDbArc
 50
270.0
 51
305.2643896827557
  0
LINE
  5
327
330
1FC
100
AcDbEntity
  8
C4
100
AcDbLine
 10
187.0668424987715
 20
626.7382297229175
 30
0.0
 11
193.4150879318069
 21
631.2271171172534
 31
0.0
  0
LINE
  5
328
330
1FC
100
AcDbEntity
  8
C4
100
AcDbLine
 10
185.1204948188174
 20
725.0974649167982
 30
0.0
 11
185.1204948188176
 21
680.5162830124258
 31
0.0
  0
LINE
  5
32A
330
1FC
100
AcDbEntity
  8
C4
100
AcDbLine
 10
196.5849609128845
 20
711.2000491964997
 30
0.0
 11
196.5849609128845
 21
669.0309963459501
 31
0.0
  0
LINE
  5
32B
330
1FC
100
AcDbEntity
  8
C4
100
AcDbLine
 10
194.0849609128845
 20
636.6437346930247
 30
0.0
 11
194.0849609128845
 21
669.5839078128098
 31
0.0
  0
LINE
  5
32C
330
1FC
100
AcDbEntity
  8
C4
100
AcDbLine
 10
196.5849609128845
 20
660.3421848202303
 30
0.0
 11
196.5849609128845
 21
669.0309963459501
 31
0.0
  0
LINE
  5
333
330
1FC
100
AcDbEntity
  8
C4
100
AcDbLine
 10
187.317193959918
 20
723.574417867264
 30
0.0
 11
194.3882617717835
 21
716.5033500553984
 31
0.0
  0
ARC
  5
334
330
1FC
100
AcDbEntity
  8
C4
100
AcDbCircle
 10
189.0849609128844
 20
711.2000491964997
 30
0.0
 40
7.500000000000013
100
AcDbArc
 50
0.000000000000007
 51
45.0
  0
ARC
  5
336
330
1FC
100
AcDbEntity
  8
C4
100
AcDbCircle
 10
182.0138931010189
 20
718.2711170083648
 30
0.0
 40
7.500000000000013
100
AcDbArc
 50
45.0
 51
90.0
  0
LINE
  5
338
330
1FC
100
AcDbEntity
  8
C4
100
AcDbLine
 10
126.5849609128844
 20
625.3619540798752
 30
0.0
 11
126.5849609128844
 21
685.7711170083647
 31
0.0
  0
LINE
  5
339
330
1FC
100
AcDbEntity
  8
C4
100
AcDbLine
 10
129.0849609128845
 20
625.3619540798752
 30
0.0
 11
129.0849609128845
 21
725.7711170083648
 31
0.0
  0
LINE
  5
33A
330
1FC
100
AcDbEntity
  8
C4
100
AcDbLine
 10
126.5849609128844
 20
725.7711170083648
 30
0.0
 11
126.5849609128844
 21
685.7711170083647
 31
0.0
  0
LINE
  5
33E
330
1FC
100
AcDbEntity
  8
C4
100
AcDbLine
 10
182.9103254473091
 20
680.5162830124258
 30
0.0
 11
129.0849609128845
 21
680.5162830124258
 31
0.0
  0
LINE
  5
33F
330
1FC
100
AcDbEntity
  8
C4
100
AcDbLine
 10
182.9103254473091
 20
679.4556228406461
 30
0.0
 11
129.0849609128845
 21
679.4556228406461
 31
0.0
  0
LINE
  5
340
330
1FC
100
AcDbEntity
  8
C4
100
AcDbLine
 10
129.0849609128845
 20
626.4226142516551
 30
0.0
 11
182.7367154798492
 21
626.4226142516551
 31
0.0
  0
LINE
  5
342
330
1FC
100
AcDbEntity
  8
C4
100
AcDbLine
 10
187.0668424987715
 20
627.7988898946972
 30
0.0
 11
190.9150879318068
 21
630.5200103360667
 31
0.0
  0
ARC
  5
343
330
1FC
100
AcDbEntity
  8
C4
100
AcDbCircle
 10
182.7367154798492
 20
633.9226142516553
 30
0.0
 40
7.5
100
AcDbArc
 50
270.0
 51
305.2643896827556
  0
ARC
  5
344
330
1FC
100
AcDbEntity
  8
C4
100
AcDbCircle
 10
186.5849609128845
 20
636.6437346930247
 30
0.0
 40
7.5
100
AcDbArc
 50
305.2643896827559
 51
359.9999999999998
  0
ARC
  5
345
330
1FC
100
AcDbEntity
  8
C4
100
AcDbCircle
 10
189.0849609128846
 20
637.3508414742112
 30
0.0
 40
7.5
100
AcDbArc
 50
305.2643896827559
 51
0.0000000000001272
  0
LINE
  5
347
330
1FC
100
AcDbEntity
  8
C4
100
AcDbLine
 10
186.9774665261254
 20
679.3177402601587
 30
0.0
 11
193.1521019917006
 21
675.332453593683
 31
0.0
  0
LINE
  5
349
330
1FC
100
AcDbEntity
  8
C4
100
AcDbLine
 10
186.9774665261254
 20
678.257080088379
 30
0.0
 11
190.6521019917008
 21
675.8853650605426
 31
0.0
  0
ARC
  5
34A
330
1FC
100
AcDbEntity
  8
C4
100
AcDbCircle
 10
182.9103254473091
 20
671.9556228406461
 30
0.0
 40
7.5
100
AcDbArc
 50
57.16064287877657
 51
90.0
  0
ARC
  5
34B
330
1FC
100
AcDbEntity
  8
C4
100
AcDbCircle
 10
182.9103254473091
 20
673.0162830124258
 30
0.0
 40
7.5
100
AcDbArc
 50
57.16064287877657
 51
90.0
  0
ARC
  5
34C
330
1FC
100
AcDbEntity
  8
C4
100
AcDbCircle
 10
186.5849609128845
 20
669.5839078128098
 30
0.0
 40
7.5
100
AcDbArc
 50
359.9999999999998
 51
57.16064287877662
  0
ARC
  5
34D
330
1FC
100
AcDbEntity
  8
C4
100
AcDbCircle
 10
189.0849609128844
 20
669.0309963459501
 30
0.0
 40
7.5
100
AcDbArc
 50
0.0
 51
57.16064287877671
  0
LINE
  5
351
330
1FC
100
AcDbEntity
  8
C4
100
AcDbLine
 10
341.8706951368641
 20
594.961857625103
 30
0.0
 11
341.8706951368641
 21
525.9618576251028
 31
0.0
  0
LINE
  5
353
330
1FC
100
AcDbEntity
  8
C4
100
AcDbLine
 10
235.0300747032984
 20
528.461857625103
 30
0.0
 11
341.8706951368641
 21
528.461857625103
 31
0.0
  0
LINE
  5
354
330
1FC
100
AcDbEntity
  8
C4
100
AcDbLine
 10
235.0300747032984
 20
525.9618576251028
 30
0.0
 11
301.8706951368641
 21
525.9618576251028
 31
0.0
  0
LINE
  5
355
330
1FC
100
AcDbEntity
  8
C4
100
AcDbLine
 10
341.8706951368641
 20
525.9618576251028
 30
0.0
 11
301.8706951368641
 21
525.9618576251028
 31
0.0
  0
LINE
  5
356
330
1FC
100
AcDbEntity
  8
C4
100
AcDbLine
 10
245.9624499029144
 20
593.461857625103
 30
0.0
 11
279.2520284362329
 21
593.461857625103
 31
0.0
  0
LINE
  5
357
330
1FC
100
AcDbEntity
  8
C4
100
AcDbLine
 10
276.4417629487295
 20
595.9618576251028
 30
0.0
 11
246.5153613697741
 21
595.9618576251029
 31
0.0
  0
LINE
  5
35E
330
1FC
100
AcDbEntity
  8
C4
100
AcDbLine
 10
341.8706951368641
 20
584.497391531036
 30
0.0
 11
290.1844036358489
 21
584.4973915310361
 31
0.0
  0
LINE
  5
35F
330
1FC
100
AcDbEntity
  8
C4
100
AcDbLine
 10
338.8706951368642
 20
595.9618576251028
 30
0.0
 11
278.6991169693733
 21
595.9618576251028
 31
0.0
  0
LINE
  5
362
330
1FC
100
AcDbEntity
  8
C4
100
AcDbLine
 10
276.4417629487295
 20
595.9618576251028
 30
0.0
 11
278.6991169693733
 21
595.9618576251028
 31
0.0
  0
LINE
  5
36B
330
1FC
100
AcDbEntity
  8
C4
100
AcDbLine
 10
235.0300747032984
 20
525.9618576251028
 30
0.0
 11
235.0300747032984
 21
582.2872221595275
 31
0.0
  0
LINE
  5
36C
330
1FC
100
AcDbEntity
  8
C4
100
AcDbLine
 10
236.090734875078
 20
528.461857625103
 30
0.0
 11
236.090734875078
 21
582.2872221595275
 31
0.0
  0
LINE
  5
36F
330
1FC
100
AcDbEntity
  8
C4
100
AcDbLine
 10
236.2286174555654
 20
586.3543632383437
 30
0.0
 11
240.2139041220411
 21
592.5289987039191
 31
0.0
  0
LINE
  5
370
330
1FC
100
AcDbEntity
  8
C4
100
AcDbLine
 10
237.2892776273453
 20
586.3543632383437
 30
0.0
 11
239.6609926551815
 21
590.0289987039191
 31
0.0
  0
ARC
  5
371
330
1FC
100
AcDbEntity
  8
C4
100
AcDbCircle
 10
245.9624499029144
 20
585.961857625103
 30
0.0
 40
7.5
100
AcDbArc
 50
90.0000000000001
 51
147.1606428787769
  0
ARC
  5
372
330
1FC
100
AcDbEntity
  8
C4
100
AcDbCircle
 10
246.515361369774
 20
588.4618576251031
 30
0.0
 40
7.5
100
AcDbArc
 50
89.99999999999976
 51
147.1606428787769
  0
ARC
  5
373
330
1FC
100
AcDbEntity
  8
C4
100
AcDbCircle
 10
243.5907348750784
 20
582.2872221595275
 30
0.0
 40
7.5
100
AcDbArc
 50
147.1606428787772
 51
180.0
  0
ARC
  5
374
330
1FC
100
AcDbEntity
  8
C4
100
AcDbCircle
 10
242.5300747032983
 20
582.2872221595275
 30
0.0
 40
7.5
100
AcDbArc
 50
147.1606428787767
 51
180.0000000000002
  0
LINE
  5
375
330
1FC
100
AcDbEntity
  8
C4
100
AcDbLine
 10
290.1844036358489
 20
528.461857625103
 30
0.0
 11
290.1844036358489
 21
582.2872221595276
 31
0.0
  0
LINE
  5
376
330
1FC
100
AcDbEntity
  8
C4
100
AcDbLine
 10
289.1237434640691
 20
528.461857625103
 30
0.0
 11
289.1237434640691
 21
582.2872221595276
 31
0.0
  0
LINE
  5
378
330
1FC
100
AcDbEntity
  8
C4
100
AcDbLine
 10
288.9858608835818
 20
586.3543632383437
 30
0.0
 11
285.0005742171061
 21
592.5289987039191
 31
0.0
  0
LINE
  5
37A
330
1FC
100
AcDbEntity
  8
C4
100
AcDbLine
 10
287.9252007118021
 20
586.3543632383437
 30
0.0
 11
285.5534856839657
 21
590.0289987039192
 31
0.0
  0
ARC
  5
37B
330
1FC
100
AcDbEntity
  8
C4
100
AcDbCircle
 10
281.6237434640691
 20
582.2872221595275
 30
0.0
 40
7.5
100
AcDbArc
 50
0.0000000000002171
 51
32.8393571212228
  0
ARC
  5
37C
330
1FC
100
AcDbEntity
  8
C4
100
AcDbCircle
 10
282.6844036358486
 20
582.2872221595275
 30
0.0
 40
7.5
100
AcDbArc
 50
0.0000000000006514
 51
32.83935712122222
  0
ARC
  5
37D
330
1FC
100
AcDbEntity
  8
C4
100
AcDbCircle
 10
279.2520284362329
 20
585.961857625103
 30
0.0
 40
7.5
100
AcDbArc
 50
32.83935712122314
 51
90.0000000000001
  0
ARC
  5
37E
330
1FC
100
AcDbEntity
  8
C4
100
AcDbCircle
 10
278.6991169693733
 20
588.4618576251028
 30
0.0
 40
7.5
100
AcDbArc
 50
32.83935712122317
 51
90.0
  0
LINE
  5
380
330
1FC
100
AcDbEntity
  8
C4
100
AcDbLine
 10
338.8706951368642
 20
595.9618576251028
 30
0.0
 11
338.8706951368642
 21
528.461857625103
 31
0.0
  0
LINE
  5
382
330
1FC
100
AcDbEntity
  8
C4
100
AcDbLine
 10
341.8706951368641
 20
594.961857625103
 30
0.0
 11
338.8706951368642
 21
595.9618576251028
 31
0.0
  0
LINE
  5
383
330
1FC
100
AcDbEntity
  8
C4
100
AcDbLine
 10
235.0300747032984
 20
822.4320238296172
 30
0.0
 11
341.8706951368641
 21
822.4320238296172
 31
0.0
  0
LINE
  5
384
330
1FC
100
AcDbEntity
  8
C4
100
AcDbLine
 10
235.0300747032984
 20
824.9320238296173
 30
0.0
 11
301.8706951368641
 21
824.9320238296173
 31
0.0
  0
LINE
  5
386
330
1FC
100
AcDbEntity
  8
C4
100
AcDbLine
 10
276.4417629487295
 20
754.9320238296175
 30
0.0
 11
246.5153613697741
 21
754.9320238296172
 31
0.0
  0
LINE
  5
387
330
1FC
100
AcDbEntity
  8
C4
100
AcDbLine
 10
235.0300747032984
 20
824.9320238296173
 30
0.0
 11
235.0300747032984
 21
768.6066592951926
 31
0.0
  0
LINE
  5
38A
330
1FC
100
AcDbEntity
  8
C4
100
AcDbLine
 10
236.2286174555654
 20
764.5395182163764
 30
0.0
 11
240.2139041220411
 21
758.364882750801
 31
0.0
  0
ARC
  5
38D
330
1FC
100
AcDbEntity
  8
C4
100
AcDbCircle
 10
242.5300747032983
 20
768.6066592951926
 30
0.0
 40
7.5
100
AcDbArc
 50
179.9999999999996
 51
212.8393571212231
  0
ARC
  5
38E
330
1FC
100
AcDbEntity
  8
C4
100
AcDbCircle
 10
246.515361369774
 20
762.4320238296173
 30
0.0
 40
7.5
100
AcDbArc
 50
212.839357121223
 51
270.0000000000001
  0
LINE
  5
38F
330
1FC
100
AcDbEntity
  8
C4
100
AcDbLine
 10
341.8706951368641
 20
755.9320238296175
 30
0.0
 11
341.8706951368641
 21
824.9320238296173
 31
0.0
  0
LINE
  5
392
330
1FC
100
AcDbEntity
  8
C4
100
AcDbLine
 10
338.8706951368642
 20
754.9320238296175
 30
0.0
 11
338.8706951368642
 21
822.4320238296172
 31
0.0
  0
LINE
  5
393
330
1FC
100
AcDbEntity
  8
C4
100
AcDbLine
 10
341.8706951368641
 20
824.9320238296173
 30
0.0
 11
301.8706951368641
 21
824.9320238296173
 31
0.0
  0
LINE
  5
396
330
1FC
100
AcDbEntity
  8
C4
100
AcDbLine
 10
341.8706951368641
 20
766.3964899236844
 30
0.0
 11
235.3631261650956
 21
766.3964899236843
 31
0.0
  0
LINE
  5
39A
330
1FC
100
AcDbEntity
  8
C4
100
AcDbLine
 10
338.8706951368642
 20
754.9320238296175
 30
0.0
 11
278.6991169693733
 21
754.9320238296175
 31
0.0
  0
LINE
  5
39D
330
1FC
100
AcDbEntity
  8
C4
100
AcDbLine
 10
341.8706951368641
 20
755.9320238296175
 30
0.0
 11
338.8706951368642
 21
754.9320238296175
 31
0.0
  0
LINE
  5
39E
330
1FC
100
AcDbEntity
  8
C4
100
AcDbLine
 10
236.4442882656712
 20
822.4320238296172
 30
0.0
 11
236.4442882656712
 21
768.6066592951926
 31
0.0
  0
LINE
  5
3A0
330
1FC
100
AcDbEntity
  8
C4
100
AcDbLine
 10
237.6428310179385
 20
764.5395182163764
 30
0.0
 11
241.6281176844143
 21
758.364882750801
 31
0.0
  0
ARC
  5
3A1
330
1FC
100
AcDbEntity
  8
C4
100
AcDbCircle
 10
243.9442882656711
 20
768.6066592951926
 30
0.0
 40
7.5
100
AcDbArc
 50
179.9999999999998
 51
212.839357121224
  0
ARC
  5
3A2
330
1FC
100
AcDbEntity
  8
C4
100
AcDbCircle
 10
247.9295749321472
 20
762.4320238296173
 30
0.0
 40
7.5
100
AcDbArc
 50
212.8393571212233
 51
270.0000000000001
  0
LINE
  5
3DB
330
1FC
100
AcDbEntity
  8
1外形線
100
AcDbLine
 10
352.772771964856
 20
322.9483813373438
 30
0.0
 11
289.8438397767214
 21
322.9483813373438
 31
0.0
  0
LINE
  5
3DC
330
1FC
100
AcDbEntity
  8
1外形線
100
AcDbLine
 10
355.772771964856
 20
306.4839152432766
 30
0.0
 11
296.663644930116
 21
306.4839152432766
 31
0.0
  0
LINE
  5
3E4
330
1FC
100
AcDbEntity
  8
1外形線
100
AcDbLine
 10
399.2122448845925
 20
303.3773135254786
 30
0.0
 11
399.2122448845925
 21
277.9483813373439
 31
0.0
  0
LINE
  5
3E5
330
1FC
100
AcDbEntity
  8
1外形線
100
AcDbLine
 10
401.7122448845928
 20
303.3773135254786
 30
0.0
 11
401.7122448845928
 21
277.9483813373439
 31
0.0
  0
LINE
  5
3E6
330
1FC
100
AcDbEntity
  8
1外形線
100
AcDbLine
 10
474.2122448845929
 20
211.9326166910559
 30
0.0
 11
474.2122448845926
 21
322.9483813373438
 31
0.0
  0
LINE
  5
3E7
330
1FC
100
AcDbEntity
  8
1外形線
100
AcDbLine
 10
471.7122448845928
 20
211.9326166910559
 30
0.0
 11
471.7122448845926
 21
322.9483813373438
 31
0.0
  0
LINE
  5
3E8
330
1FC
100
AcDbEntity
  8
1外形線
100
AcDbLine
 10
355.772771964856
 20
321.9483813373438
 30
0.0
 11
355.7727719648561
 21
233.948381337344
 31
0.0
  0
LINE
  5
3E9
330
1FC
100
AcDbEntity
  8
1外形線
100
AcDbLine
 10
352.772771964856
 20
322.9483813373438
 30
0.0
 11
352.772771964856
 21
232.948381337344
 31
0.0
  0
LINE
  5
3EA
330
1FC
100
AcDbEntity
  8
1外形線
100
AcDbLine
 10
418.7833126964582
 20
232.9483813373439
 30
0.0
 11
471.7122448845928
 21
232.9483813373439
 31
0.0
  0
LINE
  5
3EB
330
1FC
100
AcDbEntity
  8
1外形線
100
AcDbLine
 10
471.7122448845928
 20
235.448381337344
 30
0.0
 11
418.7833126964582
 21
235.448381337344
 31
0.0
  0
LINE
  5
3EE
330
1FC
100
AcDbEntity
  8
1外形線
100
AcDbLine
 10
355.7727719648561
 20
249.4128474314111
 30
0.0
 11
333.4923478733413
 21
249.4128474314113
 31
0.0
  0
LINE
  5
3EF
330
1FC
100
AcDbEntity
  8
1外形線
100
AcDbLine
 10
352.772771964856
 20
232.948381337344
 30
0.0
 11
335.772771964856
 21
232.948381337344
 31
0.0
  0
LINE
  5
3F7
330
1FC
100
AcDbEntity
  8
1外形線
100
AcDbLine
 10
413.4800118375589
 20
235.1450804784446
 30
0.0
 11
401.4089440256936
 21
247.2161482903104
 31
0.0
  0
ARC
  5
3F8
330
1FC
100
AcDbEntity
  8
1外形線
100
AcDbCircle
 10
418.7833126964582
 20
240.448381337344
 30
0.0
 40
5.0
100
AcDbArc
 50
225.0
 51
270.0
  0
LINE
  5
3F9
330
1FC
100
AcDbEntity
  8
1外形線
100
AcDbLine
 10
399.2122448845925
 20
252.5194491492093
 30
0.0
 11
399.2122448845925
 21
224.98896587716
 31
0.0
  0
LINE
  5
3FA
330
1FC
100
AcDbEntity
  8
1外形線
100
AcDbLine
 10
352.772771964856
 20
232.948381337344
 30
0.0
 11
355.7727719648561
 21
233.948381337344
 31
0.0
  0
LINE
  5
3FB
330
1FC
100
AcDbEntity
  8
1外形線
100
AcDbLine
 10
415.6767109786597
 20
233.6220334289105
 30
0.0
 11
415.6767109786597
 21
212.3215270373455
 31
0.0
  0
ARC
  5
3FD
330
1FC
100
AcDbEntity
  8
1外形線
100
AcDbCircle
 10
418.7833126964582
 20
240.448381337344
 30
0.0
 40
7.500000000000111
100
AcDbArc
 50
225.0
 51
270.0
  0
LINE
  5
3FE
330
1FC
100
AcDbEntity
  8
1外形線
100
AcDbLine
 10
399.2122448845925
 20
252.5194491492093
 30
0.0
 11
399.2122448845925
 21
277.9483813373439
 31
0.0
  0
LINE
  5
3FF
330
1FC
100
AcDbEntity
  8
1外形線
100
AcDbLine
 10
401.7122448845928
 20
252.5194491492093
 30
0.0
 11
401.7122448845928
 21
277.9483813373439
 31
0.0
  0
LINE
  5
400
330
1FC
100
AcDbEntity
  8
1外形線
100
AcDbLine
 10
415.2477787905255
 20
236.912847431411
 30
0.0
 11
403.1767109786599
 21
248.9839152432768
 31
0.0
  0
ARC
  5
401
330
1FC
100
AcDbEntity
  8
1外形線
100
AcDbCircle
 10
406.7122448845926
 20
252.5194491492093
 30
0.0
 40
7.500000000000111
100
AcDbArc
 50
180.0
 51
225.0
  0
ARC
  5
402
330
1FC
100
AcDbEntity
  8
1外形線
100
AcDbCircle
 10
406.7122448845926
 20
252.5194491492093
 30
0.0
 40
5.0
100
AcDbArc
 50
180.0
 51
225.0
  0
LINE
  5
403
330
1FC
100
AcDbEntity
  8
1外形線
100
AcDbLine
 10
418.7833126964582
 20
322.9483813373438
 30
0.0
 11
474.2122448845926
 21
322.9483813373438
 31
0.0
  0
LINE
  5
404
330
1FC
100
AcDbEntity
  8
1外形線
100
AcDbLine
 10
471.7122448845928
 20
320.448381337344
 30
0.0
 11
418.7833126964582
 21
320.4483813373438
 31
0.0
  0
LINE
  5
405
330
1FC
100
AcDbEntity
  8
1外形線
100
AcDbLine
 10
352.772771964856
 20
322.9483813373438
 30
0.0
 11
355.772771964856
 21
321.9483813373438
 31
0.0
  0
ARC
  5
406
330
1FC
100
AcDbEntity
  8
1外形線
100
AcDbCircle
 10
406.7122448845926
 20
303.3773135254786
 30
0.0
 40
7.500000000000111
100
AcDbArc
 50
135.0
 51
180.0
  0
ARC
  5
407
330
1FC
100
AcDbEntity
  8
1外形線
100
AcDbCircle
 10
406.7122448845926
 20
303.3773135254786
 30
0.0
 40
5.0
100
AcDbArc
 50
135.0
 51
180.0
  0
ARC
  5
408
330
1FC
100
AcDbEntity
  8
1外形線
100
AcDbCircle
 10
418.7833126964582
 20
315.4483813373438
 30
0.0
 40
7.500000000000111
100
AcDbArc
 50
90.0
 51
135.0
  0
ARC
  5
409
330
1FC
100
AcDbEntity
  8
1外形線
100
AcDbCircle
 10
418.7833126964582
 20
315.4483813373438
 30
0.0
 40
5.0
100
AcDbArc
 50
90.0
 51
135.0
  0
LINE
  5
40A
330
1FC
100
AcDbEntity
  8
1外形線
100
AcDbLine
 10
415.2477787905255
 20
318.9839152432768
 30
0.0
 11
403.1767109786599
 21
306.912847431411
 31
0.0
  0
LINE
  5
40B
330
1FC
100
AcDbEntity
  8
1外形線
100
AcDbLine
 10
413.4800118375589
 20
320.7516821962431
 30
0.0
 11
401.4089440256936
 21
308.6806143843775
 31
0.0
  0
LINE
  5
40E
330
1FC
100
AcDbEntity
  8
1外形線
100
AcDbLine
 10
241.8108311877304
 20
276.9864405602183
 30
0.0
 11
305.4504414945195
 21
213.346830253429
 31
0.0
  0
LINE
  5
40F
330
1FC
100
AcDbEntity
  8
1外形線
100
AcDbLine
 10
240.3966176253573
 20
274.1580134354721
 30
0.0
 11
302.6220143697733
 21
211.9326166910559
 31
0.0
  0
LINE
  5
410
330
1FC
100
AcDbEntity
  8
1外形線
100
AcDbLine
 10
291.6869855272289
 20
222.8676455336003
 30
0.0
 11
307.4416244900511
 21
238.6222844964224
 31
0.0
  0
LINE
  5
411
330
1FC
100
AcDbEntity
  8
1外形線
100
AcDbLine
 10
305.4504414945195
 20
213.346830253429
 30
0.0
 11
317.4712567746917
 21
225.3676455336012
 31
0.0
  0
LINE
  5
412
330
1FC
100
AcDbEntity
  8
1外形線
100
AcDbLine
 10
305.4504414945195
 20
213.346830253429
 30
0.0
 11
302.6220143697733
 21
211.9326166910559
 31
0.0
  0
LINE
  5
413
330
1FC
100
AcDbEntity
  8
1外形線
100
AcDbLine
 10
251.3316464679017
 20
263.2229845929277
 30
0.0
 11
293.1281110241832
 21
305.0194491492093
 31
0.0
  0
LINE
  5
414
330
1FC
100
AcDbEntity
  8
1外形線
100
AcDbLine
 10
241.8108311877304
 20
276.9864405602183
 30
0.0
 11
286.3083058707886
 21
321.4839152432766
 31
0.0
  0
LINE
  5
415
330
1FC
100
AcDbEntity
  8
1外形線
100
AcDbLine
 10
241.8108311877304
 20
276.9864405602183
 30
0.0
 11
240.3966176253573
 21
274.1580134354721
 31
0.0
  0
ARC
  5
416
330
1FC
100
AcDbEntity
  8
1外形線
100
AcDbCircle
 10
289.8438397767214
 20
317.9483813373438
 30
0.0
 40
5.0
100
AcDbArc
 50
90.0
 51
135.0
  0
ARC
  5
417
330
1FC
100
AcDbEntity
  8
1外形線
100
AcDbCircle
 10
296.663644930116
 20
301.4839152432766
 30
0.0
 40
5.0
100
AcDbArc
 50
90.0
 51
135.0
  0
LINE
  5
419
330
1FC
100
AcDbEntity
  8
1外形線
100
AcDbLine
 10
335.772771964856
 20
232.948381337344
 30
0.0
 11
317.4712567746918
 21
225.3676455336008
 31
0.0
  0
LINE
  5
41A
330
1FC
100
AcDbEntity
  8
1外形線
100
AcDbLine
 10
331.578930711516
 20
249.0322450939677
 30
0.0
 11
309.0637412341584
 21
239.7061482530462
 31
0.0
  0
ARC
  5
41B
330
1FC
100
AcDbEntity
  8
1外形線
100
AcDbCircle
 10
333.4923478733413
 20
244.4128474314111
 30
0.0
 40
5.0
100
AcDbArc
 50
90.0
 51
112.5
  0
ARC
  5
41C
330
1FC
100
AcDbEntity
  8
1外形線
100
AcDbCircle
 10
310.9771583959838
 20
235.0867505904897
 30
0.0
 40
5.0
100
AcDbArc
 50
112.5
 51
135.0
  0
LINE
  5
41D
330
1FC
100
AcDbEntity
  8
1外形線
100
AcDbLine
 10
474.2122448845929
 20
211.9326166910559
 30
0.0
 11
418.0604903176281
 21
211.9326166910559
 31
0.0
  0
LINE
  5
41F
330
1FC
100
AcDbEntity
  8
1外形線
100
AcDbLine
 10
413.7303632987061
 20
213.3088923340979
 30
0.0
 11
400.2122448845925
 21
222.8676455336003
 31
0.0
  0
LINE
  5
420
330
1FC
100
AcDbEntity
  8
1外形線
100
AcDbLine
 10
471.7122448845928
 20
213.346830253429
 30
0.0
 11
418.0604903176281
 21
213.346830253429
 31
0.0
  0
LINE
  5
422
330
1FC
100
AcDbEntity
  8
1外形線
100
AcDbLine
 10
413.730363298706
 20
214.7231058964711
 30
0.0
 11
399.2122448845925
 21
224.9889658771599
 31
0.0
  0
LINE
  5
425
330
1FC
100
AcDbEntity
  8
1外形線
100
AcDbLine
 10
400.2122448845925
 20
222.8676455336003
 30
0.0
 11
399.2122448845925
 21
224.98896587716
 31
0.0
  0
ARC
  5
426
330
1FC
100
AcDbEntity
  8
1外形線
100
AcDbCircle
 10
418.0604903176281
 20
219.4326166910558
 30
0.0
 40
7.5
100
AcDbArc
 50
234.7356103172453
 51
270.0
  0
ARC
  5
427
330
1FC
100
AcDbEntity
  8
1外形線
100
AcDbCircle
 10
418.0604903176281
 20
220.8468302534289
 30
0.0
 40
7.5
100
AcDbArc
 50
234.7356103172451
 51
270.0
  0
LINE
  5
428
330
1FC
100
AcDbEntity
  8
1外形線
100
AcDbLine
 10
200.6591741954284
 20
226.290173013045
 30
0.0
 11
200.6591741954284
 21
259.800457113483
 31
0.0
  0
LINE
  5
429
330
1FC
100
AcDbEntity
  8
1外形線
100
AcDbLine
 10
203.1591741954286
 20
252.5194491492093
 30
0.0
 11
203.1591741954286
 21
259.2007189492238
 31
0.0
  0
LINE
  5
42A
330
1FC
100
AcDbEntity
  8
1外形線
100
AcDbLine
 10
128.1591741954283
 20
211.9326166910559
 30
0.0
 11
128.1591741954284
 21
322.9483813373438
 31
0.0
  0
LINE
  5
42B
330
1FC
100
AcDbEntity
  8
1外形線
100
AcDbLine
 10
130.6591741954284
 20
211.9326166910559
 30
0.0
 11
130.6591741954285
 21
322.9483813373438
 31
0.0
  0
LINE
  5
436
330
1FC
100
AcDbEntity
  8
1外形線
100
AcDbLine
 10
203.1591741954286
 20
252.5194491492093
 30
0.0
 11
203.1591741954286
 21
226.8899111773041
 31
0.0
  0
LINE
  5
43E
330
1FC
100
AcDbEntity
  8
1外形線
100
AcDbLine
 10
183.5881063835629
 20
322.9483813373438
 30
0.0
 11
128.1591741954284
 21
322.9483813373438
 31
0.0
  0
ARC
  5
43F
330
1FC
100
AcDbEntity
  8
1外形線
100
AcDbCircle
 10
195.6591741954285
 20
303.3773135254786
 30
0.0
 40
7.500000000000111
100
AcDbArc
 50
0.000000000000007
 51
45.0
  0
LINE
  5
442
330
1FC
100
AcDbEntity
  8
1外形線
100
AcDbLine
 10
203.1591741954286
 20
303.3773135254786
 30
0.0
 11
203.1591741954286
 21
259.2007189492238
 31
0.0
  0
LINE
  5
444
330
1FC
100
AcDbEntity
  8
1外形線
100
AcDbLine
 10
188.8914072424622
 20
320.7516821962431
 30
0.0
 11
200.9624750543275
 21
308.6806143843775
 31
0.0
  0
ARC
  5
446
330
1FC
100
AcDbEntity
  8
1外形線
100
AcDbCircle
 10
183.5881063835629
 20
315.4483813373438
 30
0.0
 40
7.500000000000111
100
AcDbArc
 50
45.0
 51
90.0
  0
LINE
  5
44A
330
1FC
100
AcDbEntity
  8
1外形線
100
AcDbLine
 10
128.1591741954283
 20
211.9326166910559
 30
0.0
 11
184.4310033336734
 21
211.9326166910559
 31
0.0
  0
LINE
  5
44B
330
1FC
100
AcDbEntity
  8
1外形線
100
AcDbLine
 10
130.6591741954284
 20
212.9932768628358
 30
0.0
 11
184.4310033336733
 21
212.9932768628358
 31
0.0
  0
LINE
  5
44D
330
1FC
100
AcDbEntity
  8
1外形線
100
AcDbLine
 10
188.5804036593496
 20
213.1850189977598
 30
0.0
 11
199.8085745211047
 21
220.642313484008
 31
0.0
  0
LINE
  5
44E
330
1FC
100
AcDbEntity
  8
1外形線
100
AcDbLine
 10
188.5804036593494
 20
214.2456791695396
 30
0.0
 11
197.3085745211045
 21
220.0425753197489
 31
0.0
  0
ARC
  5
44F
330
1FC
100
AcDbEntity
  8
1外形線
100
AcDbCircle
 10
193.1591741954284
 20
226.290173013045
 30
0.0
 40
7.5
100
AcDbArc
 50
303.5904957831005
 51
0.0
  0
ARC
  5
450
330
1FC
100
AcDbEntity
  8
1外形線
100
AcDbCircle
 10
195.6591741954285
 20
226.8899111773041
 30
0.0
 40
7.5
100
AcDbArc
 50
303.5904957831005
 51
0.0
  0
ARC
  5
451
330
1FC
100
AcDbEntity
  8
1外形線
100
AcDbCircle
 10
184.4310033336733
 20
220.4932768628358
 30
0.0
 40
7.5
100
AcDbArc
 50
270.0
 51
303.5904957831007
  0
ARC
  5
452
330
1FC
100
AcDbEntity
  8
1外形線
100
AcDbCircle
 10
184.4310033336734
 20
219.4326166910558
 30
0.0
 40
7.5
100
AcDbArc
 50
270.0
 51
303.5904957831005
  0
LINE
  5
453
330
1FC
100
AcDbEntity
  8
1外形線
100
AcDbLine
 10
130.6591741954284
 20
274.1580134354721
 30
0.0
 11
184.4310033336734
 21
274.1580134354721
 31
0.0
  0
LINE
  5
454
330
1FC
100
AcDbEntity
  8
1外形線
100
AcDbLine
 10
130.6591741954284
 20
273.0973532636921
 30
0.0
 11
184.4310033336733
 21
273.0973532636921
 31
0.0
  0
LINE
  5
457
330
1FC
100
AcDbEntity
  8
1外形線
100
AcDbLine
 10
188.5804036593495
 20
272.9056111287682
 30
0.0
 11
199.8085745211047
 21
265.4483166425198
 31
0.0
  0
LINE
  5
458
330
1FC
100
AcDbEntity
  8
1外形線
100
AcDbLine
 10
188.5804036593494
 20
271.8449509569882
 30
0.0
 11
197.3085745211045
 21
266.048054806779
 31
0.0
  0
ARC
  5
459
330
1FC
100
AcDbEntity
  8
1外形線
100
AcDbCircle
 10
184.4310033336731
 20
265.597353263692
 30
0.0
 40
7.5
100
AcDbArc
 50
56.40950421689997
 51
89.99999999999957
  0
ARC
  5
45A
330
1FC
100
AcDbEntity
  8
1外形線
100
AcDbCircle
 10
184.4310033336731
 20
266.6580134354716
 30
0.0
 40
7.5
100
AcDbArc
 50
56.40950421690046
 51
89.99999999999957
  0
LINE
  5
45B
330
1FC
100
AcDbEntity
  8
1外形線
100
AcDbLine
 10
186.6947081013613
 20
322.2747292457773
 30
0.0
 11
186.6947081013613
 21
273.8082330631998
 31
0.0
  0
ARC
  5
45C
330
1FC
100
AcDbEntity
  8
1外形線
100
AcDbCircle
 10
193.1591741954284
 20
259.800457113483
 30
0.0
 40
7.5
100
AcDbArc
 50
0.0
 51
56.40950421689939
  0
ARC
  5
45D
330
1FC
100
AcDbEntity
  8
1外形線
100
AcDbCircle
 10
195.6591741954285
 20
259.2007189492238
 30
0.0
 40
7.5
100
AcDbArc
 50
0.0
 51
56.40950421689939
  0
LINE
  5
45E
330
1FC
100
AcDbEntity
  8
1外形線
100
AcDbLine
 10
254.7541739473463
 20
175.4302654019253
 30
0.0
 11
288.2644580477844
 21
175.4302654019253
 31
0.0
  0
LINE
  5
45F
330
1FC
100
AcDbEntity
  8
1外形線
100
AcDbLine
 10
287.6647198835249
 20
177.9302654019255
 30
0.0
 11
255.3539121116056
 21
177.9302654019255
 31
0.0
  0
LINE
  5
460
330
1FC
100
AcDbEntity
  8
1外形線
100
AcDbLine
 10
240.3966176253573
 20
102.9302654019252
 30
0.0
 11
355.7727719648559
 21
102.9302654019252
 31
0.0
  0
LINE
  5
461
330
1FC
100
AcDbEntity
  8
1外形線
100
AcDbLine
 10
240.3966176253573
 20
105.4302654019251
 30
0.0
 11
355.7727719648559
 21
105.4302654019253
 31
0.0
  0
LINE
  5
46A
330
1FC
100
AcDbEntity
  8
1外形線
100
AcDbLine
 10
355.7727719648559
 20
176.9302654019254
 30
0.0
 11
355.7727719648559
 21
102.9302654019252
 31
0.0
  0
LINE
  5
46D
330
1FC
100
AcDbEntity
  8
1外形線
100
AcDbLine
 10
355.7727719648559
 20
161.4657993078583
 30
0.0
 11
302.2722339975021
 21
161.465799307858
 31
0.0
  0
LINE
  5
46E
330
1FC
100
AcDbEntity
  8
1外形線
100
AcDbLine
 10
352.772771964856
 20
177.9302654019254
 30
0.0
 11
287.6647198835249
 21
177.9302654019254
 31
0.0
  0
LINE
  5
496
330
1FC
100
AcDbEntity
  8
1外形線
100
AcDbLine
 10
240.3966176253573
 20
102.9302654019252
 30
0.0
 11
240.3966176253573
 21
159.2020945401701
 31
0.0
  0
LINE
  5
497
330
1FC
100
AcDbEntity
  8
1外形線
100
AcDbLine
 10
241.4572777971371
 20
105.4302654019251
 30
0.0
 11
241.4572777971371
 21
159.20209454017
 31
0.0
  0
LINE
  5
49A
330
1FC
100
AcDbEntity
  8
1外形線
100
AcDbLine
 10
241.6490199320612
 20
163.3514948658462
 30
0.0
 11
249.1063144183093
 21
174.5796657276016
 31
0.0
  0
LINE
  5
49B
330
1FC
100
AcDbEntity
  8
1外形線
100
AcDbLine
 10
242.7096801038409
 20
163.3514948658462
 30
0.0
 11
248.5065762540501
 21
172.0796657276014
 31
0.0
  0
ARC
  5
49C
330
1FC
100
AcDbEntity
  8
1外形線
100
AcDbCircle
 10
254.7541739473463
 20
167.9302654019253
 30
0.0
 40
7.5
100
AcDbArc
 50
90.0
 51
146.4095042168996
  0
ARC
  5
49D
330
1FC
100
AcDbEntity
  8
1外形線
100
AcDbCircle
 10
255.3539121116056
 20
170.4302654019255
 30
0.0
 40
7.5
100
AcDbArc
 50
90.0
 51
146.4095042168996
  0
ARC
  5
49E
330
1FC
100
AcDbEntity
  8
1外形線
100
AcDbCircle
 10
248.9572777971369
 20
159.2020945401701
 30
0.0
 40
7.5
100
AcDbArc
 50
146.4095042168992
 51
180.0000000000003
  0
ARC
  5
49F
330
1FC
100
AcDbEntity
  8
1外形線
100
AcDbCircle
 10
247.8966176253571
 20
159.2020945401701
 30
0.0
 40
7.5
100
AcDbArc
 50
146.4095042169
 51
180.0000000000001
  0
LINE
  5
4A0
330
1FC
100
AcDbEntity
  8
1外形線
100
AcDbLine
 10
302.6220143697733
 20
105.4302654019253
 30
0.0
 11
302.6220143697733
 21
159.20209454017
 31
0.0
  0
LINE
  5
4A1
330
1FC
100
AcDbEntity
  8
1外形線
100
AcDbLine
 10
301.5613541979935
 20
105.4302654019253
 30
0.0
 11
301.5613541979935
 21
159.20209454017
 31
0.0
  0
LINE
  5
4A3
330
1FC
100
AcDbEntity
  8
1外形線
100
AcDbLine
 10
293.9123175768211
 20
174.5796657276016
 30
0.0
 11
301.3696120630693
 21
163.3514948658462
 31
0.0
  0
LINE
  5
4A4
330
1FC
100
AcDbEntity
  8
1外形線
100
AcDbLine
 10
294.5120557410803
 20
172.0796657276014
 30
0.0
 11
300.3089518912896
 21
163.3514948658462
 31
0.0
  0
ARC
  5
4A5
330
1FC
100
AcDbEntity
  8
1外形線
100
AcDbCircle
 10
294.0613541979944
 20
159.2020945401704
 30
0.0
 40
7.5
100
AcDbArc
 50
359.999999999998
 51
33.59049578310279
  0
ARC
  5
4A6
330
1FC
100
AcDbEntity
  8
1外形線
100
AcDbCircle
 10
295.1220143697741
 20
159.2020945401702
 30
0.0
 40
7.5
100
AcDbArc
 50
359.9999999999984
 51
33.59049578310244
  0
ARC
  5
4A7
330
1FC
100
AcDbEntity
  8
1外形線
100
AcDbCircle
 10
288.2644580477844
 20
167.9302654019253
 30
0.0
 40
7.5
100
AcDbArc
 50
33.59049578310028
 51
90.0
  0
ARC
  5
4A8
330
1FC
100
AcDbEntity
  8
1外形線
100
AcDbCircle
 10
287.6647198835249
 20
170.4302654019255
 30
0.0
 40
7.5
100
AcDbArc
 50
33.59049578310028
 51
90.0
  0
LINE
  5
4AC
330
1FC
100
AcDbEntity
  8
1外形線
100
AcDbLine
 10
240.3966176253573
 20
428.3818026065332
 30
0.0
 11
240.3966176253573
 21
372.1099734682882
 31
0.0
  0
LINE
  5
4AD
330
1FC
100
AcDbEntity
  8
1外形線
100
AcDbLine
 10
355.7727719648559
 20
354.3818026065329
 30
0.0
 11
355.7727719648559
 21
428.3818026065331
 31
0.0
  0
LINE
  5
4AE
330
1FC
100
AcDbEntity
  8
1外形線
100
AcDbLine
 10
240.3966176253573
 20
425.8818026065331
 30
0.0
 11
355.7727719648559
 21
425.881802606533
 31
0.0
  0
LINE
  5
4AF
330
1FC
100
AcDbEntity
  8
1外形線
100
AcDbLine
 10
240.3966176253573
 20
428.3818026065332
 30
0.0
 11
355.7727719648559
 21
428.3818026065331
 31
0.0
  0
LINE
  5
4B0
330
1FC
100
AcDbEntity
  8
1外形線
100
AcDbLine
 10
352.772771964856
 20
353.3818026065329
 30
0.0
 11
287.6647198835249
 21
353.3818026065329
 31
0.0
  0
LINE
  5
4B1
330
1FC
100
AcDbEntity
  8
1外形線
100
AcDbLine
 10
355.7727719648559
 20
369.8462687006002
 30
0.0
 11
240.7463979976292
 21
369.8462687006003
 31
0.0
  0
LINE
  5
4B2
330
1FC
100
AcDbEntity
  8
1外形線
100
AcDbLine
 10
287.6647198835249
 20
353.3818026065329
 30
0.0
 11
255.3539121116056
 21
353.3818026065329
 31
0.0
  0
ARC
  5
4B4
330
1FC
100
AcDbEntity
  8
1外形線
100
AcDbCircle
 10
255.3539121116056
 20
360.8818026065329
 30
0.0
 40
7.5
100
AcDbArc
 50
213.5904957831003
 51
270.0
  0
ARC
  5
4B6
330
1FC
100
AcDbEntity
  8
1外形線
100
AcDbCircle
 10
247.8966176253571
 20
372.1099734682882
 30
0.0
 40
7.5
100
AcDbArc
 50
179.9999999999998
 51
213.5904957830998
  0
LINE
  5
4B9
330
1FC
100
AcDbEntity
  8
1外形線
100
AcDbLine
 10
241.6490199320612
 20
367.9605731426121
 30
0.0
 11
249.1063144183093
 21
356.7324022808567
 31
0.0
  0
LINE
  5
4C3
330
1FC
100
AcDbEntity
  8
1外形線
100
AcDbLine
 10
352.7727719648559
 20
177.9302654019254
 30
0.0
 11
352.7727719648559
 21
105.4302654019253
 31
0.0
  0
LINE
  5
4C5
330
1FC
100
AcDbEntity
  8
1外形線
100
AcDbLine
 10
355.7727719648559
 20
176.9302654019254
 30
0.0
 11
352.772771964856
 21
177.9302654019254
 31
0.0
  0
LINE
  5
4C6
330
1FC
100
AcDbEntity
  8
1外形線
100
AcDbLine
 10
352.7727719648559
 20
353.3818026065329
 30
0.0
 11
352.7727719648559
 21
425.881802606533
 31
0.0
  0
LINE
  5
4C8
330
1FC
100
AcDbEntity
  8
1外形線
100
AcDbLine
 10
352.772771964856
 20
353.3818026065329
 30
0.0
 11
355.7727719648559
 21
354.3818026065329
 31
0.0
  0
TEXT
  5
4C9
330
1FC
100
AcDbEntity
  8
1外形線
100
AcDbText
 10
116.6735027174793
 20
450.1617925679229
 30
0.0
 40
10.0
  1
MKF-85
  7
KANJI
100
AcDbText
  0
LINE
  5
4CA
330
1FC
100
AcDbEntity
  8
1外形線
100
AcDbLine
 10
66.67350351229107
 20
73.17022621214187
 30
0.0
 11
509.4476418280038
 21
73.17022621214187
 31
0.0
  0
ENDSEC
  0
SECTION
  2
OBJECTS
  0
DICTIONARY
  5
1EA
330
0
100
AcDbDictionary
281
     1
  3
ACAD_GROUP
350
1EB
  3
ACAD_LAYOUT
350
1F7
  3
ACAD_MLINESTYLE
350
1F4
  3
ACAD_PLOTSETTINGS
350
1F6
  3
ACAD_PLOTSTYLENAME
350
1EC
  3
AcDbVariableDictionary
350
319
  0
DICTIONARY
  5
1EB
102
{ACAD_REACTORS
330
1EA
102
}
330
1EA
100
AcDbDictionary
281
     1
  0
DICTIONARY
  5
1F7
102
{ACAD_REACTORS
330
1EA
102
}
330
1EA
100
AcDbDictionary
281
     1
  3
Model
350
1FF
  3
ﾚｲｱｳﾄ1
350
1FB
  0
DICTIONARY
  5
1F4
102
{ACAD_REACTORS
330
1EA
102
}
330
1EA
100
AcDbDictionary
281
     1
  3
Standard
350
1F5
  0
DICTIONARY
  5
1F6
102
{ACAD_REACTORS
330
1EA
102
}
330
1EA
100
AcDbDictionary
281
     1
  0
ACDBDICTIONARYWDFLT
  5
1EC
102
{ACAD_REACTORS
330
1EA
102
}
330
1EA
100
AcDbDictionary
281
     1
  3
Normal
350
1ED
100
AcDbDictionaryWithDefault
340
1ED
  0
DICTIONARY
  5
319
102
{ACAD_REACTORS
330
1EA
102
}
330
1EA
100
AcDbDictionary
281
     1
  3
DIMASSOC
350
31A
  0
LAYOUT
  5
1FF
102
{ACAD_REACTORS
330
1F7
102
}
330
1F7
100
AcDbPlotSettings
  1

  2
Canon LASER SHOT LBP-1710
  4

  6

 40
0.0
 41
0.0
 42
0.0
 43
0.0
 44
0.0
 45
0.0
 46
0.0
 47
0.0
 48
0.0
 49
0.0
140
0.0
141
0.0
142
1.0
143
1.0
 70
  1712
 72
     0
 73
     0
 74
     0
  7
1mizukoshi.ctb
 75
     0
147
1.0
148
0.0
149
0.0
100
AcDbLayout
  1
Model
 70
     1
 71
     0
 10
0.0
 20
0.0
 11
12.0
 21
9.0
 12
0.0
 22
0.0
 32
0.0
 14
0.0
 24
0.0
 34
0.0
 15
0.0
 25
0.0
 35
0.0
146
0.0
 13
0.0
 23
0.0
 33
0.0
 16
1.0
 26
0.0
 36
0.0
 17
0.0
 27
1.0
 37
0.0
 76
     0
330
1FC
  0
LAYOUT
  5
1FB
102
{ACAD_REACTORS
330
1F7
102
}
330
1F7
100
AcDbPlotSettings
  1

  2
Canon LASER SHOT LBP-1710
  4

  6

 40
0.0
 41
0.0
 42
0.0
 43
0.0
 44
0.0
 45
0.0
 46
0.0
 47
0.0
 48
0.0
 49
0.0
140
0.0
141
0.0
142
1.0
143
1.0
 70
   688
 72
     0
 73
     0
 74
     5
  7
1mizukoshi.ctb
 75
    16
147
1.0
148
0.0
149
0.0
100
AcDbLayout
  1
ﾚｲｱｳﾄ1
 70
     1
 71
     1
 10
0.0
 20
0.0
 11
420.0
 21
297.0
 12
0.0
 22
0.0
 32
0.0
 14
1.000000000000000E+20
 24
1.000000000000000E+20
 34
1.000000000000000E+20
 15
-1.000000000000000E+20
 25
-1.000000000000000E+20
 35
-1.000000000000000E+20
146
0.0
 13
0.0
 23
0.0
 33
0.0
 16
1.0
 26
0.0
 36
0.0
 17
0.0
 27
1.0
 37
0.0
 76
     0
330
1F8
  0
MLINESTYLE
  5
1F5
102
{ACAD_REACTORS
330
1F4
102
}
330
1F4
100
AcDbMlineStyle
  2
STANDARD
 70
     0
  3

 62
   256
 51
90.0
 52
90.0
 71
     2
 49
0.5
 62
   256
  6
BYLAYER
 49
-0.5
 62
   256
  6
BYLAYER
  0
ACDBPLACEHOLDER
  5
1ED
102
{ACAD_REACTORS
330
1EC
102
}
330
1EC
  0
DICTIONARYVAR
  5
31A
102
{ACAD_REACTORS
330
319
102
}
330
319
100
DictionaryVariables
280
     0
  1
1
  0
ENDSEC
  0
EOF
