  0
SECTION
  2
HEADER
  9
$ACADVER
  1
AC1015
  9
$ACADMAINTVER
 70
    14
  9
$DWGCODEPAGE
  3
ANSI_932
  9
$INSBASE
 10
0.0
 20
0.0
 30
0.0
  9
$EXTMIN
 10
62.21806336894906
 20
68.30771446085122
 30
0.0
  9
$EXTMAX
 10
596.7972810716369
 20
598.9072455099415
 30
0.0
  9
$LIMMIN
 10
0.0
 20
0.0
  9
$LIMMAX
 10
420.0
 20
297.0
  9
$ORTHOMODE
 70
     1
  9
$REGENMODE
 70
     1
  9
$FILLMODE
 70
     1
  9
$QTEXTMODE
 70
     0
  9
$MIRRTEXT
 70
     1
  9
$LTSCALE
 40
1.0
  9
$ATTMODE
 70
     1
  9
$TEXTSIZE
 40
2.5
  9
$TRACEWID
 40
1.0
  9
$TEXTSTYLE
  7
STANDARD
  9
$CLAYER
  8
2寸法線
  9
$CELTYPE
  6
ByLayer
  9
$CECOLOR
 62
   256
  9
$CELTSCALE
 40
1.0
  9
$DISPSILH
 70
     0
  9
$DIMSCALE
 40
1.0
  9
$DIMASZ
 40
2.5
  9
$DIMEXO
 40
0.625
  9
$DIMDLI
 40
3.75
  9
$DIMRND
 40
0.0
  9
$DIMDLE
 40
0.0
  9
$DIMEXE
 40
1.25
  9
$DIMTP
 40
0.0
  9
$DIMTM
 40
0.0
  9
$DIMTXT
 40
2.5
  9
$DIMCEN
 40
2.5
  9
$DIMTSZ
 40
0.0
  9
$DIMTOL
 70
     0
  9
$DIMLIM
 70
     0
  9
$DIMTIH
 70
     0
  9
$DIMTOH
 70
     0
  9
$DIMSE1
 70
     0
  9
$DIMSE2
 70
     0
  9
$DIMTAD
 70
     1
  9
$DIMZIN
 70
     8
  9
$DIMBLK
  1

  9
$DIMASO
 70
     1
  9
$DIMSHO
 70
     1
  9
$DIMPOST
  1

  9
$DIMAPOST
  1

  9
$DIMALT
 70
     0
  9
$DIMALTD
 70
     3
  9
$DIMALTF
 40
0.03937007874016
  9
$DIMLFAC
 40
1.0
  9
$DIMTOFL
 70
     1
  9
$DIMTVP
 40
0.0
  9
$DIMTIX
 70
     0
  9
$DIMSOXD
 70
     0
  9
$DIMSAH
 70
     0
  9
$DIMBLK1
  1

  9
$DIMBLK2
  1

  9
$DIMSTYLE
  2
ISO-25
  9
$DIMCLRD
 70
     0
  9
$DIMCLRE
 70
     0
  9
$DIMCLRT
 70
     0
  9
$DIMTFAC
 40
1.0
  9
$DIMGAP
 40
0.625
  9
$DIMJUST
 70
     0
  9
$DIMSD1
 70
     0
  9
$DIMSD2
 70
     0
  9
$DIMTOLJ
 70
     1
  9
$DIMTZIN
 70
     0
  9
$DIMALTZ
 70
     0
  9
$DIMALTTZ
 70
     0
  9
$DIMUPT
 70
     0
  9
$DIMDEC
 70
     4
  9
$DIMTDEC
 70
     4
  9
$DIMALTU
 70
     2
  9
$DIMALTTD
 70
     2
  9
$DIMTXSTY
  7
STANDARD
  9
$DIMAUNIT
 70
     0
  9
$DIMADEC
 70
     0
  9
$DIMALTRND
 40
0.0
  9
$DIMAZIN
 70
     0
  9
$DIMDSEP
 70
    46
  9
$DIMATFIT
 70
     3
  9
$DIMFRAC
 70
     0
  9
$DIMLDRBLK
  1

  9
$DIMLUNIT
 70
     2
  9
$DIMLWD
 70
    -2
  9
$DIMLWE
 70
    -2
  9
$DIMTMOVE
 70
     0
  9
$LUNITS
 70
     2
  9
$LUPREC
 70
     4
  9
$SKETCHINC
 40
1.0
  9
$FILLETRAD
 40
5.0
  9
$AUNITS
 70
     0
  9
$AUPREC
 70
     0
  9
$MENU
  1
.
  9
$ELEVATION
 40
0.0
  9
$PELEVATION
 40
0.0
  9
$THICKNESS
 40
0.0
  9
$LIMCHECK
 70
     0
  9
$CHAMFERA
 40
10.0
  9
$CHAMFERB
 40
10.0
  9
$CHAMFERC
 40
0.0
  9
$CHAMFERD
 40
0.0
  9
$SKPOLY
 70
     0
  9
$TDCREATE
 40
2452216.493922222
  9
$TDUCREATE
 40
2452216.118922222
  9
$TDUPDATE
 40
2454258.407013345
  9
$TDUUPDATE
 40
2454258.032013345
  9
$TDINDWG
 40
0.0299150000
  9
$TDUSRTIMER
 40
0.0299128935
  9
$USRTIMER
 70
     1
  9
$ANGBASE
 50
0.0
  9
$ANGDIR
 70
     0
  9
$PDMODE
 70
     0
  9
$PDSIZE
 40
0.0
  9
$PLINEWID
 40
0.0
  9
$SPLFRAME
 70
     0
  9
$SPLINETYPE
 70
     6
  9
$SPLINESEGS
 70
     8
  9
$HANDSEED
  5
172F
  9
$SURFTAB1
 70
     6
  9
$SURFTAB2
 70
     6
  9
$SURFTYPE
 70
     6
  9
$SURFU
 70
     6
  9
$SURFV
 70
     6
  9
$UCSBASE
  2

  9
$UCSNAME
  2

  9
$UCSORG
 10
0.0
 20
0.0
 30
0.0
  9
$UCSXDIR
 10
1.0
 20
0.0
 30
0.0
  9
$UCSYDIR
 10
0.0
 20
1.0
 30
0.0
  9
$UCSORTHOREF
  2

  9
$UCSORTHOVIEW
 70
     0
  9
$UCSORGTOP
 10
0.0
 20
0.0
 30
0.0
  9
$UCSORGBOTTOM
 10
0.0
 20
0.0
 30
0.0
  9
$UCSORGLEFT
 10
0.0
 20
0.0
 30
0.0
  9
$UCSORGRIGHT
 10
0.0
 20
0.0
 30
0.0
  9
$UCSORGFRONT
 10
0.0
 20
0.0
 30
0.0
  9
$UCSORGBACK
 10
0.0
 20
0.0
 30
0.0
  9
$PUCSBASE
  2

  9
$PUCSNAME
  2

  9
$PUCSORG
 10
0.0
 20
0.0
 30
0.0
  9
$PUCSXDIR
 10
1.0
 20
0.0
 30
0.0
  9
$PUCSYDIR
 10
0.0
 20
1.0
 30
0.0
  9
$PUCSORTHOREF
  2

  9
$PUCSORTHOVIEW
 70
     0
  9
$PUCSORGTOP
 10
0.0
 20
0.0
 30
0.0
  9
$PUCSORGBOTTOM
 10
0.0
 20
0.0
 30
0.0
  9
$PUCSORGLEFT
 10
0.0
 20
0.0
 30
0.0
  9
$PUCSORGRIGHT
 10
0.0
 20
0.0
 30
0.0
  9
$PUCSORGFRONT
 10
0.0
 20
0.0
 30
0.0
  9
$PUCSORGBACK
 10
0.0
 20
0.0
 30
0.0
  9
$USERI1
 70
     0
  9
$USERI2
 70
     0
  9
$USERI3
 70
     0
  9
$USERI4
 70
     0
  9
$USERI5
 70
     0
  9
$USERR1
 40
0.0
  9
$USERR2
 40
0.0
  9
$USERR3
 40
0.0
  9
$USERR4
 40
0.0
  9
$USERR5
 40
0.0
  9
$WORLDVIEW
 70
     1
  9
$SHADEDGE
 70
     3
  9
$SHADEDIF
 70
    70
  9
$TILEMODE
 70
     1
  9
$MAXACTVP
 70
    64
  9
$PINSBASE
 10
0.0
 20
0.0
 30
0.0
  9
$PLIMCHECK
 70
     0
  9
$PEXTMIN
 10
1.000000000000000E+20
 20
1.000000000000000E+20
 30
1.000000000000000E+20
  9
$PEXTMAX
 10
-1.000000000000000E+20
 20
-1.000000000000000E+20
 30
-1.000000000000000E+20
  9
$PLIMMIN
 10
0.0
 20
0.0
  9
$PLIMMAX
 10
420.0
 20
297.0
  9
$UNITMODE
 70
     0
  9
$VISRETAIN
 70
     1
  9
$PLINEGEN
 70
     0
  9
$PSLTSCALE
 70
     1
  9
$TREEDEPTH
 70
  3020
  9
$CMLSTYLE
  2
Standard
  9
$CMLJUST
 70
     0
  9
$CMLSCALE
 40
1.0
  9
$PROXYGRAPHICS
 70
     1
  9
$MEASUREMENT
 70
     0
  9
$CELWEIGHT
370
    -1
  9
$ENDCAPS
280
     0
  9
$JOINSTYLE
280
     0
  9
$LWDISPLAY
290
     0
  9
$INSUNITS
 70
     0
  9
$HYPERLINKBASE
  1

  9
$STYLESHEET
  1

  9
$XEDIT
290
     1
  9
$CEPSNTYPE
380
     0
  9
$PSTYLEMODE
290
     1
  9
$FINGERPRINTGUID
  2
{64D0883C-8304-4632-9032-DB7C238FABA4}
  9
$VERSIONGUID
  2
{D3C19959-0A98-4B8A-B6E7-B796B2D16722}
  9
$EXTNAMES
290
     1
  9
$PSVPSCALE
 40
0.0
  9
$OLESTARTUP
290
     0
  0
ENDSEC
  0
SECTION
  2
CLASSES
  0
CLASS
  1
ACDBDICTIONARYWDFLT
  2
AcDbDictionaryWithDefault
  3
AutoCAD 2000
 90
        0
280
     0
281
     0
  0
CLASS
  1
ACDBPLACEHOLDER
  2
AcDbPlaceHolder
  3
AutoCAD 2000
 90
        0
280
     0
281
     0
  0
CLASS
  1
LAYOUT
  2
AcDbLayout
  3
AutoCAD 2000
 90
        0
280
     0
281
     0
  0
CLASS
  1
DICTIONARYVAR
  2
AcDbDictionaryVar
  3
AutoCAD 2000
 90
        0
280
     0
281
     0
  0
ENDSEC
  0
SECTION
  2
TABLES
  0
TABLE
  2
VPORT
  5
11F0
330
0
100
AcDbSymbolTable
 70
     2
  0
VPORT
  5
172E
330
11F0
100
AcDbSymbolTableRecord
100
AcDbViewportTableRecord
  2
*Active
 70
     0
 10
0.0
 20
0.0
 11
1.0
 21
1.0
 12
502.9158568757193
 22
353.3981899662194
 13
0.0
 23
0.0
 14
10.0
 24
10.0
 15
10.0
 25
10.0
 16
0.0
 26
0.0
 36
1.0
 17
0.0
 27
0.0
 37
0.0
 40
869.1978173263121
 41
1.22509702457956
 42
50.0
 43
0.0
 44
0.0
 50
0.0
 51
0.0
 71
     0
 72
   100
 73
     1
 74
     3
 75
     0
 76
     0
 77
     0
 78
     0
281
     0
 65
     1
110
0.0
120
0.0
130
0.0
111
1.0
121
0.0
131
0.0
112
0.0
122
1.0
132
0.0
 79
     0
146
0.0
  0
ENDTAB
  0
TABLE
  2
LTYPE
  5
11ED
330
0
100
AcDbSymbolTable
 70
     3
  0
LTYPE
  5
11FB
330
11ED
100
AcDbSymbolTableRecord
100
AcDbLinetypeTableRecord
  2
ByBlock
 70
     0
  3

 72
    65
 73
     0
 40
0.0
  0
LTYPE
  5
11FC
330
11ED
100
AcDbSymbolTableRecord
100
AcDbLinetypeTableRecord
  2
ByLayer
 70
     0
  3

 72
    65
 73
     0
 40
0.0
  0
LTYPE
  5
11FD
330
11ED
100
AcDbSymbolTableRecord
100
AcDbLinetypeTableRecord
  2
CONTINUOUS
 70
     0
  3
Solid line
 72
    65
 73
     0
 40
0.0
  0
ENDTAB
  0
TABLE
  2
LAYER
  5
11EA
330
0
100
AcDbSymbolTable
 70
     6
  0
LAYER
  5
11F8
330
11EA
100
AcDbSymbolTableRecord
100
AcDbLayerTableRecord
  2
0
 70
     0
 62
     7
  6
CONTINUOUS
370
    -3
390
11F7
  0
LAYER
  5
120C
330
11EA
100
AcDbSymbolTableRecord
100
AcDbLayerTableRecord
  2
1外形線
 70
     0
 62
     3
  6
CONTINUOUS
370
    -3
390
11F7
  0
LAYER
  5
120D
330
11EA
100
AcDbSymbolTableRecord
100
AcDbLayerTableRecord
  2
2寸法線
 70
     0
 62
     2
  6
CONTINUOUS
370
    -3
390
11F7
  0
LAYER
  5
120E
330
11EA
100
AcDbSymbolTableRecord
100
AcDbLayerTableRecord
  2
DEFPOINTS
 70
     0
 62
     7
  6
CONTINUOUS
290
     0
370
    -3
390
11F7
  0
ENDTAB
  0
TABLE
  2
STYLE
  5
11EB
330
0
100
AcDbSymbolTable
 70
     2
  0
STYLE
  5
11F9
330
11EB
100
AcDbSymbolTableRecord
100
AcDbTextStyleTableRecord
  2
STANDARD
 70
     0
 40
0.0
 41
1.0
 50
0.0
 71
     0
 42
2.5
  3
txt
  4

  0
STYLE
  5
1211
330
11EB
100
AcDbSymbolTableRecord
100
AcDbTextStyleTableRecord
  2
KANJI
 70
     0
 40
0.0
 41
1.0
 50
0.0
 71
     0
 42
2.5
  3
simplex.shx
  4
extfont.shx
  0
ENDTAB
  0
TABLE
  2
VIEW
  5
11EE
330
0
100
AcDbSymbolTable
 70
     0
  0
ENDTAB
  0
TABLE
  2
UCS
  5
11EF
330
0
100
AcDbSymbolTable
 70
     0
  0
ENDTAB
  0
TABLE
  2
APPID
  5
11F1
330
0
100
AcDbSymbolTable
 70
     1
  0
APPID
  5
11FA
330
11F1
100
AcDbSymbolTableRecord
100
AcDbRegAppTableRecord
  2
ACAD
 70
     0
  0
ENDTAB
  0
TABLE
  2
DIMSTYLE
  5
11F2
330
0
100
AcDbSymbolTable
 70
     4
100
AcDbDimStyleTable
 71
     1
340
1212
  0
DIMSTYLE
105
1212
330
11F2
100
AcDbSymbolTableRecord
100
AcDbDimStyleTableRecord
  2
ISO-25
 70
     0
 41
2.5
 42
0.625
 43
3.75
 44
1.25
 73
     0
 74
     0
 77
     1
 78
     8
140
2.5
141
2.5
143
0.03937007874016
147
0.625
171
     3
172
     1
274
     3
279
     2
284
     8
285
     8
286
     8
340
11F9
  0
DIMSTYLE
105
1213
330
11F2
100
AcDbSymbolTableRecord
100
AcDbDimStyleTableRecord
  2
STANDARD
 70
     0
274
     3
279
     2
284
     8
285
     8
286
     8
340
11F9
  0
DIMSTYLE
105
1214
330
11F2
100
AcDbSymbolTableRecord
100
AcDbDimStyleTableRecord
  2
M
 70
     0
 40
0.0
 41
2.0
 42
1.0
 43
0.0
 44
1.0
 73
     0
 74
     0
 77
     1
 78
     8
140
2.5
141
0.0
147
0.5
172
     1
173
     1
274
     3
279
     2
284
     8
285
     8
286
     8
340
11F9
  0
ENDTAB
  0
TABLE
  2
BLOCK_RECORD
  5
11E9
330
0
100
AcDbSymbolTable
 70
    26
  0
BLOCK_RECORD
  5
1206
330
11E9
100
AcDbSymbolTableRecord
100
AcDbBlockTableRecord
  2
*Model_Space
340
1209
  0
BLOCK_RECORD
  5
1202
330
11E9
100
AcDbSymbolTableRecord
100
AcDbBlockTableRecord
  2
*Paper_Space
340
1205
  0
BLOCK_RECORD
  5
121D
330
11E9
100
AcDbSymbolTableRecord
100
AcDbBlockTableRecord
  2
2
340
0
102
{BLKREFS
331
12DE
331
12DF
331
12EA
331
12EB
331
12F6
331
12F7
331
1302
331
130B
331
1314
331
131D
331
147B
331
1484
331
148D
102
}
  0
BLOCK_RECORD
  5
121F
330
11E9
100
AcDbSymbolTableRecord
100
AcDbBlockTableRecord
  2
*U3
340
0
102
{BLKREFS
331
2C
102
}
  0
ENDTAB
  0
ENDSEC
  0
SECTION
  2
BLOCKS
  0
BLOCK
  5
1207
330
1206
100
AcDbEntity
  8
0
100
AcDbBlockBegin
  2
*Model_Space
 70
     0
 10
0.0
 20
0.0
 30
0.0
  3
*Model_Space
  1

  0
ENDBLK
  5
1208
330
1206
100
AcDbEntity
  8
0
100
AcDbBlockEnd
  0
BLOCK
  5
1203
330
1202
100
AcDbEntity
 67
     1
  8
0
100
AcDbBlockBegin
  2
*Paper_Space
 70
     0
 10
0.0
 20
0.0
 30
0.0
  3
*Paper_Space
  1

  0
ENDBLK
  5
1204
330
1202
100
AcDbEntity
 67
     1
  8
0
100
AcDbBlockEnd
  0
BLOCK
  5
121E
330
121D
100
AcDbEntity
  8
0
100
AcDbBlockBegin
  2
2
 70
     0
 10
0.0
 20
0.0
 30
0.0
  3
2
  1

  0
INSERT
  5
2C
330
121D
100
AcDbEntity
  8
0
  6
Continuous
100
AcDbBlockReference
  2
*U3
 10
0.0
 20
0.0
 30
0.0
1001
ACAD
1002
{
1000
R14_HATCH_DATA
1000
2C
1011
1.0
1021
0.0
1031
0.0
1011
0.0
1021
1.0
1031
0.0
1011
0.0
1021
0.0
1031
1.0
1040
0.0
1010
0.0
1020
0.0
1030
1.0
1000
SOLID
1070
     1
1070
     1
1071
        1
1071
        7
1070
     0
1070
     1
1071
        3
1040
0.0000000000000284
1040
0.0
1040
-0.899999999998343
1040
0.2411542731875897
1040
-0.8999999999983572
1040
-0.2411542731875613
1071
        3
1005
2F
1005
2D
1005
30
1070
     0
1070
     1
1040
0.0028941747346077
1071
        1
1040
-0.5303136156475148
1040
-0.0796654556697263
1040
0.0
1002
}
  0
LINE
  5
2D
330
121D
100
AcDbEntity
  8
0
100
AcDbLine
 10
-0.8999999999983572
 20
0.2411542731879876
 30
0.0
 11
-0.8999999999983572
 21
-0.2411542731880445
 31
0.0
  0
LINE
  5
2E
330
121D
100
AcDbEntity
  8
0
100
AcDbLine
 10
-0.9999999999983517
 20
0.0
 30
0.0
 11
0.0
 21
0.0
 31
0.0
  0
LINE
  5
2F
330
121D
100
AcDbEntity
  8
0
100
AcDbLine
 10
-0.8999999999984423
 20
0.2411542731875897
 30
0.0
 11
0.0
 21
0.0
 31
0.0
  0
LINE
  5
30
330
121D
100
AcDbEntity
  8
0
100
AcDbLine
 10
-0.8999999999984423
 20
-0.2411542731875897
 30
0.0
 11
0.0
 21
0.0
 31
0.0
  0
ENDBLK
  5
32
330
121D
100
AcDbEntity
  8
0
100
AcDbBlockEnd
  0
BLOCK
  5
1220
330
121F
100
AcDbEntity
  8
0
100
AcDbBlockBegin
  2
*U3
 70
     1
 10
0.0
 20
0.0
 30
0.0
  3
*U3
  1

  0
SOLID
  5
842
330
121F
100
AcDbEntity
  8
0
  6
Continuous
100
AcDbTrace
 10
-0.5999999999988905
 20
0.0000000000000095
 30
0.0
 11
0.0000000000000284
 21
0.0
 31
0.0
 12
-0.899999999998343
 22
0.2411542731875897
 32
0.0
 13
-0.899999999998343
 23
0.2411542731875897
 33
0.0
  0
SOLID
  5
843
330
121F
100
AcDbEntity
  8
0
  6
Continuous
100
AcDbTrace
 10
-0.5999999999988905
 20
0.0000000000000095
 30
0.0
 11
-0.899999999998343
 21
0.2411542731875897
 31
0.0
 12
-0.8999999999983572
 22
-0.2411542731875613
 32
0.0
 13
-0.8999999999983572
 23
-0.2411542731875613
 33
0.0
  0
SOLID
  5
844
330
121F
100
AcDbEntity
  8
0
  6
Continuous
100
AcDbTrace
 10
-0.5999999999988905
 20
0.0000000000000095
 30
0.0
 11
-0.8999999999983572
 21
-0.2411542731875613
 31
0.0
 12
0.0000000000000284
 22
0.0
 32
0.0
 13
0.0000000000000284
 23
0.0
 33
0.0
  0
ENDBLK
  5
846
330
121F
100
AcDbEntity
  8
0
100
AcDbBlockEnd
  0
ENDSEC
  0
SECTION
  2
ENTITIES
  0
TEXT
  5
115D
330
1206
100
AcDbEntity
  8
1外形線
100
AcDbText
 10
89.67616080934419
 20
567.4359980904557
 30
0.0
 40
10.0
  1
MN-75
  7
KANJI
100
AcDbText
  0
LINE
  5
1257
330
1206
100
AcDbEntity
  8
1外形線
100
AcDbLine
 10
372.4236599313578
 20
521.8374619949825
 30
0.0
 11
274.4496395022458
 21
521.8374619949825
 31
0.0
  0
LINE
  5
1258
330
1206
100
AcDbEntity
  8
1外形線
100
AcDbLine
 10
369.4236599313578
 20
533.3019280890499
 30
0.0
 11
262.9851734081781
 21
533.3019280890499
 31
0.0
  0
LINE
  5
1259
330
1206
100
AcDbEntity
  8
1外形線
100
AcDbLine
 10
336.9851734081781
 20
419.3019280890498
 30
0.0
 11
258.9851734081781
 21
419.3019280890498
 31
0.0
  0
LINE
  5
125A
330
1206
100
AcDbEntity
  8
1外形線
100
AcDbLine
 10
337.9851734081781
 20
422.30192808905
 30
0.0
 11
257.9851734081783
 21
422.30192808905
 31
0.0
  0
LINE
  5
125B
330
1206
100
AcDbEntity
  8
1外形線
100
AcDbLine
 10
257.9851734081783
 20
528.3019280890499
 30
0.0
 11
257.9851734081783
 21
422.3019280890498
 31
0.0
  0
LINE
  5
125C
330
1206
100
AcDbEntity
  8
1外形線
100
AcDbLine
 10
269.4496395022458
 20
419.3019280890498
 30
0.0
 11
269.4496395022458
 21
516.8374619949823
 31
0.0
  0
LINE
  5
125D
330
1206
100
AcDbEntity
  8
1外形線
100
AcDbLine
 10
257.9851734081783
 20
422.3019280890498
 30
0.0
 11
258.9851734081781
 21
419.3019280890498
 31
0.0
  0
ARC
  5
125E
330
1206
100
AcDbEntity
  8
1外形線
100
AcDbCircle
 10
274.4496395022458
 20
516.8374619949823
 30
0.0
 40
5.0
100
AcDbArc
 50
90.0
 51
180.0
  0
ARC
  5
125F
330
1206
100
AcDbEntity
  8
1外形線
100
AcDbCircle
 10
262.9851734081781
 20
528.3019280890499
 30
0.0
 40
5.0
100
AcDbArc
 50
90.0
 51
180.0
  0
LINE
  5
1260
330
1206
100
AcDbEntity
  8
1外形線
100
AcDbLine
 10
548.8085763466795
 20
536.3019280890499
 30
0.0
 11
508.8085763466795
 21
536.3019280890499
 31
0.0
  0
LINE
  5
1261
330
1206
100
AcDbEntity
  8
1外形線
100
AcDbLine
 10
534.2375085348142
 20
466.3019280890499
 30
0.0
 11
508.8085763466795
 21
466.3019280890499
 31
0.0
  0
LINE
  5
1262
330
1206
100
AcDbEntity
  8
1外形線
100
AcDbLine
 10
534.2375085348142
 20
468.8019280890499
 30
0.0
 11
508.8085763466795
 21
468.8019280890499
 31
0.0
  0
LINE
  5
1263
330
1206
100
AcDbEntity
  8
1外形線
100
AcDbLine
 10
546.3085763466795
 20
533.8019280890499
 30
0.0
 11
471.3085763466796
 21
533.8019280890499
 31
0.0
  0
LINE
  5
1264
330
1206
100
AcDbEntity
  8
1外形線
100
AcDbLine
 10
372.4236599313578
 20
532.3019280890499
 30
0.0
 11
372.4236599313578
 21
454.3019280890501
 31
0.0
  0
LINE
  5
1265
330
1206
100
AcDbEntity
  8
1外形線
100
AcDbLine
 10
369.4236599313577
 20
533.3019280890499
 30
0.0
 11
369.4236599313577
 21
453.3019280890499
 31
0.0
  0
LINE
  5
1266
330
1206
100
AcDbEntity
  8
1外形線
100
AcDbLine
 10
548.8085763466795
 20
480.8729959009155
 30
0.0
 11
548.8085763466795
 21
536.3019280890499
 31
0.0
  0
LINE
  5
1267
330
1206
100
AcDbEntity
  8
1外形線
100
AcDbLine
 10
546.3085763466795
 20
533.8019280890499
 30
0.0
 11
546.3085763466795
 21
480.8729959009155
 31
0.0
  0
LINE
  5
126A
330
1206
100
AcDbEntity
  8
1外形線
100
AcDbLine
 10
326.5207073141108
 20
419.3019280890498
 30
0.0
 11
326.5207073141108
 21
447.0700844832836
 31
0.0
  0
LINE
  5
126B
330
1206
100
AcDbEntity
  8
1外形線
100
AcDbLine
 10
337.9851734081781
 20
444.3019280890498
 30
0.0
 11
337.9851734081781
 21
422.30192808905
 31
0.0
  0
LINE
  5
126C
330
1206
100
AcDbEntity
  8
1外形線
100
AcDbLine
 10
336.9851734081781
 20
419.3019280890498
 30
0.0
 11
337.9851734081781
 21
422.30192808905
 31
0.0
  0
LINE
  5
126D
330
1206
100
AcDbEntity
  8
1外形線
100
AcDbLine
 10
337.9851734081781
 20
444.3019280890498
 30
0.0
 11
347.4236599313578
 21
453.3019280890499
 31
0.0
  0
LINE
  5
126E
330
1206
100
AcDbEntity
  8
1外形線
100
AcDbLine
 10
328.0702276589571
 20
450.6886740081362
 30
0.0
 11
341.3851107696231
 21
463.3849837079699
 31
0.0
  0
ARC
  5
126F
330
1206
100
AcDbEntity
  8
1外形線
100
AcDbCircle
 10
331.5207073141107
 20
447.0700844832836
 30
0.0
 40
5.0
100
AcDbArc
 50
133.6377031194873
 51
180.0
  0
LINE
  5
1270
330
1206
100
AcDbEntity
  8
1外形線
100
AcDbLine
 10
372.4236599313578
 20
464.7663941831173
 30
0.0
 11
344.8355904247766
 21
464.7663941831173
 31
0.0
  0
LINE
  5
1271
330
1206
100
AcDbEntity
  8
1外形線
100
AcDbLine
 10
369.4236599313578
 20
453.3019280890499
 30
0.0
 11
347.4236599313578
 21
453.3019280890499
 31
0.0
  0
ARC
  5
1272
330
1206
100
AcDbEntity
  8
1外形線
100
AcDbCircle
 10
344.8355904247766
 20
459.7663941831173
 30
0.0
 40
5.0
100
AcDbArc
 50
90.0
 51
133.6377031194873
  0
LINE
  5
1273
330
1206
100
AcDbEntity
  8
1外形線
100
AcDbLine
 10
369.4236599313578
 20
453.3019280890499
 30
0.0
 11
372.4236599313578
 21
454.3019280890501
 31
0.0
  0
ARC
  5
1277
330
1206
100
AcDbEntity
  8
1外形線
100
AcDbCircle
 10
541.3085763466795
 20
480.8729959009155
 30
0.0
 40
5.0
100
AcDbArc
 50
314.9999999999997
 51
0.0
  0
ARC
  5
1278
330
1206
100
AcDbEntity
  8
1外形線
100
AcDbCircle
 10
541.3085763466795
 20
480.8729959009155
 30
0.0
 40
7.500000000000013
100
AcDbArc
 50
314.9999999999997
 51
0.0
  0
LINE
  5
1279
330
1206
100
AcDbEntity
  8
1外形線
100
AcDbLine
 10
546.6118772055787
 20
475.5696950420163
 30
0.0
 11
539.5408093937128
 21
468.4986272301507
 31
0.0
  0
LINE
  5
127A
330
1206
100
AcDbEntity
  8
1外形線
100
AcDbLine
 10
544.8441102526124
 20
477.3374619949826
 30
0.0
 11
537.7730424407466
 21
470.2663941831172
 31
0.0
  0
ARC
  5
127B
330
1206
100
AcDbEntity
  8
1外形線
100
AcDbCircle
 10
534.2375085348142
 20
473.8019280890498
 30
0.0
 40
7.500000000000013
100
AcDbArc
 50
270.0
 51
314.9999999999997
  0
ARC
  5
127C
330
1206
100
AcDbEntity
  8
1外形線
100
AcDbCircle
 10
534.2375085348142
 20
473.8019280890498
 30
0.0
 40
5.0
100
AcDbArc
 50
270.0
 51
314.9999999999997
  0
LINE
  5
127D
330
1206
100
AcDbEntity
  8
1外形線
100
AcDbLine
 10
468.8085763466793
 20
480.8729959009155
 30
0.0
 11
468.8085763466793
 21
536.3019280890499
 31
0.0
  0
LINE
  5
127E
330
1206
100
AcDbEntity
  8
1外形線
100
AcDbLine
 10
471.3085763466796
 20
533.8019280890499
 30
0.0
 11
471.3085763466795
 21
480.8729959009155
 31
0.0
  0
LINE
  5
127F
330
1206
100
AcDbEntity
  8
1外形線
100
AcDbLine
 10
369.4236599313578
 20
533.3019280890499
 30
0.0
 11
372.4236599313578
 21
532.3019280890499
 31
0.0
  0
LINE
  5
1280
330
1206
100
AcDbEntity
  8
1外形線
100
AcDbLine
 10
483.3796441585446
 20
466.3019280890499
 30
0.0
 11
508.8085763466795
 21
466.3019280890499
 31
0.0
  0
LINE
  5
1281
330
1206
100
AcDbEntity
  8
1外形線
100
AcDbLine
 10
483.3796441585446
 20
468.8019280890499
 30
0.0
 11
508.8085763466795
 21
468.8019280890499
 31
0.0
  0
ARC
  5
1282
330
1206
100
AcDbEntity
  8
1外形線
100
AcDbCircle
 10
476.3085763466794
 20
480.8729959009155
 30
0.0
 40
7.500000000000013
100
AcDbArc
 50
180.0
 51
225.0000000000003
  0
ARC
  5
1283
330
1206
100
AcDbEntity
  8
1外形線
100
AcDbCircle
 10
476.3085763466794
 20
480.8729959009155
 30
0.0
 40
5.0
100
AcDbArc
 50
180.0
 51
225.0000000000003
  0
LINE
  5
1284
330
1206
100
AcDbEntity
  8
1外形線
100
AcDbLine
 10
471.0052754877803
 20
475.5696950420163
 30
0.0
 11
478.0763432996462
 21
468.4986272301507
 31
0.0
  0
ARC
  5
1285
330
1206
100
AcDbEntity
  8
1外形線
100
AcDbCircle
 10
483.3796441585446
 20
473.8019280890498
 30
0.0
 40
7.500000000000013
100
AcDbArc
 50
225.0000000000003
 51
270.0
  0
LINE
  5
1286
330
1206
100
AcDbEntity
  8
1外形線
100
AcDbLine
 10
472.7730424407466
 20
477.3374619949826
 30
0.0
 11
479.8441102526123
 21
470.2663941831172
 31
0.0
  0
ARC
  5
1287
330
1206
100
AcDbEntity
  8
1外形線
100
AcDbCircle
 10
483.3796441585446
 20
473.8019280890498
 30
0.0
 40
5.0
100
AcDbArc
 50
225.0000000000003
 51
270.0
  0
LINE
  5
1288
330
1206
100
AcDbEntity
  8
1外形線
100
AcDbLine
 10
468.8085763466793
 20
536.3019280890499
 30
0.0
 11
508.8085763466795
 21
536.3019280890499
 31
0.0
  0
LINE
  5
12D7
330
1206
100
AcDbEntity
  8
1外形線
100
AcDbLine
 10
412.4236599313578
 20
536.3019280890499
 30
0.0
 11
412.4236599313578
 21
467.3019280890499
 31
0.0
  0
LINE
  5
14F7
330
1206
100
AcDbEntity
  8
1外形線
100
AcDbLine
 10
375.4236599313578
 20
536.3019280890499
 30
0.0
 11
412.4236599313578
 21
536.3019280890499
 31
0.0
  0
LINE
  5
14F8
330
1206
100
AcDbEntity
  8
1外形線
100
AcDbLine
 10
375.4236599313578
 20
536.3019280890499
 30
0.0
 11
375.4236599313578
 21
453.3019280890498
 31
0.0
  0
LINE
  5
14F9
330
1206
100
AcDbEntity
  8
1外形線
100
AcDbLine
 10
372.4236599313578
 20
532.3019280890499
 30
0.0
 11
375.4236599313578
 21
536.3019280890499
 31
0.0
  0
LINE
  5
1507
330
1206
100
AcDbEntity
  8
1外形線
100
AcDbLine
 10
392.4236599313577
 20
536.3019280890499
 30
0.0
 11
392.4236599313577
 21
465.7972139878848
 31
0.0
  0
LINE
  5
1509
330
1206
100
AcDbEntity
  8
1外形線
100
AcDbLine
 10
409.4236599313577
 20
466.3019280890499
 30
0.0
 11
394.6128160901863
 21
466.3019280890499
 31
0.0
  0
LINE
  5
150A
330
1206
100
AcDbEntity
  8
1外形線
100
AcDbLine
 10
375.4236599313578
 20
453.3019280890498
 30
0.0
 11
372.4236599313578
 21
454.3019280890501
 31
0.0
  0
LINE
  5
150C
330
1206
100
AcDbEntity
  8
1外形線
100
AcDbLine
 10
375.4236599313578
 20
453.3019280890498
 30
0.0
 11
380.4236599313578
 21
453.3019280890498
 31
0.0
  0
LINE
  5
150D
330
1206
100
AcDbEntity
  8
1外形線
100
AcDbLine
 10
380.4236599313578
 20
453.3019280890498
 30
0.0
 11
390.9387988670488
 21
464.6933286027151
 31
0.0
  0
ARC
  5
150E
330
1206
100
AcDbEntity
  8
1外形線
100
AcDbCircle
 10
394.6128160901863
 20
461.3019280890498
 30
0.0
 40
5.0
100
AcDbArc
 50
90.0
 51
137.2906100426384
  0
LINE
  5
150F
330
1206
100
AcDbEntity
  8
1外形線
100
AcDbLine
 10
372.4236599313578
 20
521.8374619949825
 30
0.0
 11
375.4236599313578
 21
521.8374619949825
 31
0.0
  0
LINE
  5
1510
330
1206
100
AcDbEntity
  8
1外形線
100
AcDbLine
 10
375.4236599313578
 20
521.8374619949825
 30
0.0
 11
392.4236599313577
 21
536.3019280890499
 31
0.0
  0
LINE
  5
1511
330
1206
100
AcDbEntity
  8
1外形線
100
AcDbLine
 10
409.4236599313577
 20
536.3019280890499
 30
0.0
 11
409.4236599313577
 21
466.3019280890499
 31
0.0
  0
LINE
  5
1513
330
1206
100
AcDbEntity
  8
1外形線
100
AcDbLine
 10
409.4236599313577
 20
466.3019280890499
 30
0.0
 11
412.4236599313578
 21
467.3019280890499
 31
0.0
  0
LINE
  5
1514
330
1206
100
AcDbEntity
  8
1外形線
100
AcDbLine
 10
412.4236599313578
 20
477.7663941831169
 30
0.0
 11
394.6128160901861
 21
477.7663941831169
 31
0.0
  0
LINE
  5
1515
330
1206
100
AcDbEntity
  8
1外形線
100
AcDbLine
 10
372.4236599313578
 20
464.7663941831173
 30
0.0
 11
380.4236599313578
 21
464.7663941831173
 31
0.0
  0
LINE
  5
1517
330
1206
100
AcDbEntity
  8
1外形線
100
AcDbLine
 10
380.4236599313578
 20
464.7663941831173
 30
0.0
 11
390.9387988670487
 21
476.1577946967823
 31
0.0
  0
ARC
  5
1518
330
1206
100
AcDbEntity
  8
1外形線
100
AcDbCircle
 10
394.6128160901861
 20
472.7663941831168
 30
0.0
 40
5.0
100
AcDbArc
 50
90.00000000000005
 51
137.2906100426374
  0
LINE
  5
151D
330
1206
100
AcDbEntity
  8
1外形線
100
AcDbLine
 10
326.5207073141108
 20
418.8634415658703
 30
0.0
 11
326.5207073141108
 21
410.8634415658703
 31
0.0
  0
LINE
  5
151E
330
1206
100
AcDbEntity
  8
1外形線
100
AcDbLine
 10
269.4496395022458
 20
415.8634415658703
 30
0.0
 11
254.9851734081783
 21
398.8634415658703
 31
0.0
  0
LINE
  5
151F
330
1206
100
AcDbEntity
  8
1外形線
100
AcDbLine
 10
337.9851734081781
 20
415.8634415658703
 30
0.0
 11
337.9851734081781
 21
410.8634415658703
 31
0.0
  0
LINE
  5
1520
330
1206
100
AcDbEntity
  8
1外形線
100
AcDbLine
 10
254.9851734081783
 20
415.8634415658703
 30
0.0
 11
254.9851734081783
 21
378.8634415658703
 31
0.0
  0
LINE
  5
1521
330
1206
100
AcDbEntity
  8
1外形線
100
AcDbLine
 10
254.9851734081783
 20
415.8634415658703
 30
0.0
 11
337.9851734081781
 21
415.8634415658703
 31
0.0
  0
LINE
  5
1522
330
1206
100
AcDbEntity
  8
1外形線
100
AcDbLine
 10
337.9851734081781
 20
415.8634415658703
 30
0.0
 11
336.9851734081781
 21
418.8634415658703
 31
0.0
  0
LINE
  5
1523
330
1206
100
AcDbEntity
  8
1外形線
100
AcDbLine
 10
258.9851734081781
 20
418.8634415658703
 30
0.0
 11
254.9851734081783
 21
415.8634415658703
 31
0.0
  0
LINE
  5
1524
330
1206
100
AcDbEntity
  8
1外形線
100
AcDbLine
 10
269.4496395022458
 20
418.8634415658703
 30
0.0
 11
269.4496395022458
 21
415.8634415658703
 31
0.0
  0
LINE
  5
1525
330
1206
100
AcDbEntity
  8
1外形線
100
AcDbLine
 10
254.9851734081783
 20
381.8634415658703
 30
0.0
 11
324.9851734081782
 21
381.8634415658703
 31
0.0
  0
LINE
  5
1526
330
1206
100
AcDbEntity
  8
1外形線
100
AcDbLine
 10
254.9851734081783
 20
378.8634415658703
 30
0.0
 11
323.9851734081783
 21
378.8634415658703
 31
0.0
  0
LINE
  5
1527
330
1206
100
AcDbEntity
  8
1外形線
100
AcDbLine
 10
254.9851734081783
 20
398.8634415658703
 30
0.0
 11
325.4898875093433
 21
398.8634415658703
 31
0.0
  0
LINE
  5
1528
330
1206
100
AcDbEntity
  8
1外形線
100
AcDbLine
 10
313.5207073141113
 20
378.8634415658703
 30
0.0
 11
313.5207073141113
 21
396.674285407042
 31
0.0
  0
LINE
  5
1529
330
1206
100
AcDbEntity
  8
1外形線
100
AcDbLine
 10
324.9851734081782
 20
381.8634415658703
 30
0.0
 11
324.9851734081782
 21
396.6742854070418
 31
0.0
  0
LINE
  5
152A
330
1206
100
AcDbEntity
  8
1外形線
100
AcDbLine
 10
326.5207073141108
 20
410.8634415658703
 30
0.0
 11
315.1293068004458
 21
400.3483026301793
 31
0.0
  0
ARC
  5
152B
330
1206
100
AcDbEntity
  8
1外形線
100
AcDbCircle
 10
329.9851734081783
 20
396.6742854070418
 30
0.0
 40
5.0
100
AcDbArc
 50
132.7093899573615
 51
180.0
  0
LINE
  5
152C
330
1206
100
AcDbEntity
  8
1外形線
100
AcDbLine
 10
337.9851734081781
 20
410.8634415658703
 30
0.0
 11
326.593772894513
 21
400.3483026301791
 31
0.0
  0
ARC
  5
152D
330
1206
100
AcDbEntity
  8
1外形線
100
AcDbCircle
 10
318.5207073141113
 20
396.674285407042
 30
0.0
 40
5.0
100
AcDbArc
 50
132.7093899573625
 51
179.9999999999999
  0
LINE
  5
152E
330
1206
100
AcDbEntity
  8
1外形線
100
AcDbLine
 10
324.9851734081782
 20
381.8634415658703
 30
0.0
 11
323.9851734081783
 21
378.8634415658703
 31
0.0
  0
LINE
  5
152F
330
1206
100
AcDbEntity
  8
1外形線
100
AcDbLine
 10
546.3085763466795
 20
418.8634415658702
 30
0.0
 11
546.3085763466795
 21
475.2828259571661
 31
0.0
  0
LINE
  5
1530
330
1206
100
AcDbEntity
  8
1外形線
100
AcDbLine
 10
548.8085763466795
 20
536.3019280890499
 30
0.0
 11
548.8085763466795
 21
496.3019280890498
 31
0.0
  0
LINE
  5
1533
330
1206
100
AcDbEntity
  8
1外形線
100
AcDbLine
 10
546.3085763466795
 20
533.8019280890497
 30
0.0
 11
493.379644158545
 21
533.8019280890502
 31
0.0
  0
LINE
  5
1534
330
1206
100
AcDbEntity
  8
1外形線
100
AcDbLine
 10
493.379644158545
 20
536.3019280890499
 30
0.0
 11
548.8085763466795
 21
536.3019280890499
 31
0.0
  0
LINE
  5
153B
330
1206
100
AcDbEntity
  8
1外形線
100
AcDbLine
 10
478.8085763466795
 20
421.8634415658702
 30
0.0
 11
546.3085763466795
 21
421.8634415658702
 31
0.0
  0
LINE
  5
153C
330
1206
100
AcDbEntity
  8
1外形線
100
AcDbLine
 10
479.8085763466795
 20
418.8634415658703
 30
0.0
 11
548.8085763466795
 21
418.8634415658702
 31
0.0
  0
LINE
  5
153F
330
1206
100
AcDbEntity
  8
1外形線
100
AcDbLine
 10
490.2730424407463
 20
466.3019280890499
 30
0.0
 11
490.2730424407462
 21
418.8634415658702
 31
0.0
  0
LINE
  5
1540
330
1206
100
AcDbEntity
  8
1外形線
100
AcDbLine
 10
478.8085763466795
 20
467.8558925140361
 30
0.0
 11
478.8085763466794
 21
421.8634415658702
 31
0.0
  0
LINE
  5
1549
330
1206
100
AcDbEntity
  8
1外形線
100
AcDbLine
 10
479.8085763466795
 20
418.8634415658703
 30
0.0
 11
478.8085763466795
 21
421.8634415658702
 31
0.0
  0
LINE
  5
154A
330
1206
100
AcDbEntity
  8
1外形線
100
AcDbLine
 10
548.8085763466795
 20
418.8634415658702
 30
0.0
 11
548.8085763466795
 21
496.3019280890498
 31
0.0
  0
LINE
  5
1567
330
1206
100
AcDbEntity
  8
1外形線
100
AcDbLine
 10
546.3085763466795
 20
486.463165844665
 30
0.0
 11
546.3085763466795
 21
533.8019280890497
 31
0.0
  0
LINE
  5
1568
330
1206
100
AcDbEntity
  8
1外形線
100
AcDbLine
 10
469.8085763466795
 20
378.8634415658703
 30
0.0
 11
547.8085763466793
 21
378.8634415658703
 31
0.0
  0
LINE
  5
1569
330
1206
100
AcDbEntity
  8
1外形線
100
AcDbLine
 10
548.8085763466795
 20
418.8634415658702
 30
0.0
 11
548.8085763466795
 21
381.8634415658703
 31
0.0
  0
LINE
  5
156B
330
1206
100
AcDbEntity
  8
1外形線
100
AcDbLine
 10
469.1477828401099
 20
398.8634415658703
 30
0.0
 11
548.8085763466795
 21
398.8634415658702
 31
0.0
  0
LINE
  5
156C
330
1206
100
AcDbEntity
  8
1外形線
100
AcDbLine
 10
479.8085763466795
 20
418.8634415658703
 30
0.0
 11
478.8085763466795
 21
415.8634415658703
 31
0.0
  0
LINE
  5
156D
330
1206
100
AcDbEntity
  8
1外形線
100
AcDbLine
 10
478.8085763466795
 20
415.8634415658703
 30
0.0
 11
548.8085763466795
 21
415.8634415658703
 31
0.0
  0
LINE
  5
156E
330
1206
100
AcDbEntity
  8
1外形線
100
AcDbLine
 10
469.9674699486926
 20
400.2541138882861
 30
0.0
 11
478.8085763466795
 21
410.8634415658703
 31
0.0
  0
LINE
  5
156F
330
1206
100
AcDbEntity
  8
1外形線
100
AcDbLine
 10
478.8085763466795
 20
415.8634415658703
 30
0.0
 11
478.8085763466795
 21
410.8634415658703
 31
0.0
  0
LINE
  5
1570
330
1206
100
AcDbEntity
  8
1外形線
100
AcDbLine
 10
468.8085763466793
 20
397.0531918899636
 30
0.0
 11
468.8085763466793
 21
381.8634415658703
 31
0.0
  0
ARC
  5
1571
330
1206
100
AcDbEntity
  8
1外形線
100
AcDbCircle
 10
473.8085763466795
 20
397.0531918899636
 30
0.0
 40
5.0
100
AcDbArc
 50
140.1944289077347
 51
180.0
  0
LINE
  5
1572
330
1206
100
AcDbEntity
  8
1外形線
100
AcDbLine
 10
468.8085763466793
 20
381.8634415658703
 30
0.0
 11
548.8085763466795
 21
381.8634415658702
 31
0.0
  0
LINE
  5
1573
330
1206
100
AcDbEntity
  8
1外形線
100
AcDbLine
 10
480.2730424407472
 20
398.8634415658703
 30
0.0
 11
480.2730424407472
 21
378.8634415658703
 31
0.0
  0
LINE
  5
1574
330
1206
100
AcDbEntity
  8
1外形線
100
AcDbLine
 10
537.3441102526117
 20
398.8634415658703
 30
0.0
 11
537.3441102526117
 21
378.8634415658703
 31
0.0
  0
LINE
  5
1575
330
1206
100
AcDbEntity
  8
1外形線
100
AcDbLine
 10
537.3441102526117
 20
398.8634415658703
 30
0.0
 11
548.8085763466795
 21
410.8634415658703
 31
0.0
  0
LINE
  5
1578
330
1206
100
AcDbEntity
  8
1外形線
100
AcDbLine
 10
490.2730424407462
 20
418.8634415658703
 30
0.0
 11
490.2730424407462
 21
410.8634415658703
 31
0.0
  0
LINE
  5
1579
330
1206
100
AcDbEntity
  8
1外形線
100
AcDbLine
 10
480.2730424407472
 20
398.8634415658703
 30
0.0
 11
490.2730424407462
 21
410.8634415658703
 31
0.0
  0
LINE
  5
157B
330
1206
100
AcDbEntity
  8
1外形線
100
AcDbLine
 10
468.8085763466793
 20
381.8634415658703
 30
0.0
 11
469.8085763466795
 21
378.8634415658703
 31
0.0
  0
LINE
  5
157D
330
1206
100
AcDbEntity
  8
1外形線
100
AcDbLine
 10
547.8085763466793
 20
378.8634415658703
 30
0.0
 11
548.8085763466795
 21
381.8634415658703
 31
0.0
  0
LINE
  5
157E
330
1206
100
AcDbEntity
  8
1外形線
100
AcDbLine
 10
117.8192105379207
 20
418.8634415658702
 30
0.0
 11
117.8192105379207
 21
378.8634415658703
 31
0.0
  0
LINE
  5
157F
330
1206
100
AcDbEntity
  8
1外形線
100
AcDbLine
 10
197.4800040444902
 20
398.8634415658703
 30
0.0
 11
176.3547444438538
 21
410.8634415658703
 31
0.0
  0
LINE
  5
1581
330
1206
100
AcDbEntity
  8
1外形線
100
AcDbLine
 10
196.6603169359076
 20
400.2541138882861
 30
0.0
 11
187.8192105379206
 21
410.8634415658703
 31
0.0
  0
LINE
  5
1582
330
1206
100
AcDbEntity
  8
1外形線
100
AcDbLine
 10
196.8192105379207
 20
378.8634415658703
 30
0.0
 11
117.8192105379207
 21
378.8634415658703
 31
0.0
  0
LINE
  5
1583
330
1206
100
AcDbEntity
  8
1外形線
100
AcDbLine
 10
197.8192105379207
 20
381.8634415658703
 30
0.0
 11
117.8192105379207
 21
381.8634415658702
 31
0.0
  0
LINE
  5
1585
330
1206
100
AcDbEntity
  8
1外形線
100
AcDbLine
 10
197.8192105379207
 20
381.8634415658703
 30
0.0
 11
196.8192105379207
 21
378.8634415658703
 31
0.0
  0
LINE
  5
1586
330
1206
100
AcDbEntity
  8
1外形線
100
AcDbLine
 10
197.8192105379207
 20
397.0531918899636
 30
0.0
 11
197.8192105379207
 21
381.8634415658703
 31
0.0
  0
ARC
  5
1587
330
1206
100
AcDbEntity
  8
1外形線
100
AcDbCircle
 10
192.8192105379206
 20
397.0531918899636
 30
0.0
 40
5.0
100
AcDbArc
 50
0.000000000000007
 51
39.80557109226526
  0
LINE
  5
158B
330
1206
100
AcDbEntity
  8
1外形線
100
AcDbLine
 10
187.8192105379206
 20
415.8634415658703
 30
0.0
 11
117.8192105379207
 21
415.8634415658703
 31
0.0
  0
LINE
  5
158C
330
1206
100
AcDbEntity
  8
1外形線
100
AcDbLine
 10
186.8192105379207
 20
418.8634415658703
 30
0.0
 11
117.8192105379207
 21
418.8634415658702
 31
0.0
  0
LINE
  5
158D
330
1206
100
AcDbEntity
  8
1外形線
100
AcDbLine
 10
187.8192105379206
 20
421.8634415658702
 30
0.0
 11
120.3192105379207
 21
421.8634415658702
 31
0.0
  0
LINE
  5
1591
330
1206
100
AcDbEntity
  8
1外形線
100
AcDbLine
 10
197.8192105379207
 20
536.3019280890499
 30
0.0
 11
117.8192105379207
 21
536.3019280890499
 31
0.0
  0
LINE
  5
1595
330
1206
100
AcDbEntity
  8
1外形線
100
AcDbLine
 10
197.8192105379207
 20
480.8729959009155
 30
0.0
 11
197.8192105379207
 21
536.3019280890499
 31
0.0
  0
LINE
  5
1596
330
1206
100
AcDbEntity
  8
1外形線
100
AcDbLine
 10
176.3547444438536
 20
535.6282759974833
 30
0.0
 11
176.3547444438538
 21
418.8634415658702
 31
0.0
  0
LINE
  5
1597
330
1206
100
AcDbEntity
  8
1外形線
100
AcDbLine
 10
187.8192105379206
 20
521.7308602771845
 30
0.0
 11
187.8192105379206
 21
421.8634415658702
 31
0.0
  0
LINE
  5
1598
330
1206
100
AcDbEntity
  8
1外形線
100
AcDbLine
 10
176.3547444438538
 20
418.8634415658703
 30
0.0
 11
176.3547444438538
 21
410.8634415658703
 31
0.0
  0
LINE
  5
1599
330
1206
100
AcDbEntity
  8
1外形線
100
AcDbLine
 10
187.8192105379206
 20
415.8634415658703
 30
0.0
 11
187.8192105379206
 21
410.8634415658703
 31
0.0
  0
LINE
  5
159A
330
1206
100
AcDbEntity
  8
1外形線
100
AcDbLine
 10
186.8192105379207
 20
418.8634415658703
 30
0.0
 11
187.8192105379206
 21
421.8634415658702
 31
0.0
  0
LINE
  5
159B
330
1206
100
AcDbEntity
  8
1外形線
100
AcDbLine
 10
186.8192105379207
 20
418.8634415658703
 30
0.0
 11
187.8192105379206
 21
415.8634415658703
 31
0.0
  0
LINE
  5
159C
330
1206
100
AcDbEntity
  8
1外形線
100
AcDbLine
 10
195.6225113968199
 20
475.5696950420163
 30
0.0
 11
188.551443584954
 21
468.4986272301507
 31
0.0
  0
ARC
  5
159E
330
1206
100
AcDbEntity
  8
1外形線
100
AcDbCircle
 10
190.3192105379206
 20
480.8729959009155
 30
0.0
 40
7.500000000000013
100
AcDbArc
 50
314.9999999999997
 51
0.000000000000007
  0
ARC
  5
15A1
330
1206
100
AcDbEntity
  8
1外形線
100
AcDbCircle
 10
183.2481427260554
 20
473.8019280890498
 30
0.0
 40
7.500000000000013
100
AcDbArc
 50
307.5516029057898
 51
314.9999999999997
  0
LINE
  5
15A6
330
1206
100
AcDbEntity
  8
1外形線
100
AcDbLine
 10
120.3192105379207
 20
418.8634415658702
 30
0.0
 11
120.3192105379207
 21
536.3019280890499
 31
0.0
  0
LINE
  5
15A7
330
1206
100
AcDbEntity
  8
1外形線
100
AcDbLine
 10
117.8192105379207
 20
418.8634415658702
 30
0.0
 11
117.8192105379207
 21
536.3019280890499
 31
0.0
  0
ARC
  5
15CD
330
1206
100
AcDbEntity
  8
1外形線
100
AcDbCircle
 10
173.2481427260552
 20
528.8019280890499
 30
0.0
 40
7.500000000000013
100
AcDbArc
 50
44.99999999999976
 51
90.0
  0
LINE
  5
15CE
330
1206
100
AcDbEntity
  8
1外形線
100
AcDbLine
 10
178.5514435849544
 20
534.1052289479491
 30
0.0
 11
185.6225113968197
 21
527.0341611360834
 31
0.0
  0
ARC
  5
15CF
330
1206
100
AcDbEntity
  8
1外形線
100
AcDbCircle
 10
180.3192105379206
 20
521.7308602771845
 30
0.0
 40
7.500000000000013
100
AcDbArc
 50
0.0
 51
44.99999999999976
  0
LINE
  5
15D0
330
1206
100
AcDbEntity
  8
1外形線
100
AcDbLine
 10
187.8192105379206
 20
524.8374619949824
 30
0.0
 11
197.8192105379207
 21
536.3019280890499
 31
0.0
  0
LINE
  5
15D2
330
1206
100
AcDbEntity
  8
1外形線
100
AcDbLine
 10
62.21806336894906
 20
598.9072455099415
 30
0.0
 11
596.7972810716369
 21
598.9072455099415
 31
0.0
  0
LINE
  5
15D3
330
1206
100
AcDbEntity
  8
1外形線
100
AcDbLine
 10
62.21806336894906
 20
347.1492689618609
 30
0.0
 11
596.7972810716369
 21
347.1492689618609
 31
0.0
  0
LINE
  5
15D4
330
1206
100
AcDbEntity
  8
1外形線
100
AcDbLine
 10
596.7972810716369
 20
598.9072455099415
 30
0.0
 11
596.7972810716369
 21
68.30771446085122
 31
0.0
  0
LINE
  5
15D5
330
1206
100
AcDbEntity
  8
1外形線
100
AcDbLine
 10
62.21806336894906
 20
598.9072455099415
 30
0.0
 11
62.21806336894906
 21
68.30771446085122
 31
0.0
  0
LINE
  5
1645
330
1206
100
AcDbEntity
  8
1外形線
100
AcDbLine
 10
378.8397242120161
 20
269.3226754761332
 30
0.0
 11
262.8397242120161
 21
269.3226754761332
 31
0.0
  0
LINE
  5
1646
330
1206
100
AcDbEntity
  8
1外形線
100
AcDbLine
 10
381.8397242120161
 20
252.8582093820658
 30
0.0
 11
279.3041903060834
 21
252.8582093820658
 31
0.0
  0
LINE
  5
1647
330
1206
100
AcDbEntity
  8
1外形線
100
AcDbLine
 10
346.8397242120158
 20
145.3226754761331
 30
0.0
 11
258.8397242120161
 21
145.3226754761331
 31
0.0
  0
LINE
  5
1648
330
1206
100
AcDbEntity
  8
1外形線
100
AcDbLine
 10
347.839724212016
 20
148.3226754761331
 30
0.0
 11
257.8397242120161
 21
148.3226754761331
 31
0.0
  0
LINE
  5
1649
330
1206
100
AcDbEntity
  8
1外形線
100
AcDbLine
 10
257.8397242120161
 20
264.3226754761332
 30
0.0
 11
257.8397242120161
 21
148.3226754761331
 31
0.0
  0
LINE
  5
164A
330
1206
100
AcDbEntity
  8
1外形線
100
AcDbLine
 10
274.3041903060833
 20
145.3226754761331
 30
0.0
 11
274.3041903060833
 21
247.8582093820659
 31
0.0
  0
LINE
  5
164B
330
1206
100
AcDbEntity
  8
1外形線
100
AcDbLine
 10
258.8397242120161
 20
145.3226754761331
 30
0.0
 11
257.8397242120161
 21
148.3226754761331
 31
0.0
  0
ARC
  5
164C
330
1206
100
AcDbEntity
  8
1外形線
100
AcDbCircle
 10
262.8397242120161
 20
264.3226754761332
 30
0.0
 40
5.0
100
AcDbArc
 50
90.0
 51
180.0
  0
ARC
  5
164D
330
1206
100
AcDbEntity
  8
1外形線
100
AcDbCircle
 10
279.3041903060834
 20
247.8582093820659
 30
0.0
 40
5.0
100
AcDbArc
 50
90.0
 51
180.0
  0
LINE
  5
164E
330
1206
100
AcDbEntity
  8
1外形線
100
AcDbLine
 10
484.4196051112752
 20
197.322675476133
 30
0.0
 11
509.8485372994099
 21
197.322675476133
 31
0.0
  0
LINE
  5
164F
330
1206
100
AcDbEntity
  8
1外形線
100
AcDbLine
 10
484.4196051112752
 20
199.8226754761331
 30
0.0
 11
509.8485372994099
 21
199.8226754761331
 31
0.0
  0
LINE
  5
1650
330
1206
100
AcDbEntity
  8
1外形線
100
AcDbLine
 10
554.84853729941
 20
272.3226754761333
 30
0.0
 11
464.8485372994099
 21
272.3226754761332
 31
0.0
  0
LINE
  5
1651
330
1206
100
AcDbEntity
  8
1外形線
100
AcDbLine
 10
552.3485372994098
 20
269.8226754761332
 30
0.0
 11
467.3485372994099
 21
269.8226754761332
 31
0.0
  0
LINE
  5
1652
330
1206
100
AcDbEntity
  8
1外形線
100
AcDbLine
 10
381.8397242120161
 20
268.3226754761331
 30
0.0
 11
381.8397242120161
 21
180.3226754761332
 31
0.0
  0
LINE
  5
1653
330
1206
100
AcDbEntity
  8
1外形線
100
AcDbLine
 10
378.8397242120161
 20
269.3226754761332
 30
0.0
 11
378.8397242120161
 21
179.3226754761333
 31
0.0
  0
LINE
  5
1654
330
1206
100
AcDbEntity
  8
1外形線
100
AcDbLine
 10
554.8485372994099
 20
145.3226754761331
 30
0.0
 11
554.84853729941
 21
272.3226754761333
 31
0.0
  0
LINE
  5
1655
330
1206
100
AcDbEntity
  8
1外形線
100
AcDbLine
 10
552.3485372994098
 20
269.8226754761332
 30
0.0
 11
552.3485372994098
 21
216.8937432879985
 31
0.0
  0
LINE
  5
1658
330
1206
100
AcDbEntity
  8
1外形線
100
AcDbLine
 10
381.8397242120161
 20
195.7871415702005
 30
0.0
 11
352.0909868704869
 21
195.7871415702005
 31
0.0
  0
LINE
  5
1659
330
1206
100
AcDbEntity
  8
1外形線
100
AcDbLine
 10
378.8397242120161
 20
179.3226754761333
 30
0.0
 11
356.8397242120161
 21
179.3226754761333
 31
0.0
  0
LINE
  5
165A
330
1206
100
AcDbEntity
  8
1外形線
100
AcDbLine
 10
332.8397242120158
 20
178.6069467235948
 30
0.0
 11
348.5554529645542
 21
194.3226754761333
 31
0.0
  0
LINE
  5
165B
330
1206
100
AcDbEntity
  8
1外形線
100
AcDbLine
 10
331.3752581179487
 20
145.3226754761331
 30
0.0
 11
331.3752581179487
 21
175.0714128176622
 31
0.0
  0
ARC
  5
165C
330
1206
100
AcDbEntity
  8
1外形線
100
AcDbCircle
 10
336.3752581179487
 20
175.0714128176622
 30
0.0
 40
5.0
100
AcDbArc
 50
135.0
 51
180.0
  0
LINE
  5
165D
330
1206
100
AcDbEntity
  8
1外形線
100
AcDbLine
 10
347.839724212016
 20
148.3226754761331
 30
0.0
 11
347.839724212016
 21
170.3226754761331
 31
0.0
  0
LINE
  5
165E
330
1206
100
AcDbEntity
  8
1外形線
100
AcDbLine
 10
346.8397242120158
 20
145.3226754761331
 30
0.0
 11
347.839724212016
 21
148.3226754761331
 31
0.0
  0
LINE
  5
165F
330
1206
100
AcDbEntity
  8
1外形線
100
AcDbLine
 10
347.839724212016
 20
170.3226754761331
 30
0.0
 11
356.8397242120161
 21
179.3226754761333
 31
0.0
  0
ARC
  5
1660
330
1206
100
AcDbEntity
  8
1外形線
100
AcDbCircle
 10
352.0909868704869
 20
190.7871415702006
 30
0.0
 40
5.0
100
AcDbArc
 50
90.0
 51
135.0
  0
LINE
  5
1661
330
1206
100
AcDbEntity
  8
1外形線
100
AcDbLine
 10
552.6518381583091
 20
211.5904424290993
 30
0.0
 11
540.5807703464435
 21
199.519374617234
 31
0.0
  0
ARC
  5
1662
330
1206
100
AcDbEntity
  8
1外形線
100
AcDbCircle
 10
547.3485372994097
 20
216.8937432879985
 30
0.0
 40
5.0
100
AcDbArc
 50
315.0
 51
0.0
  0
LINE
  5
1664
330
1206
100
AcDbEntity
  8
1外形線
100
AcDbLine
 10
378.8397242120161
 20
179.3226754761333
 30
0.0
 11
381.8397242120161
 21
180.3226754761332
 31
0.0
  0
ARC
  5
1667
330
1206
100
AcDbEntity
  8
1外形線
100
AcDbCircle
 10
547.3485372994097
 20
216.8937432879985
 30
0.0
 40
7.500000000000111
100
AcDbArc
 50
315.0
 51
0.0
  0
LINE
  5
1668
330
1206
100
AcDbEntity
  8
1外形線
100
AcDbLine
 10
535.2774694875446
 20
197.322675476133
 30
0.0
 11
509.8485372994099
 21
197.322675476133
 31
0.0
  0
LINE
  5
1669
330
1206
100
AcDbEntity
  8
1外形線
100
AcDbLine
 10
535.2774694875446
 20
199.8226754761331
 30
0.0
 11
509.8485372994099
 21
199.8226754761331
 31
0.0
  0
LINE
  5
166A
330
1206
100
AcDbEntity
  8
1外形線
100
AcDbLine
 10
550.8840712053427
 20
213.3582093820658
 30
0.0
 11
538.813003393477
 21
201.2871415702004
 31
0.0
  0
ARC
  5
166B
330
1206
100
AcDbEntity
  8
1外形線
100
AcDbCircle
 10
535.2774694875446
 20
204.822675476133
 30
0.0
 40
7.500000000000111
100
AcDbArc
 50
270.0
 51
315.0
  0
ARC
  5
166C
330
1206
100
AcDbEntity
  8
1外形線
100
AcDbCircle
 10
535.2774694875446
 20
204.822675476133
 30
0.0
 40
5.0
100
AcDbArc
 50
270.0
 51
315.0
  0
LINE
  5
166D
330
1206
100
AcDbEntity
  8
1外形線
100
AcDbLine
 10
464.8485372994099
 20
216.8937432879985
 30
0.0
 11
464.8485372994099
 21
272.3226754761332
 31
0.0
  0
LINE
  5
166E
330
1206
100
AcDbEntity
  8
1外形線
100
AcDbLine
 10
467.3485372994099
 20
269.8226754761332
 30
0.0
 11
467.3485372994099
 21
216.8937432879987
 31
0.0
  0
LINE
  5
166F
330
1206
100
AcDbEntity
  8
1外形線
100
AcDbLine
 10
378.8397242120161
 20
269.3226754761332
 30
0.0
 11
381.8397242120161
 21
268.3226754761331
 31
0.0
  0
ARC
  5
1670
330
1206
100
AcDbEntity
  8
1外形線
100
AcDbCircle
 10
484.4196051112752
 20
204.822675476133
 30
0.0
 40
7.500000000000111
100
AcDbArc
 50
225.0
 51
270.0
  0
ARC
  5
1671
330
1206
100
AcDbEntity
  8
1外形線
100
AcDbCircle
 10
484.4196051112752
 20
204.822675476133
 30
0.0
 40
5.0
100
AcDbArc
 50
225.0
 51
270.0
  0
ARC
  5
1672
330
1206
100
AcDbEntity
  8
1外形線
100
AcDbCircle
 10
472.3485372994099
 20
216.8937432879985
 30
0.0
 40
7.500000000000111
100
AcDbArc
 50
180.0
 51
225.0
  0
ARC
  5
1673
330
1206
100
AcDbEntity
  8
1外形線
100
AcDbCircle
 10
472.3485372994099
 20
216.8937432879985
 30
0.0
 40
5.0
100
AcDbArc
 50
180.0
 51
225.0
  0
LINE
  5
1674
330
1206
100
AcDbEntity
  8
1外形線
100
AcDbLine
 10
468.8130033934771
 20
213.3582093820658
 30
0.0
 11
480.8840712053428
 21
201.2871415702004
 31
0.0
  0
LINE
  5
1675
330
1206
100
AcDbEntity
  8
1外形線
100
AcDbLine
 10
467.0452364405107
 20
211.5904424290993
 30
0.0
 11
479.1163042523764
 21
199.519374617234
 31
0.0
  0
LINE
  5
1691
330
1206
100
AcDbEntity
  8
1外形線
100
AcDbLine
 10
426.8397242120161
 20
272.3226754761332
 30
0.0
 11
426.8397242120161
 21
198.322675476133
 31
0.0
  0
LINE
  5
1692
330
1206
100
AcDbEntity
  8
1外形線
100
AcDbLine
 10
426.8397242120161
 20
272.3226754761332
 30
0.0
 11
384.8397242120161
 21
272.3226754761332
 31
0.0
  0
LINE
  5
1693
330
1206
100
AcDbEntity
  8
1外形線
100
AcDbLine
 10
384.8397242120161
 20
272.3226754761332
 30
0.0
 11
384.8397242120161
 21
179.3226754761331
 31
0.0
  0
LINE
  5
1694
330
1206
100
AcDbEntity
  8
1外形線
100
AcDbLine
 10
381.8397242120161
 20
268.3226754761331
 30
0.0
 11
384.8397242120161
 21
272.3226754761332
 31
0.0
  0
LINE
  5
1695
330
1206
100
AcDbEntity
  8
1外形線
100
AcDbLine
 10
406.8397242120161
 20
272.3226754761332
 30
0.0
 11
406.8397242120161
 21
196.8343240775752
 31
0.0
  0
LINE
  5
1697
330
1206
100
AcDbEntity
  8
1外形線
100
AcDbLine
 10
423.8397242120162
 20
197.322675476133
 30
0.0
 11
408.994956658205
 21
197.322675476133
 31
0.0
  0
LINE
  5
1698
330
1206
100
AcDbEntity
  8
1外形線
100
AcDbLine
 10
384.8397242120161
 20
179.3226754761331
 30
0.0
 11
381.8397242120161
 21
180.3226754761332
 31
0.0
  0
LINE
  5
169A
330
1206
100
AcDbEntity
  8
1外形線
100
AcDbLine
 10
384.8397242120161
 20
179.3226754761331
 30
0.0
 11
389.8397242120161
 21
179.3226754761331
 31
0.0
  0
LINE
  5
169B
330
1206
100
AcDbEntity
  8
1外形線
100
AcDbLine
 10
389.8397242120161
 20
179.3226754761331
 30
0.0
 11
405.3598908954558
 21
195.7557931409516
 31
0.0
  0
ARC
  5
169C
330
1206
100
AcDbEntity
  8
1外形線
100
AcDbCircle
 10
408.994956658205
 20
192.322675476133
 30
0.0
 40
5.0
100
AcDbArc
 50
90.0
 51
136.6365770416164
  0
LINE
  5
169D
330
1206
100
AcDbEntity
  8
1外形線
100
AcDbLine
 10
426.8397242120162
 20
213.7871415702
 30
0.0
 11
408.994956658205
 21
213.7871415702
 31
0.0
  0
LINE
  5
169F
330
1206
100
AcDbEntity
  8
1外形線
100
AcDbLine
 10
381.8397242120161
 20
195.7871415702005
 30
0.0
 11
389.8397242120162
 21
195.7871415702005
 31
0.0
  0
LINE
  5
16A0
330
1206
100
AcDbEntity
  8
1外形線
100
AcDbLine
 10
389.8397242120162
 20
195.7871415702005
 30
0.0
 11
405.3598908954558
 21
212.2202592350186
 31
0.0
  0
ARC
  5
16A1
330
1206
100
AcDbEntity
  8
1外形線
100
AcDbCircle
 10
408.9949566582047
 20
208.7871415701998
 30
0.0
 40
5.0
100
AcDbArc
 50
89.99999999999806
 51
136.6365770416137
  0
LINE
  5
16A3
330
1206
100
AcDbEntity
  8
1外形線
100
AcDbLine
 10
381.8397242120161
 20
252.8582093820658
 30
0.0
 11
389.8397242120161
 21
252.8582093820658
 31
0.0
  0
LINE
  5
16A4
330
1206
100
AcDbEntity
  8
1外形線
100
AcDbLine
 10
389.8397242120161
 20
252.8582093820658
 30
0.0
 11
406.8397242120161
 21
272.3226754761332
 31
0.0
  0
LINE
  5
16A5
330
1206
100
AcDbEntity
  8
1外形線
100
AcDbLine
 10
423.8397242120162
 20
272.3226754761332
 30
0.0
 11
423.8397242120162
 21
197.322675476133
 31
0.0
  0
LINE
  5
16A7
330
1206
100
AcDbEntity
  8
1外形線
100
AcDbLine
 10
423.8397242120162
 20
197.322675476133
 30
0.0
 11
426.8397242120161
 21
198.322675476133
 31
0.0
  0
LINE
  5
16A9
330
1206
100
AcDbEntity
  8
1外形線
100
AcDbLine
 10
254.8397242120162
 20
103.3226754761332
 30
0.0
 11
329.8397242120163
 21
103.3226754761332
 31
0.0
  0
LINE
  5
16AA
330
1206
100
AcDbEntity
  8
1外形線
100
AcDbLine
 10
274.3041903060835
 20
137.3226754761331
 30
0.0
 11
254.8397242120162
 21
120.3226754761332
 31
0.0
  0
LINE
  5
16AB
330
1206
100
AcDbEntity
  8
1外形線
100
AcDbLine
 10
254.8397242120162
 20
120.3226754761332
 30
0.0
 11
330.3280756105741
 21
120.3226754761332
 31
0.0
  0
LINE
  5
16AC
330
1206
100
AcDbEntity
  8
1外形線
100
AcDbLine
 10
254.8397242120162
 20
142.3226754761333
 30
0.0
 11
347.8397242120161
 21
142.3226754761332
 31
0.0
  0
LINE
  5
16AD
330
1206
100
AcDbEntity
  8
1外形線
100
AcDbLine
 10
254.8397242120162
 20
100.3226754761332
 30
0.0
 11
328.8397242120162
 21
100.3226754761332
 31
0.0
  0
ARC
  5
16AE
330
1206
100
AcDbEntity
  8
1外形線
100
AcDbCircle
 10
318.3752581179494
 20
118.1674430299444
 30
0.0
 40
5.0
100
AcDbArc
 50
133.3634229583862
 51
180.0000000000019
  0
ARC
  5
16AF
330
1206
100
AcDbEntity
  8
1外形線
100
AcDbCircle
 10
334.8397242120162
 20
118.1674430299443
 30
0.0
 40
5.0
100
AcDbArc
 50
133.3634229583835
 51
180.0
  0
LINE
  5
16B0
330
1206
100
AcDbEntity
  8
1外形線
100
AcDbLine
 10
331.3752581179489
 20
137.3226754761331
 30
0.0
 11
314.9421404531306
 21
121.8025087926934
 31
0.0
  0
LINE
  5
16B1
330
1206
100
AcDbEntity
  8
1外形線
100
AcDbLine
 10
347.8397242120161
 20
137.3226754761331
 30
0.0
 11
331.4066065471976
 21
121.8025087926934
 31
0.0
  0
LINE
  5
16B2
330
1206
100
AcDbEntity
  8
1外形線
100
AcDbLine
 10
347.8397242120161
 20
142.3226754761332
 30
0.0
 11
346.8397242120161
 21
145.3226754761331
 31
0.0
  0
LINE
  5
16B3
330
1206
100
AcDbEntity
  8
1外形線
100
AcDbLine
 10
347.8397242120161
 20
142.3226754761332
 30
0.0
 11
347.8397242120161
 21
137.3226754761331
 31
0.0
  0
LINE
  5
16B4
330
1206
100
AcDbEntity
  8
1外形線
100
AcDbLine
 10
331.3752581179489
 20
145.3226754761331
 30
0.0
 11
331.3752581179489
 21
137.3226754761331
 31
0.0
  0
LINE
  5
16B5
330
1206
100
AcDbEntity
  8
1外形線
100
AcDbLine
 10
274.3041903060833
 20
145.3226754761333
 30
0.0
 11
274.3041903060835
 21
137.3226754761331
 31
0.0
  0
LINE
  5
16B6
330
1206
100
AcDbEntity
  8
1外形線
100
AcDbLine
 10
329.8397242120163
 20
103.3226754761332
 30
0.0
 11
329.8397242120163
 21
118.1674430299443
 31
0.0
  0
LINE
  5
16B7
330
1206
100
AcDbEntity
  8
1外形線
100
AcDbLine
 10
329.8397242120163
 20
103.3226754761332
 30
0.0
 11
328.8397242120162
 21
100.3226754761332
 31
0.0
  0
LINE
  5
16B8
330
1206
100
AcDbEntity
  8
1外形線
100
AcDbLine
 10
313.3752581179492
 20
100.3226754761332
 30
0.0
 11
313.3752581179492
 21
118.1674430299443
 31
0.0
  0
LINE
  5
16B9
330
1206
100
AcDbEntity
  8
1外形線
100
AcDbLine
 10
254.8397242120162
 20
100.3226754761332
 30
0.0
 11
254.8397242120162
 21
142.3226754761333
 31
0.0
  0
LINE
  5
16BA
330
1206
100
AcDbEntity
  8
1外形線
100
AcDbLine
 10
258.8397242120161
 20
145.3226754761333
 30
0.0
 11
254.8397242120162
 21
142.3226754761333
 31
0.0
  0
LINE
  5
16BB
330
1206
100
AcDbEntity
  8
1外形線
100
AcDbLine
 10
496.3130033934771
 20
197.322675476133
 30
0.0
 11
496.3130033934771
 21
145.3226754761331
 31
0.0
  0
LINE
  5
16BC
330
1206
100
AcDbEntity
  8
1外形線
100
AcDbLine
 10
479.8485372994099
 20
198.8937432879985
 30
0.0
 11
479.8485372994099
 21
148.3226754761331
 31
0.0
  0
LINE
  5
16BD
330
1206
100
AcDbEntity
  8
1外形線
100
AcDbLine
 10
479.8485372994099
 20
148.3226754761331
 30
0.0
 11
554.8485372994099
 21
148.322675476133
 31
0.0
  0
LINE
  5
16BE
330
1206
100
AcDbEntity
  8
1外形線
100
AcDbLine
 10
480.8485372994098
 20
145.3226754761331
 30
0.0
 11
554.8485372994099
 21
145.3226754761331
 31
0.0
  0
LINE
  5
16BF
330
1206
100
AcDbEntity
  8
1外形線
100
AcDbLine
 10
479.8485372994099
 20
148.3226754761331
 30
0.0
 11
480.8485372994098
 21
145.3226754761331
 31
0.0
  0
LINE
  5
16C3
330
1206
100
AcDbEntity
  8
1外形線
100
AcDbLine
 10
465.8485372994099
 20
100.3226754761332
 30
0.0
 11
554.8485372994099
 21
100.3226754761332
 31
0.0
  0
LINE
  5
16C4
330
1206
100
AcDbEntity
  8
1外形線
100
AcDbLine
 10
554.8485372994099
 20
145.3226754761331
 30
0.0
 11
554.8485372994099
 21
100.3226754761332
 31
0.0
  0
LINE
  5
16C5
330
1206
100
AcDbEntity
  8
1外形線
100
AcDbLine
 10
465.2197227725658
 20
120.3226754761332
 30
0.0
 11
554.8485372994099
 21
120.3226754761332
 31
0.0
  0
LINE
  5
16C6
330
1206
100
AcDbEntity
  8
1外形線
100
AcDbLine
 10
464.8485372994099
 20
118.4321527769635
 30
0.0
 11
464.8485372994098
 21
103.3226754761332
 31
0.0
  0
LINE
  5
16C7
330
1206
100
AcDbEntity
  8
1外形線
100
AcDbLine
 10
464.8485372994099
 20
103.3226754761332
 30
0.0
 11
554.8485372994099
 21
103.3226754761332
 31
0.0
  0
LINE
  5
16C9
330
1206
100
AcDbEntity
  8
1外形線
100
AcDbLine
 10
465.8485372994099
 20
100.3226754761332
 30
0.0
 11
464.8485372994098
 21
103.3226754761332
 31
0.0
  0
LINE
  5
16CA
330
1206
100
AcDbEntity
  8
1外形線
100
AcDbLine
 10
479.8485372994099
 20
142.3226754761332
 30
0.0
 11
554.8485372994099
 21
142.3226754761332
 31
0.0
  0
LINE
  5
16CB
330
1206
100
AcDbEntity
  8
1外形線
100
AcDbLine
 10
479.8485372994099
 20
142.3226754761332
 30
0.0
 11
480.8485372994098
 21
145.3226754761331
 31
0.0
  0
LINE
  5
16CD
330
1206
100
AcDbEntity
  8
1外形線
100
AcDbLine
 10
479.8485372994099
 20
142.3226754761332
 30
0.0
 11
479.8485372994099
 21
137.3226754761331
 31
0.0
  0
LINE
  5
16CE
330
1206
100
AcDbEntity
  8
1外形線
100
AcDbLine
 10
479.8485372994099
 20
137.3226754761331
 30
0.0
 11
466.0993480225845
 21
121.7402609623977
 31
0.0
  0
ARC
  5
16CF
330
1206
100
AcDbEntity
  8
1外形線
100
AcDbCircle
 10
469.8485372994099
 20
118.4321527769635
 30
0.0
 40
5.0
100
AcDbArc
 50
138.5763343749974
 51
179.9999999999998
  0
LINE
  5
16D0
330
1206
100
AcDbEntity
  8
1外形線
100
AcDbLine
 10
481.3130033934773
 20
100.3226754761332
 30
0.0
 11
481.3130033934773
 21
118.4321527769635
 31
0.0
  0
LINE
  5
16D1
330
1206
100
AcDbEntity
  8
1外形線
100
AcDbLine
 10
496.3130033934771
 20
145.3226754761331
 30
0.0
 11
496.3130033934771
 21
137.3226754761331
 31
0.0
  0
LINE
  5
16D4
330
1206
100
AcDbEntity
  8
1外形線
100
AcDbLine
 10
482.5638141166518
 20
121.7402609623977
 30
0.0
 11
496.3130033934771
 21
137.3226754761331
 31
0.0
  0
ARC
  5
16D5
330
1206
100
AcDbEntity
  8
1外形線
100
AcDbCircle
 10
486.3130033934773
 20
118.4321527769635
 30
0.0
 40
5.0
100
AcDbArc
 50
138.5763343749973
 51
180.0
  0
LINE
  5
16D6
330
1206
100
AcDbEntity
  8
1外形線
100
AcDbLine
 10
538.3840712053427
 20
100.3226754761332
 30
0.0
 11
538.3840712053427
 21
118.2983217288738
 31
0.0
  0
LINE
  5
16D7
330
1206
100
AcDbEntity
  8
1外形線
100
AcDbLine
 10
539.7924178113367
 20
121.7768308775358
 30
0.0
 11
554.8485372994099
 21
137.3226754761331
 31
0.0
  0
ARC
  5
16D8
330
1206
100
AcDbEntity
  8
1外形線
100
AcDbCircle
 10
543.3840712053426
 20
118.2983217288738
 30
0.0
 40
5.0
100
AcDbArc
 50
135.9168296173162
 51
180.0
  0
LINE
  5
16D9
330
1206
100
AcDbEntity
  8
1外形線
100
AcDbLine
 10
192.0943392542067
 20
252.751607664268
 30
0.0
 11
192.0943392542067
 21
148.3226754761331
 31
0.0
  0
LINE
  5
16DA
330
1206
100
AcDbEntity
  8
1外形線
100
AcDbLine
 10
117.0943392542067
 20
145.3226754761331
 30
0.0
 11
117.0943392542066
 21
272.3226754761333
 31
0.0
  0
LINE
  5
16DB
330
1206
100
AcDbEntity
  8
1外形線
100
AcDbLine
 10
175.6298731601399
 20
271.6490233845665
 30
0.0
 11
175.6298731601394
 21
145.3226754761331
 31
0.0
  0
LINE
  5
16DC
330
1206
100
AcDbEntity
  8
1外形線
100
AcDbLine
 10
192.0943392542069
 20
137.3226754761331
 30
0.0
 11
205.8435285310321
 21
121.7402609623977
 31
0.0
  0
LINE
  5
16DD
330
1206
100
AcDbEntity
  8
1外形線
100
AcDbLine
 10
206.0943392542066
 20
100.3226754761332
 30
0.0
 11
117.0943392542067
 21
100.3226754761332
 31
0.0
  0
LINE
  5
16DF
330
1206
100
AcDbEntity
  8
1外形線
100
AcDbLine
 10
207.0943392542067
 20
103.3226754761332
 30
0.0
 11
117.0943392542067
 21
103.3226754761332
 31
0.0
  0
LINE
  5
16E0
330
1206
100
AcDbEntity
  8
1外形線
100
AcDbLine
 10
207.0943392542067
 20
118.4321527769635
 30
0.0
 11
207.0943392542067
 21
103.3226754761332
 31
0.0
  0
LINE
  5
16E1
330
1206
100
AcDbEntity
  8
1外形線
100
AcDbLine
 10
206.0943392542066
 20
100.3226754761332
 30
0.0
 11
207.0943392542067
 21
103.3226754761332
 31
0.0
  0
ARC
  5
16E2
330
1206
100
AcDbEntity
  8
1外形線
100
AcDbCircle
 10
202.0943392542066
 20
118.4321527769635
 30
0.0
 40
5.0
100
AcDbArc
 50
0.0000000000002106
 51
41.42366562500252
  0
LINE
  5
16E4
330
1206
100
AcDbEntity
  8
1外形線
100
AcDbLine
 10
192.0943392542067
 20
148.3226754761331
 30
0.0
 11
119.5943392542067
 21
148.322675476133
 31
0.0
  0
LINE
  5
16E5
330
1206
100
AcDbEntity
  8
1外形線
100
AcDbLine
 10
191.0943392542067
 20
145.3226754761331
 30
0.0
 11
117.0943392542067
 21
145.3226754761331
 31
0.0
  0
LINE
  5
16E6
330
1206
100
AcDbEntity
  8
1外形線
100
AcDbLine
 10
192.0943392542069
 20
142.3226754761332
 30
0.0
 11
117.0943392542067
 21
142.3226754761332
 31
0.0
  0
LINE
  5
16E8
330
1206
100
AcDbEntity
  8
1外形線
100
AcDbLine
 10
175.6298731601394
 20
145.3226754761331
 30
0.0
 11
175.6298731601394
 21
137.3226754761331
 31
0.0
  0
LINE
  5
16E9
330
1206
100
AcDbEntity
  8
1外形線
100
AcDbLine
 10
192.0943392542069
 20
142.3226754761332
 30
0.0
 11
192.0943392542069
 21
137.3226754761331
 31
0.0
  0
LINE
  5
16EA
330
1206
100
AcDbEntity
  8
1外形線
100
AcDbLine
 10
206.7231537810509
 20
120.3226754761332
 30
0.0
 11
175.6298731601394
 21
137.3226754761331
 31
0.0
  0
LINE
  5
16EC
330
1206
100
AcDbEntity
  8
1外形線
100
AcDbLine
 10
192.0943392542067
 20
148.3226754761331
 30
0.0
 11
191.0943392542067
 21
145.3226754761331
 31
0.0
  0
LINE
  5
16ED
330
1206
100
AcDbEntity
  8
1外形線
100
AcDbLine
 10
192.0943392542069
 20
142.3226754761332
 30
0.0
 11
191.0943392542067
 21
145.3226754761331
 31
0.0
  0
LINE
  5
16EE
330
1206
100
AcDbEntity
  8
1外形線
100
AcDbLine
 10
117.0943392542067
 20
145.3226754761331
 30
0.0
 11
117.0943392542067
 21
100.3226754761332
 31
0.0
  0
LINE
  5
16F1
330
1206
100
AcDbEntity
  8
1外形線
100
AcDbLine
 10
117.0943392542066
 20
272.3226754761333
 30
0.0
 11
207.0943392542067
 21
272.3226754761332
 31
0.0
  0
LINE
  5
16F4
330
1206
100
AcDbEntity
  8
1外形線
100
AcDbLine
 10
204.897640113106
 20
211.5904424290993
 30
0.0
 11
192.8265723012403
 21
199.519374617234
 31
0.0
  0
LINE
  5
16F6
330
1206
100
AcDbEntity
  8
1外形線
100
AcDbLine
 10
207.0943392542067
 20
216.8937432879985
 30
0.0
 11
207.0943392542067
 21
272.3226754761332
 31
0.0
  0
ARC
  5
16F7
330
1206
100
AcDbEntity
  8
1外形線
100
AcDbCircle
 10
199.5943392542066
 20
216.8937432879985
 30
0.0
 40
7.500000000000111
100
AcDbArc
 50
315.0
 51
0.000000000000007
  0
LINE
  5
16F9
330
1206
100
AcDbEntity
  8
1外形線
100
AcDbLine
 10
119.5943392542067
 20
272.3226754761333
 30
0.0
 11
119.5943392542067
 21
145.3226754761331
 31
0.0
  0
ARC
  5
16FE
330
1206
100
AcDbEntity
  8
1外形線
100
AcDbCircle
 10
187.5232714423415
 20
204.822675476133
 30
0.0
 40
7.500000000000111
100
AcDbArc
 50
307.5516029057894
 51
315.0
  0
ARC
  5
1721
330
1206
100
AcDbEntity
  8
1外形線
100
AcDbCircle
 10
172.523271442341
 20
264.8226754761333
 30
0.0
 40
7.500000000000111
100
AcDbArc
 50
45.0
 51
90.0
  0
LINE
  5
1722
330
1206
100
AcDbEntity
  8
1外形線
100
AcDbLine
 10
177.8265723012403
 20
270.1259763350325
 30
0.0
 11
189.8976401131058
 21
258.054908523167
 31
0.0
  0
ARC
  5
1723
330
1206
100
AcDbEntity
  8
1外形線
100
AcDbCircle
 10
184.5943392542065
 20
252.751607664268
 30
0.0
 40
7.500000000000111
100
AcDbArc
 50
0.000000000000007
 51
45.0
  0
LINE
  5
1724
330
1206
100
AcDbEntity
  8
1外形線
100
AcDbLine
 10
207.0943392542067
 20
272.3226754761332
 30
0.0
 11
192.0943392542067
 21
255.8582093820659
 31
0.0
  0
TEXT
  5
1725
330
1206
100
AcDbEntity
  8
1外形線
100
AcDbText
 10
89.67616080934419
 20
297.9373507122078
 30
0.0
 40
10.0
  1
MN-85
  7
KANJI
100
AcDbText
  0
LINE
  5
1726
330
1206
100
AcDbEntity
  8
1外形線
100
AcDbLine
 10
62.21806336894906
 20
68.30771446085122
 30
0.0
 11
596.7972810716369
 21
68.30771446085122
 31
0.0
  0
ENDSEC
  0
SECTION
  2
OBJECTS
  0
DICTIONARY
  5
11F4
330
0
100
AcDbDictionary
281
     1
  3
ACAD_GROUP
350
11F5
  3
ACAD_LAYOUT
350
1201
  3
ACAD_MLINESTYLE
350
11FE
  3
ACAD_PLOTSETTINGS
350
1200
  3
ACAD_PLOTSTYLENAME
350
11F6
  3
AcDbVariableDictionary
350
151A
  0
DICTIONARY
  5
11F5
102
{ACAD_REACTORS
330
11F4
102
}
330
11F4
100
AcDbDictionary
281
     1
  0
DICTIONARY
  5
1201
102
{ACAD_REACTORS
330
11F4
102
}
330
11F4
100
AcDbDictionary
281
     1
  3
Model
350
1209
  3
ﾚｲｱｳﾄ1
350
1205
  0
DICTIONARY
  5
11FE
102
{ACAD_REACTORS
330
11F4
102
}
330
11F4
100
AcDbDictionary
281
     1
  3
Standard
350
11FF
  0
DICTIONARY
  5
1200
102
{ACAD_REACTORS
330
11F4
102
}
330
11F4
100
AcDbDictionary
281
     1
  0
ACDBDICTIONARYWDFLT
  5
11F6
102
{ACAD_REACTORS
330
11F4
102
}
330
11F4
100
AcDbDictionary
281
     1
  3
Normal
350
11F7
100
AcDbDictionaryWithDefault
340
11F7
  0
DICTIONARY
  5
151A
102
{ACAD_REACTORS
330
11F4
102
}
330
11F4
100
AcDbDictionary
281
     1
  3
DIMASSOC
350
151B
  0
LAYOUT
  5
1209
102
{ACAD_REACTORS
330
1201
102
}
330
1201
100
AcDbPlotSettings
  1

  2
Canon LASER SHOT LBP-1710
  4

  6

 40
0.0
 41
0.0
 42
0.0
 43
0.0
 44
0.0
 45
0.0
 46
0.0
 47
0.0
 48
0.0
 49
0.0
140
0.0
141
0.0
142
1.0
143
1.0
 70
  1712
 72
     0
 73
     0
 74
     0
  7
1mizukoshi.ctb
 75
     0
147
1.0
148
0.0
149
0.0
100
AcDbLayout
  1
Model
 70
     1
 71
     0
 10
0.0
 20
0.0
 11
12.0
 21
9.0
 12
0.0
 22
0.0
 32
0.0
 14
0.0
 24
0.0
 34
0.0
 15
0.0
 25
0.0
 35
0.0
146
0.0
 13
0.0
 23
0.0
 33
0.0
 16
1.0
 26
0.0
 36
0.0
 17
0.0
 27
1.0
 37
0.0
 76
     0
330
1206
  0
LAYOUT
  5
1205
102
{ACAD_REACTORS
330
1201
102
}
330
1201
100
AcDbPlotSettings
  1

  2
Canon LASER SHOT LBP-1710
  4

  6

 40
0.0
 41
0.0
 42
0.0
 43
0.0
 44
0.0
 45
0.0
 46
0.0
 47
0.0
 48
0.0
 49
0.0
140
0.0
141
0.0
142
1.0
143
1.0
 70
   688
 72
     0
 73
     0
 74
     5
  7
1mizukoshi.ctb
 75
    16
147
1.0
148
0.0
149
0.0
100
AcDbLayout
  1
ﾚｲｱｳﾄ1
 70
     1
 71
     1
 10
0.0
 20
0.0
 11
420.0
 21
297.0
 12
0.0
 22
0.0
 32
0.0
 14
1.000000000000000E+20
 24
1.000000000000000E+20
 34
1.000000000000000E+20
 15
-1.000000000000000E+20
 25
-1.000000000000000E+20
 35
-1.000000000000000E+20
146
0.0
 13
0.0
 23
0.0
 33
0.0
 16
1.0
 26
0.0
 36
0.0
 17
0.0
 27
1.0
 37
0.0
 76
     0
330
1202
  0
MLINESTYLE
  5
11FF
102
{ACAD_REACTORS
330
11FE
102
}
330
11FE
100
AcDbMlineStyle
  2
STANDARD
 70
     0
  3

 62
   256
 51
90.0
 52
90.0
 71
     2
 49
0.5
 62
   256
  6
BYLAYER
 49
-0.5
 62
   256
  6
BYLAYER
  0
ACDBPLACEHOLDER
  5
11F7
102
{ACAD_REACTORS
330
11F6
102
}
330
11F6
  0
DICTIONARYVAR
  5
151B
102
{ACAD_REACTORS
330
151A
102
}
330
151A
100
DictionaryVariables
280
     0
  1
1
  0
ENDSEC
  0
EOF
