  0
SECTION
  2
HEADER
  9
$ACADVER
  1
AC1015
  9
$ACADMAINTVER
 70
    20
  9
$DWGCODEPAGE
  3
ANSI_932
  9
$INSBASE
 10
0.0
 20
0.0
 30
0.0
  9
$EXTMIN
 10
18.46885679385605
 20
287.4033277467552
 30
-0.0015258207003583
  9
$EXTMAX
 10
453.841920388953
 20
1083.954912754302
 30
0.0000000349246037
  9
$LIMMIN
 10
0.0
 20
0.0
  9
$LIMMAX
 10
420.0
 20
297.0
  9
$ORTHOMODE
 70
     1
  9
$REGENMODE
 70
     1
  9
$FILLMODE
 70
     1
  9
$QTEXTMODE
 70
     0
  9
$MIRRTEXT
 70
     1
  9
$LTSCALE
 40
1.0
  9
$ATTMODE
 70
     1
  9
$TEXTSIZE
 40
2.5
  9
$TRACEWID
 40
1.0
  9
$TEXTSTYLE
  7
STANDARD
  9
$CLAYER
  8
2寸法線
  9
$CELTYPE
  6
ByLayer
  9
$CECOLOR
 62
   256
  9
$CELTSCALE
 40
1.0
  9
$DISPSILH
 70
     0
  9
$DIMSCALE
 40
1.0
  9
$DIMASZ
 40
2.5
  9
$DIMEXO
 40
0.625
  9
$DIMDLI
 40
3.75
  9
$DIMRND
 40
0.0
  9
$DIMDLE
 40
0.0
  9
$DIMEXE
 40
1.25
  9
$DIMTP
 40
0.0
  9
$DIMTM
 40
0.0
  9
$DIMTXT
 40
2.5
  9
$DIMCEN
 40
2.5
  9
$DIMTSZ
 40
0.0
  9
$DIMTOL
 70
     0
  9
$DIMLIM
 70
     0
  9
$DIMTIH
 70
     0
  9
$DIMTOH
 70
     0
  9
$DIMSE1
 70
     0
  9
$DIMSE2
 70
     0
  9
$DIMTAD
 70
     1
  9
$DIMZIN
 70
     8
  9
$DIMBLK
  1

  9
$DIMASO
 70
     1
  9
$DIMSHO
 70
     1
  9
$DIMPOST
  1

  9
$DIMAPOST
  1

  9
$DIMALT
 70
     0
  9
$DIMALTD
 70
     3
  9
$DIMALTF
 40
0.03937007874016
  9
$DIMLFAC
 40
1.0
  9
$DIMTOFL
 70
     1
  9
$DIMTVP
 40
0.0
  9
$DIMTIX
 70
     0
  9
$DIMSOXD
 70
     0
  9
$DIMSAH
 70
     0
  9
$DIMBLK1
  1

  9
$DIMBLK2
  1

  9
$DIMSTYLE
  2
ISO-25
  9
$DIMCLRD
 70
     0
  9
$DIMCLRE
 70
     0
  9
$DIMCLRT
 70
     0
  9
$DIMTFAC
 40
1.0
  9
$DIMGAP
 40
0.625
  9
$DIMJUST
 70
     0
  9
$DIMSD1
 70
     0
  9
$DIMSD2
 70
     0
  9
$DIMTOLJ
 70
     1
  9
$DIMTZIN
 70
     0
  9
$DIMALTZ
 70
     0
  9
$DIMALTTZ
 70
     0
  9
$DIMUPT
 70
     0
  9
$DIMDEC
 70
     4
  9
$DIMTDEC
 70
     4
  9
$DIMALTU
 70
     2
  9
$DIMALTTD
 70
     2
  9
$DIMTXSTY
  7
STANDARD
  9
$DIMAUNIT
 70
     0
  9
$DIMADEC
 70
     0
  9
$DIMALTRND
 40
0.0
  9
$DIMAZIN
 70
     0
  9
$DIMDSEP
 70
    46
  9
$DIMATFIT
 70
     3
  9
$DIMFRAC
 70
     0
  9
$DIMLDRBLK
  1

  9
$DIMLUNIT
 70
     2
  9
$DIMLWD
 70
    -2
  9
$DIMLWE
 70
    -2
  9
$DIMTMOVE
 70
     0
  9
$LUNITS
 70
     2
  9
$LUPREC
 70
     4
  9
$SKETCHINC
 40
1.0
  9
$FILLETRAD
 40
0.0
  9
$AUNITS
 70
     0
  9
$AUPREC
 70
     0
  9
$MENU
  1
.
  9
$ELEVATION
 40
0.0
  9
$PELEVATION
 40
0.0
  9
$THICKNESS
 40
0.0
  9
$LIMCHECK
 70
     0
  9
$CHAMFERA
 40
10.0
  9
$CHAMFERB
 40
10.0
  9
$CHAMFERC
 40
0.0
  9
$CHAMFERD
 40
0.0
  9
$SKPOLY
 70
     0
  9
$TDCREATE
 40
2452263.783811482
  9
$TDUCREATE
 40
2452263.408811482
  9
$TDUPDATE
 40
2456716.710810532
  9
$TDUUPDATE
 40
2456716.335810532
  9
$TDINDWG
 40
0.3199701852
  9
$TDUSRTIMER
 40
0.3199223843
  9
$USRTIMER
 70
     1
  9
$ANGBASE
 50
0.0
  9
$ANGDIR
 70
     0
  9
$PDMODE
 70
     0
  9
$PDSIZE
 40
0.0
  9
$PLINEWID
 40
0.0
  9
$SPLFRAME
 70
     0
  9
$SPLINETYPE
 70
     6
  9
$SPLINESEGS
 70
     8
  9
$HANDSEED
  5
5DAD
  9
$SURFTAB1
 70
     6
  9
$SURFTAB2
 70
     6
  9
$SURFTYPE
 70
     6
  9
$SURFU
 70
     6
  9
$SURFV
 70
     6
  9
$UCSBASE
  2

  9
$UCSNAME
  2

  9
$UCSORG
 10
0.0
 20
0.0
 30
0.0
  9
$UCSXDIR
 10
1.0
 20
0.0
 30
0.0
  9
$UCSYDIR
 10
0.0
 20
1.0
 30
0.0
  9
$UCSORTHOREF
  2

  9
$UCSORTHOVIEW
 70
     0
  9
$UCSORGTOP
 10
0.0
 20
0.0
 30
0.0
  9
$UCSORGBOTTOM
 10
0.0
 20
0.0
 30
0.0
  9
$UCSORGLEFT
 10
0.0
 20
0.0
 30
0.0
  9
$UCSORGRIGHT
 10
0.0
 20
0.0
 30
0.0
  9
$UCSORGFRONT
 10
0.0
 20
0.0
 30
0.0
  9
$UCSORGBACK
 10
0.0
 20
0.0
 30
0.0
  9
$PUCSBASE
  2

  9
$PUCSNAME
  2

  9
$PUCSORG
 10
0.0
 20
0.0
 30
0.0
  9
$PUCSXDIR
 10
1.0
 20
0.0
 30
0.0
  9
$PUCSYDIR
 10
0.0
 20
1.0
 30
0.0
  9
$PUCSORTHOREF
  2

  9
$PUCSORTHOVIEW
 70
     0
  9
$PUCSORGTOP
 10
0.0
 20
0.0
 30
0.0
  9
$PUCSORGBOTTOM
 10
0.0
 20
0.0
 30
0.0
  9
$PUCSORGLEFT
 10
0.0
 20
0.0
 30
0.0
  9
$PUCSORGRIGHT
 10
0.0
 20
0.0
 30
0.0
  9
$PUCSORGFRONT
 10
0.0
 20
0.0
 30
0.0
  9
$PUCSORGBACK
 10
0.0
 20
0.0
 30
0.0
  9
$USERI1
 70
     0
  9
$USERI2
 70
     0
  9
$USERI3
 70
     0
  9
$USERI4
 70
     0
  9
$USERI5
 70
     0
  9
$USERR1
 40
0.0
  9
$USERR2
 40
0.0
  9
$USERR3
 40
0.0
  9
$USERR4
 40
0.0
  9
$USERR5
 40
0.0
  9
$WORLDVIEW
 70
     1
  9
$SHADEDGE
 70
     3
  9
$SHADEDIF
 70
    70
  9
$TILEMODE
 70
     1
  9
$MAXACTVP
 70
    64
  9
$PINSBASE
 10
0.0
 20
0.0
 30
0.0
  9
$PLIMCHECK
 70
     0
  9
$PEXTMIN
 10
1.000000000000000E+20
 20
1.000000000000000E+20
 30
1.000000000000000E+20
  9
$PEXTMAX
 10
-1.000000000000000E+20
 20
-1.000000000000000E+20
 30
-1.000000000000000E+20
  9
$PLIMMIN
 10
0.0
 20
0.0
  9
$PLIMMAX
 10
420.0
 20
297.0
  9
$UNITMODE
 70
     0
  9
$VISRETAIN
 70
     1
  9
$PLINEGEN
 70
     0
  9
$PSLTSCALE
 70
     1
  9
$TREEDEPTH
 70
  3020
  9
$CMLSTYLE
  2
Standard
  9
$CMLJUST
 70
     0
  9
$CMLSCALE
 40
1.0
  9
$PROXYGRAPHICS
 70
     1
  9
$MEASUREMENT
 70
     0
  9
$CELWEIGHT
370
    -1
  9
$ENDCAPS
280
     0
  9
$JOINSTYLE
280
     0
  9
$LWDISPLAY
290
     0
  9
$INSUNITS
 70
     0
  9
$HYPERLINKBASE
  1

  9
$STYLESHEET
  1
INABA-CAD-Canon.ctb
  9
$XEDIT
290
     1
  9
$CEPSNTYPE
380
     0
  9
$PSTYLEMODE
290
     1
  9
$FINGERPRINTGUID
  2
{F28305D8-7C18-4369-90EB-BFABBADB8EAD}
  9
$VERSIONGUID
  2
{57F19DC0-3558-4A9A-8951-074A89C97D69}
  9
$EXTNAMES
290
     1
  9
$PSVPSCALE
 40
0.0
  9
$OLESTARTUP
290
     0
  0
ENDSEC
  0
SECTION
  2
CLASSES
  0
CLASS
  1
ACDBDICTIONARYWDFLT
  2
AcDbDictionaryWithDefault
  3
ObjectDBX Classes
 90
        0
280
     0
281
     0
  0
CLASS
  1
ACDBPLACEHOLDER
  2
AcDbPlaceHolder
  3
ObjectDBX Classes
 90
        0
280
     0
281
     0
  0
CLASS
  1
LAYOUT
  2
AcDbLayout
  3
ObjectDBX Classes
 90
        0
280
     0
281
     0
  0
CLASS
  1
DICTIONARYVAR
  2
AcDbDictionaryVar
  3
ObjectDBX Classes
 90
        0
280
     0
281
     0
  0
CLASS
  1
TABLESTYLE
  2
AcDbTableStyle
  3
ObjectDBX Classes
 90
     2047
280
     0
281
     0
  0
CLASS
  1
SORTENTSTABLE
  2
AcDbSortentsTable
  3
ObjectDBX Classes
 90
        0
280
     0
281
     0
  0
ENDSEC
  0
SECTION
  2
TABLES
  0
TABLE
  2
VPORT
  5
1A4
330
0
100
AcDbSymbolTable
 70
    10
  0
VPORT
  5
5DA7
330
1A4
100
AcDbSymbolTableRecord
100
AcDbViewportTableRecord
  2
*Active
 70
     0
 10
0.0
 20
0.0
 11
1.0
 21
1.0
 12
410.4829419053648
 22
619.8142470057449
 13
0.0
 23
0.0
 14
10.0
 24
10.0
 15
10.0
 25
10.0
 16
0.0
 26
0.0
 36
1.0
 17
0.0
 27
0.0
 37
0.0
 40
1131.469840022768
 41
1.386243386243386
 42
50.0
 43
0.0
 44
0.0
 50
0.0
 51
0.0
 71
     0
 72
   100
 73
     1
 74
     3
 75
     0
 76
     0
 77
     0
 78
     0
281
     0
 65
     1
110
0.0
120
0.0
130
0.0
111
1.0
121
0.0
131
0.0
112
0.0
122
1.0
132
0.0
 79
     0
146
0.0
  0
ENDTAB
  0
TABLE
  2
LTYPE
  5
1A1
330
0
100
AcDbSymbolTable
 70
     4
  0
LTYPE
  5
1AF
330
1A1
100
AcDbSymbolTableRecord
100
AcDbLinetypeTableRecord
  2
ByBlock
 70
     0
  3

 72
    65
 73
     0
 40
0.0
  0
LTYPE
  5
1B0
330
1A1
100
AcDbSymbolTableRecord
100
AcDbLinetypeTableRecord
  2
ByLayer
 70
     0
  3

 72
    65
 73
     0
 40
0.0
  0
LTYPE
  5
1B1
330
1A1
100
AcDbSymbolTableRecord
100
AcDbLinetypeTableRecord
  2
CONTINUOUS
 70
     0
  3
Solid line
 72
    65
 73
     0
 40
0.0
  0
ENDTAB
  0
TABLE
  2
LAYER
  5
19E
102
{ACAD_XDICTIONARY
360
389
102
}
330
0
100
AcDbSymbolTable
 70
     9
  0
LAYER
  5
1AC
330
19E
100
AcDbSymbolTableRecord
100
AcDbLayerTableRecord
  2
0
 70
     0
 62
     7
  6
CONTINUOUS
370
    -3
390
1AB
  0
LAYER
  5
1BF
330
19E
100
AcDbSymbolTableRecord
100
AcDbLayerTableRecord
  2
1外形線
 70
     0
 62
     3
  6
CONTINUOUS
370
    -3
390
1AB
  0
LAYER
  5
1CB
330
19E
100
AcDbSymbolTableRecord
100
AcDbLayerTableRecord
  2
2寸法線
 70
     0
 62
     2
  6
CONTINUOUS
370
    -3
390
1AB
  0
LAYER
  5
218
330
19E
100
AcDbSymbolTableRecord
100
AcDbLayerTableRecord
  2
Defpoints
 70
     0
 62
     7
  6
CONTINUOUS
290
     0
370
    -3
390
1AB
  0
ENDTAB
  0
TABLE
  2
STYLE
  5
19F
330
0
100
AcDbSymbolTable
 70
     7
  0
STYLE
  5
1AD
330
19F
100
AcDbSymbolTableRecord
100
AcDbTextStyleTableRecord
  2
STANDARD
 70
     0
 40
0.0
 41
1.0
 50
0.0
 71
     0
 42
2.5
  3
txt
  4

  0
STYLE
  5
1C1
330
19F
100
AcDbSymbolTableRecord
100
AcDbTextStyleTableRecord
  2
KANJI
 70
     0
 40
0.0
 41
1.0
 50
0.0
 71
     0
 42
2.5
  3
simplex.shx
  4
extfont.shx
  0
ENDTAB
  0
TABLE
  2
VIEW
  5
1A2
330
0
100
AcDbSymbolTable
 70
     0
  0
ENDTAB
  0
TABLE
  2
UCS
  5
1A3
330
0
100
AcDbSymbolTable
 70
     0
  0
ENDTAB
  0
TABLE
  2
APPID
  5
1A5
330
0
100
AcDbSymbolTable
 70
     9
  0
APPID
  5
1AE
330
1A5
100
AcDbSymbolTableRecord
100
AcDbRegAppTableRecord
  2
ACAD
 70
     0
  0
APPID
  5
385
330
1A5
100
AcDbSymbolTableRecord
100
AcDbRegAppTableRecord
  2
ACAD_PSEXT
 70
     0
  0
APPID
  5
386
330
1A5
100
AcDbSymbolTableRecord
100
AcDbRegAppTableRecord
  2
ACAD_DSTYLE_DIMJAG
 70
     0
  0
APPID
  5
387
330
1A5
100
AcDbSymbolTableRecord
100
AcDbRegAppTableRecord
  2
ACAD_DSTYLE_DIMTALN
 70
     0
  0
APPID
  5
388
330
1A5
100
AcDbSymbolTableRecord
100
AcDbRegAppTableRecord
  2
ACAD_DSTYLE_DIMBREAK
 70
     0
  0
APPID
  5
10E8
330
1A5
100
AcDbSymbolTableRecord
100
AcDbRegAppTableRecord
  2
ACAD_DSTYLE_DIMRADIAL_EXTENSION
 70
     0
  0
APPID
  5
10E9
330
1A5
100
AcDbSymbolTableRecord
100
AcDbRegAppTableRecord
  2
GradientColor1ACI
 70
     0
  0
APPID
  5
10EA
330
1A5
100
AcDbSymbolTableRecord
100
AcDbRegAppTableRecord
  2
GradientColor2ACI
 70
     0
  0
APPID
  5
10EB
330
1A5
100
AcDbSymbolTableRecord
100
AcDbRegAppTableRecord
  2
ACAD_DSTYLE_DIMFLIPARROW_WHICH_SYMBOL
 70
     0
  0
ENDTAB
  0
TABLE
  2
DIMSTYLE
  5
1A6
330
0
100
AcDbSymbolTable
 70
     9
100
AcDbDimStyleTable
 71
     1
340
1C2
  0
DIMSTYLE
105
1C2
330
1A6
100
AcDbSymbolTableRecord
100
AcDbDimStyleTableRecord
  2
ISO-25
 70
     0
 41
2.5
 42
0.625
 43
3.75
 44
1.25
 73
     0
 74
     0
 77
     1
 78
     8
140
2.5
141
2.5
143
0.03937007874016
147
0.625
171
     3
172
     1
274
     3
279
     2
284
     8
285
     8
286
     8
340
1AD
  0
DIMSTYLE
105
1C3
330
1A6
100
AcDbSymbolTableRecord
100
AcDbDimStyleTableRecord
  2
STANDARD
 70
     0
274
     3
279
     2
284
     8
285
     8
286
     8
340
1AD
  0
ENDTAB
  0
TABLE
  2
BLOCK_RECORD
  5
19D
330
0
100
AcDbSymbolTable
 70
   245
  0
BLOCK_RECORD
  5
1BA
102
{ACAD_XDICTIONARY
360
5CD3
102
}
330
19D
100
AcDbSymbolTableRecord
100
AcDbBlockTableRecord
  2
*Model_Space
340
1BD
  0
BLOCK_RECORD
  5
1B6
330
19D
100
AcDbSymbolTableRecord
100
AcDbBlockTableRecord
  2
*Paper_Space
340
1B9
  0
ENDTAB
  0
ENDSEC
  0
SECTION
  2
BLOCKS
  0
BLOCK
  5
1BB
330
1BA
100
AcDbEntity
  8
0
100
AcDbBlockBegin
  2
*Model_Space
 70
     0
 10
0.0
 20
0.0
 30
0.0
  3
*Model_Space
  1

  0
ENDBLK
  5
1BC
330
1BA
100
AcDbEntity
  8
0
100
AcDbBlockEnd
  0
BLOCK
  5
1B7
330
1B6
100
AcDbEntity
 67
     1
  8
0
100
AcDbBlockBegin
  2
*Paper_Space
 70
     0
 10
0.0
 20
0.0
 30
0.0
  3
*Paper_Space
  1

  0
ENDBLK
  5
1B8
330
1B6
100
AcDbEntity
 67
     1
  8
0
100
AcDbBlockEnd
  0
ENDSEC
  0
SECTION
  2
ENTITIES
  0
TEXT
  5
5552
330
1BA
100
AcDbEntity
  8
1外形線
 62
     7
100
AcDbText
 10
87.36841971011811
 20
1038.132399909172
 30
0.0
 40
10.0
  1
MT-75
  7
KANJI
100
AcDbText
  0
LINE
  5
5553
330
1BA
100
AcDbEntity
  8
1外形線
 62
     7
100
AcDbLine
 10
183.9456976681074
 20
997.5014408950055
 30
0.0
 11
134.4456976681074
 21
997.5014408950055
 31
0.0
  0
LINE
  5
5554
330
1BA
100
AcDbEntity
  8
1外形線
 62
     7
100
AcDbLine
 10
183.9456976681091
 20
892.5014591305107
 30
0.0
 11
145.1456976681081
 21
892.5014591305107
 31
0.0
  0
LINE
  5
5555
330
1BA
100
AcDbEntity
  8
1外形線
 62
     7
100
AcDbLine
 10
131.4456976681074
 20
919.1014408950039
 30
0.0
 11
134.4456976681074
 21
918.1014408950041
 31
0.0
  0
LINE
  5
5556
330
1BA
100
AcDbEntity
  8
1外形線
 62
     7
100
AcDbLine
 10
141.3456976681088
 20
918.1014408950041
 30
0.0
 11
134.4456976681074
 21
918.1014408950041
 31
0.0
  0
ARC
  5
5557
330
1BA
100
AcDbEntity
  8
1外形線
 62
     7
100
AcDbCircle
 10
141.3456976681088
 20
915.3014408950047
 30
0.0
 40
2.799999999999998
100
AcDbArc
 50
0.0
 51
90.0
  0
LINE
  5
5558
330
1BA
100
AcDbEntity
  8
1外形線
 62
     7
100
AcDbLine
 10
131.4456976681074
 20
996.5014408950056
 30
0.0
 11
134.4456976681074
 21
997.5014408950055
 31
0.0
  0
LINE
  5
5559
330
1BA
100
AcDbEntity
  8
1外形線
 62
     7
100
AcDbLine
 10
131.4456976681074
 20
996.5014408950056
 30
0.0
 11
131.4456976681074
 21
919.0014408950045
 31
0.0
  0
LINE
  5
555A
330
1BA
100
AcDbEntity
  8
1外形線
 62
     7
100
AcDbLine
 10
144.1456976681081
 20
915.2014408950044
 30
0.0
 11
144.1456976681081
 21
895.5014591305108
 31
0.0
  0
LINE
  5
555B
330
1BA
100
AcDbEntity
  8
1外形線
 62
     7
100
AcDbLine
 10
145.1456976681081
 20
892.5014591305107
 30
0.0
 11
144.1456976681081
 21
895.5014591305108
 31
0.0
  0
LINE
  5
555C
330
1BA
100
AcDbEntity
  8
1外形線
 62
     7
100
AcDbLine
 10
183.9456976681074
 20
997.5014408950055
 30
0.0
 11
233.4456976681092
 21
997.5014408950064
 31
0.0
  0
LINE
  5
555D
330
1BA
100
AcDbEntity
  8
1外形線
 62
     7
100
AcDbLine
 10
183.9456976681091
 20
892.5014591305107
 30
0.0
 11
222.7456976681103
 21
892.5014591305107
 31
0.0
  0
LINE
  5
555E
330
1BA
100
AcDbEntity
  8
1外形線
 62
     7
100
AcDbLine
 10
236.4456976681129
 20
919.1014408950058
 30
0.0
 11
233.4456976681129
 21
918.1014408950058
 31
0.0
  0
LINE
  5
555F
330
1BA
100
AcDbEntity
  8
1外形線
 62
     7
100
AcDbLine
 10
226.5456976681096
 20
918.1014408950058
 30
0.0
 11
233.4456976681129
 21
918.1014408950058
 31
0.0
  0
ARC
  5
5560
330
1BA
100
AcDbEntity
  8
1外形線
 62
     7
100
AcDbCircle
 10
226.5456976681096
 20
915.3014408950047
 30
0.0
 40
2.799999999999998
100
AcDbArc
 50
90.0
 51
180.0
  0
LINE
  5
5561
330
1BA
100
AcDbEntity
  8
1外形線
 62
     7
100
AcDbLine
 10
236.4456976681111
 20
996.5014408950056
 30
0.0
 11
233.445697668111
 21
997.5014408950055
 31
0.0
  0
LINE
  5
5562
330
1BA
100
AcDbEntity
  8
1外形線
 62
     7
100
AcDbLine
 10
236.4456976681111
 20
996.5014408950056
 30
0.0
 11
236.4456976681129
 21
919.0014408950055
 31
0.0
  0
LINE
  5
5563
330
1BA
100
AcDbEntity
  8
1外形線
 62
     7
100
AcDbLine
 10
223.7456976681085
 20
915.2014408950053
 30
0.0
 11
223.7456976681085
 21
895.5014591305108
 31
0.0
  0
LINE
  5
5564
330
1BA
100
AcDbEntity
  8
1外形線
 62
     7
100
AcDbLine
 10
222.7456976681103
 20
892.5014591305115
 30
0.0
 11
223.7456976681103
 21
895.5014591305117
 31
0.0
  0
LINE
  5
5565
330
1BA
100
AcDbEntity
  8
1外形線
 62
     7
 48
3.0
100
AcDbLine
 10
317.8032412812561
 20
985.8003372424573
 30
0.0
 11
324.9103267668622
 21
992.9074227280644
 31
0.0
  0
LINE
  5
5566
330
1BA
100
AcDbEntity
  8
1外形線
 62
     7
 48
3.0
100
AcDbLine
 10
233.4456976681129
 20
918.0014408950054
 30
0.0
 11
233.4456976681092
 21
997.5014408950064
 31
0.0
  0
LINE
  5
5567
330
1BA
100
AcDbEntity
  8
1外形線
 62
     7
 48
3.0
100
AcDbLine
 10
134.4456976681074
 20
997.5014408950055
 30
0.0
 11
134.4456976681074
 21
918.0014408950047
 31
0.0
  0
LINE
  5
5568
330
1BA
100
AcDbEntity
  8
1外形線
 62
     7
 48
3.0
100
AcDbLine
 10
144.1456976681081
 20
895.5014591305108
 30
0.0
 11
223.7456976681103
 21
895.5014591305124
 31
0.0
  0
LINE
  5
5569
330
1BA
100
AcDbEntity
  8
1外形線
 62
     7
 48
3.0
100
AcDbLine
 10
328.3585986406095
 20
994.3711272979115
 30
0.0
 11
374.6387751902646
 21
995.178950784475
 31
0.0
  0
LINE
  5
556A
330
1BA
100
AcDbEntity
  8
1外形線
 62
     7
 48
3.0
100
AcDbLine
 10
374.6387751902664
 20
995.178950784475
 30
0.0
 11
381.6387751902663
 21
995.5014408950056
 31
0.0
  0
LINE
  5
556B
330
1BA
100
AcDbEntity
  8
1外形線
 62
     7
 48
3.0
100
AcDbLine
 10
328.3202033464484
 20
996.5707922272549
 30
0.0
 11
381.6387751902663
 21
997.5014713606695
 31
0.0
  0
LINE
  5
556C
330
1BA
100
AcDbEntity
  8
1外形線
 62
     7
100
AcDbLine
 10
325.4116575735195
 20
919.4273603918089
 30
0.0
 11
325.4116575735195
 21
892.6014591305111
 31
0.0
  0
LINE
  5
556D
330
1BA
100
AcDbEntity
  8
1外形線
 62
     7
100
AcDbLine
 10
381.6387751902663
 20
997.5014713606695
 30
0.0
 11
381.6387751902663
 21
995.5014408950056
 31
0.0
  0
LINE
  5
556E
330
1BA
100
AcDbEntity
  8
1外形線
 62
     7
100
AcDbLine
 10
381.6387751902663
 20
920.1014408950058
 30
0.0
 11
381.6387751902663
 21
892.5014591305107
 31
0.0
  0
LINE
  5
556F
330
1BA
100
AcDbEntity
  8
1外形線
 62
     7
100
AcDbLine
 10
314.1387751871887
 20
895.5014591305108
 30
0.0
 11
381.6387751902663
 21
895.5014591305108
 31
0.0
  0
LINE
  5
5570
330
1BA
100
AcDbEntity
  8
1外形線
 62
     7
100
AcDbLine
 10
315.1387751871887
 20
892.5014591305107
 30
0.0
 11
381.6387751902663
 21
892.5014591305107
 31
0.0
  0
LINE
  5
5571
330
1BA
100
AcDbEntity
  8
1外形線
 62
     7
100
AcDbLine
 10
314.1387751871887
 20
895.5014591305108
 30
0.0
 11
315.1387751871887
 21
892.5014591305107
 31
0.0
  0
ARC
  5
5572
330
1BA
100
AcDbEntity
  8
1外形線
 62
     7
 48
3.0
100
AcDbCircle
 10
328.4458606727974
 20
989.3718888221311
 30
0.0
 40
5.0
100
AcDbArc
 50
90.99999999997569
 51
135.0
  0
ARC
  5
5573
330
1BA
100
AcDbEntity
  8
1外形線
 62
     7
 48
3.0
100
AcDbCircle
 10
328.4458606727974
 20
989.3718888221311
 30
0.0
 40
7.2
100
AcDbArc
 50
90.99999999997569
 51
135.0
  0
LINE
  5
5574
330
1BA
100
AcDbEntity
  8
1外形線
 62
     7
 48
3.0
100
AcDbLine
 10
316.2476063626461
 20
987.355972161068
 30
0.0
 11
323.3546918482523
 21
994.4630576466742
 31
0.0
  0
ARC
  5
5575
330
1BA
100
AcDbEntity
  8
1外形線
 62
     7
 48
3.0
100
AcDbCircle
 10
321.3387751871894
 20
982.2648033365251
 30
0.0
 40
5.0
100
AcDbArc
 50
135.0
 51
180.0
  0
ARC
  5
5576
330
1BA
100
AcDbEntity
  8
1外形線
 62
     7
 48
3.0
100
AcDbCircle
 10
321.3387751871894
 20
982.2648033365251
 30
0.0
 40
7.2
100
AcDbArc
 50
135.0
 51
180.0
  0
LINE
  5
5577
330
1BA
100
AcDbEntity
  8
1外形線
 62
     7
 48
3.0
100
AcDbLine
 10
316.3387751871876
 20
982.2648033365251
 30
0.0
 11
316.3387751871876
 21
957.8014408950057
 31
0.0
  0
LINE
  5
5578
330
1BA
100
AcDbEntity
  8
1外形線
 62
     7
 48
3.0
100
AcDbLine
 10
314.1387751871887
 20
982.2648033365251
 30
0.0
 11
314.1387751871887
 21
957.8014408950057
 31
0.0
  0
LINE
  5
5579
330
1BA
100
AcDbEntity
  8
1外形線
 62
     7
 48
3.0
100
AcDbLine
 10
318.3387751871876
 20
986.3358711483879
 30
0.0
 11
318.3387751871876
 21
929.1670106416232
 31
0.0
  0
ARC
  5
557A
330
1BA
100
AcDbEntity
  8
1外形線
 62
     7
 48
3.0
100
AcDbCircle
 10
328.4458606727974
 20
926.2309929678805
 30
0.0
 40
7.2
100
AcDbArc
 50
225.0
 51
269.0000000000243
  0
ARC
  5
557B
330
1BA
100
AcDbEntity
  8
1外形線
 62
     7
 48
3.0
100
AcDbCircle
 10
328.4458606727974
 20
926.2309929678805
 30
0.0
 40
5.0
100
AcDbArc
 50
225.0
 51
269.0000000000243
  0
LINE
  5
557C
330
1BA
100
AcDbEntity
  8
1外形線
 62
     7
 48
3.0
100
AcDbLine
 10
316.2476063626461
 20
928.2469096289432
 30
0.0
 11
323.3546918482523
 21
921.139824143337
 31
0.0
  0
LINE
  5
557D
330
1BA
100
AcDbEntity
  8
1外形線
 62
     7
 48
3.0
100
AcDbLine
 10
317.8032412812561
 20
929.8025445475541
 30
0.0
 11
324.9103267668622
 21
922.695459061947
 31
0.0
  0
ARC
  5
557E
330
1BA
100
AcDbEntity
  8
1外形線
 62
     7
 48
3.0
100
AcDbCircle
 10
321.3387751871894
 20
933.3380784534865
 30
0.0
 40
5.0
100
AcDbArc
 50
180.0
 51
225.0
  0
ARC
  5
557F
330
1BA
100
AcDbEntity
  8
1外形線
 62
     7
 48
3.0
100
AcDbCircle
 10
321.3387751871894
 20
933.3380784534865
 30
0.0
 40
7.2
100
AcDbArc
 50
180.0
 51
225.0
  0
LINE
  5
5580
330
1BA
100
AcDbEntity
  8
1外形線
 62
     7
 48
3.0
100
AcDbLine
 10
316.3387751871894
 20
933.3380784534865
 30
0.0
 11
316.3387751871876
 21
957.8014408950057
 31
0.0
  0
LINE
  5
5581
330
1BA
100
AcDbEntity
  8
1外形線
 62
     7
 48
3.0
100
AcDbLine
 10
314.1387751871869
 20
895.5014591305108
 30
0.0
 11
314.1387751871887
 21
957.8014408950057
 31
0.0
  0
LINE
  5
5582
330
1BA
100
AcDbEntity
  8
1外形線
 62
     7
 48
3.0
100
AcDbLine
 10
328.3585986406095
 20
921.2317544920995
 30
0.0
 11
374.6387751902737
 21
920.4239310055353
 31
0.0
  0
LINE
  5
5583
330
1BA
100
AcDbEntity
  8
1外形線
 62
     7
 48
3.0
100
AcDbLine
 10
374.6387751902737
 20
920.4239310055353
 30
0.0
 11
381.6387751902663
 21
920.1014408950058
 31
0.0
  0
LINE
  5
5584
330
1BA
100
AcDbEntity
  8
1外形線
 62
     7
 48
3.0
100
AcDbLine
 10
328.3202033464484
 20
919.0320895627564
 30
0.0
 11
381.6387751902663
 21
918.1014408950058
 31
0.0
  0
LINE
  5
5585
330
1BA
100
AcDbEntity
  8
1外形線
 62
     7
 48
3.0
100
AcDbLine
 10
131.5456976681059
 20
985.2471409856097
 30
0.0
 11
236.3456976681107
 21
985.2471409856097
 31
0.0
  0
LINE
  5
5586
330
1BA
100
AcDbEntity
  8
1外形線
 62
     7
 48
3.0
100
AcDbLine
 10
156.3999975775048
 20
892.6014591305101
 30
0.0
 11
156.3999975775048
 21
920.2557408044022
 31
0.0
  0
ARC
  5
5587
330
1BA
100
AcDbEntity
  8
1外形線
 62
     7
 48
3.0
100
AcDbCircle
 10
146.3999975775048
 20
920.3557408044016
 30
0.0
 40
10.0
100
AcDbArc
 50
0.0
 51
90.0
  0
LINE
  5
5588
330
1BA
100
AcDbEntity
  8
1外形線
 62
     7
 48
3.0
100
AcDbLine
 10
131.5456976681059
 20
930.3557408044015
 30
0.0
 11
146.3999975775048
 21
930.3557408044015
 31
0.0
  0
LINE
  5
5589
330
1BA
100
AcDbEntity
  8
1外形線
 62
     7
 48
3.0
100
AcDbLine
 10
221.4913977587137
 20
930.3557408044015
 30
0.0
 11
236.3456976681107
 21
930.3557408044015
 31
0.0
  0
LINE
  5
558A
330
1BA
100
AcDbEntity
  8
1外形線
 62
     7
 48
3.0
100
AcDbLine
 10
211.4913977587137
 20
892.6014591305111
 30
0.0
 11
211.4913977587137
 21
920.2557408044022
 31
0.0
  0
ARC
  5
558B
330
1BA
100
AcDbEntity
  8
1外形線
 62
     7
 48
3.0
100
AcDbCircle
 10
221.4913977587137
 20
920.3557408044016
 30
0.0
 40
10.0
100
AcDbArc
 50
90.0
 51
180.0
  0
LINE
  5
5591
330
1BA
100
AcDbEntity
  8
1外形線
 62
     7
 48
3.0
100
AcDbLine
 10
381.6387751902663
 20
995.5014408950056
 30
0.0
 11
381.6387751902663
 21
957.8014408950066
 31
0.0
  0
LINE
  5
5593
330
1BA
100
AcDbEntity
  8
1外形線
 62
     7
 48
3.0
100
AcDbLine
 10
381.6387751902663
 20
899.5014591305125
 30
0.0
 11
381.6387751902663
 21
957.8014408950057
 31
0.0
  0
LINE
  5
5594
330
1BA
100
AcDbEntity
  8
1外形線
 62
     7
 48
3.0
100
AcDbLine
 10
379.4387751902675
 20
920.7366362392404
 30
0.0
 11
379.4387751902656
 21
957.8014408950057
 31
0.0
  0
LINE
  5
5597
330
1BA
100
AcDbEntity
  8
1外形線
 62
     7
 48
3.0
100
AcDbLine
 10
379.438775190259
 20
995.4000868602671
 30
0.0
 11
379.4387751902656
 21
957.8014408950057
 31
0.0
  0
LINE
  5
55A5
330
1BA
100
AcDbEntity
  8
1外形線
 62
     7
 48
3.0
100
AcDbLine
 10
211.9445940155608
 20
828.0123630031656
 30
0.0
 11
219.051679501167
 21
820.9052775175596
 31
0.0
  0
LINE
  5
55A6
330
1BA
100
AcDbEntity
  8
1外形線
 62
     7
 48
3.0
100
AcDbLine
 10
220.5153840710143
 20
817.4570056438124
 30
0.0
 11
221.3232075575786
 21
771.1768290941572
 31
0.0
  0
LINE
  5
55A7
330
1BA
100
AcDbEntity
  8
1外形線
 62
     7
 48
3.0
100
AcDbLine
 10
221.3232075575786
 20
771.1768290941554
 30
0.0
 11
221.6456976681081
 21
764.1768290941554
 31
0.0
  0
LINE
  5
55A8
330
1BA
100
AcDbEntity
  8
1外形線
 62
     7
 48
3.0
100
AcDbLine
 10
222.7150490003576
 20
817.4954009379733
 30
0.0
 11
223.6457281337723
 21
764.1768290941554
 31
0.0
  0
LINE
  5
55A9
330
1BA
100
AcDbEntity
  8
1外形線
 62
     7
100
AcDbLine
 10
145.5716171649117
 20
820.4039467109023
 30
0.0
 11
131.4456976681074
 21
820.4039467109023
 31
0.0
  0
LINE
  5
55AA
330
1BA
100
AcDbEntity
  8
1外形線
 62
     7
100
AcDbLine
 10
223.6457281337723
 20
764.1768290941554
 30
0.0
 11
221.6456976681081
 21
764.1768290941545
 31
0.0
  0
LINE
  5
55AB
330
1BA
100
AcDbEntity
  8
1外形線
 62
     7
100
AcDbLine
 10
146.2456976681085
 20
764.1768290941545
 30
0.0
 11
131.4456976681074
 21
764.1768290941545
 31
0.0
  0
LINE
  5
55AC
330
1BA
100
AcDbEntity
  8
1外形線
 62
     7
100
AcDbLine
 10
134.4456976681074
 20
831.6768290972332
 30
0.0
 11
134.4456976681074
 21
764.1768290941554
 31
0.0
  0
LINE
  5
55AD
330
1BA
100
AcDbEntity
  8
1外形線
 62
     7
100
AcDbLine
 10
131.4456976681074
 20
830.6768290972332
 30
0.0
 11
131.4456976681074
 21
764.1768290941554
 31
0.0
  0
LINE
  5
55AE
330
1BA
100
AcDbEntity
  8
1外形線
 62
     7
100
AcDbLine
 10
134.4456976681074
 20
831.6768290972332
 30
0.0
 11
131.4456976681074
 21
830.6768290972332
 31
0.0
  0
ARC
  5
55AF
330
1BA
100
AcDbEntity
  8
1外形線
 62
     7
 48
3.0
100
AcDbCircle
 10
215.5161455952336
 20
817.3697436116244
 30
0.0
 40
5.0
100
AcDbArc
 50
0.9999999999757104
 51
44.99999999999078
  0
ARC
  5
55B0
330
1BA
100
AcDbEntity
  8
1外形線
 62
     7
 48
3.0
100
AcDbCircle
 10
215.5161455952336
 20
817.3697436116244
 30
0.0
 40
7.2
100
AcDbArc
 50
0.9999999999757104
 51
44.99999999999078
  0
LINE
  5
55B1
330
1BA
100
AcDbEntity
  8
1外形線
 62
     7
 48
3.0
100
AcDbLine
 10
213.5002289341707
 20
829.5679979217757
 30
0.0
 11
220.6073144197769
 21
822.4609124361695
 31
0.0
  0
ARC
  5
55B2
330
1BA
100
AcDbEntity
  8
1外形線
 62
     7
 48
3.0
100
AcDbCircle
 10
208.4090601096293
 20
824.4768290972322
 30
0.0
 40
5.0
100
AcDbArc
 50
44.99999999999078
 51
90.0
  0
ARC
  5
55B3
330
1BA
100
AcDbEntity
  8
1外形線
 62
     7
 48
3.0
100
AcDbCircle
 10
208.4090601096293
 20
824.4768290972322
 30
0.0
 40
7.2
100
AcDbArc
 50
44.99999999999078
 51
90.0
  0
LINE
  5
55B4
330
1BA
100
AcDbEntity
  8
1外形線
 62
     7
 48
3.0
100
AcDbLine
 10
208.4090601096275
 20
829.4768290972342
 30
0.0
 11
183.9456976681091
 21
829.4768290972342
 31
0.0
  0
LINE
  5
55B5
330
1BA
100
AcDbEntity
  8
1外形線
 62
     7
 48
3.0
100
AcDbLine
 10
208.4090601096275
 20
831.6768290972332
 30
0.0
 11
183.9456976681091
 21
831.6768290972332
 31
0.0
  0
LINE
  5
55B6
330
1BA
100
AcDbEntity
  8
1外形線
 62
     7
 48
3.0
100
AcDbLine
 10
212.4801279214905
 20
827.4768290972343
 30
0.0
 11
155.3112674147256
 21
827.4768290972343
 31
0.0
  0
ARC
  5
55B7
330
1BA
100
AcDbEntity
  8
1外形線
 62
     7
 48
3.0
100
AcDbCircle
 10
152.3752497409848
 20
817.3697436116244
 30
0.0
 40
7.2
100
AcDbArc
 50
135.0000000000092
 51
179.0000000000242
  0
ARC
  5
55B8
330
1BA
100
AcDbEntity
  8
1外形線
 62
     7
 48
3.0
100
AcDbCircle
 10
152.3752497409848
 20
817.3697436116244
 30
0.0
 40
5.0
100
AcDbArc
 50
135.0000000000092
 51
179.0000000000242
  0
LINE
  5
55B9
330
1BA
100
AcDbEntity
  8
1外形線
 62
     7
 48
3.0
100
AcDbLine
 10
154.3911664020459
 20
829.5679979217757
 30
0.0
 11
147.2840809164396
 21
822.4609124361695
 31
0.0
  0
LINE
  5
55BA
330
1BA
100
AcDbEntity
  8
1外形線
 62
     7
 48
3.0
100
AcDbLine
 10
155.9468013206576
 20
828.0123630031656
 30
0.0
 11
148.8397158350496
 21
820.9052775175596
 31
0.0
  0
ARC
  5
55BB
330
1BA
100
AcDbEntity
  8
1外形線
 62
     7
 48
3.0
100
AcDbCircle
 10
159.4823352265891
 20
824.4768290972322
 30
0.0
 40
5.0
100
AcDbArc
 50
90.0
 51
135.0000000000092
  0
ARC
  5
55BC
330
1BA
100
AcDbEntity
  8
1外形線
 62
     7
 48
3.0
100
AcDbCircle
 10
159.4823352265891
 20
824.4768290972322
 30
0.0
 40
7.2
100
AcDbArc
 50
90.0
 51
135.0000000000092
  0
LINE
  5
55BD
330
1BA
100
AcDbEntity
  8
1外形線
 62
     7
 48
3.0
100
AcDbLine
 10
159.4823352265891
 20
829.4768290972333
 30
0.0
 11
183.9456976681091
 21
829.4768290972342
 31
0.0
  0
LINE
  5
55BE
330
1BA
100
AcDbEntity
  8
1外形線
 62
     7
 48
3.0
100
AcDbLine
 10
134.445697668111
 20
831.6768290972349
 30
0.0
 11
183.9456976681091
 21
831.6768290972332
 31
0.0
  0
LINE
  5
55BF
330
1BA
100
AcDbEntity
  8
1外形線
 62
     7
 48
3.0
100
AcDbLine
 10
147.3760112652023
 20
817.4570056438124
 30
0.0
 11
146.568187778638
 21
771.1768290941481
 31
0.0
  0
LINE
  5
55C0
330
1BA
100
AcDbEntity
  8
1外形線
 62
     7
 48
3.0
100
AcDbLine
 10
146.568187778638
 20
771.1768290941481
 30
0.0
 11
146.2456976681085
 21
764.1768290941554
 31
0.0
  0
LINE
  5
55C1
330
1BA
100
AcDbEntity
  8
1外形線
 62
     7
 48
3.0
100
AcDbLine
 10
145.1763463358591
 20
817.4954009379733
 30
0.0
 11
144.2456976681085
 21
764.1768290941554
 31
0.0
  0
LINE
  5
55C7
330
1BA
100
AcDbEntity
  8
1外形線
 62
     7
 48
3.0
100
AcDbLine
 10
236.4456976681129
 20
764.1768290941645
 30
0.0
 11
183.9456976681091
 21
764.1768290941554
 31
0.0
  0
LINE
  5
55C9
330
1BA
100
AcDbEntity
  8
1外形線
 62
     7
 48
3.0
100
AcDbLine
 10
131.4456976681074
 20
764.1768290941554
 30
0.0
 11
183.9456976681091
 21
764.1768290941554
 31
0.0
  0
LINE
  5
55CA
330
1BA
100
AcDbEntity
  8
1外形線
 62
     7
 48
3.0
100
AcDbLine
 10
146.3470517028481
 20
766.3768290941541
 30
0.0
 11
183.9456976681091
 21
766.3768290941553
 31
0.0
  0
LINE
  5
55CD
330
1BA
100
AcDbEntity
  8
1外形線
 62
     7
 48
3.0
100
AcDbLine
 10
221.5443436333699
 20
766.376829094163
 30
0.0
 11
183.9456976681091
 21
766.3768290941553
 31
0.0
  0
LINE
  5
55D7
330
1BA
100
AcDbEntity
  8
1外形線
 62
     7
 48
3.0
100
AcDbLine
 10
146.5681877786398
 20
771.1768290941554
 30
0.0
 11
146.2456976681103
 21
764.1768290941554
 31
0.0
  0
LINE
  5
55D8
330
1BA
100
AcDbEntity
  8
1外形線
 62
     7
100
AcDbLine
 10
144.2456672024461
 20
764.1768290941554
 30
0.0
 11
146.2456976681103
 21
764.1768290941545
 31
0.0
  0
LINE
  5
55E6
330
1BA
100
AcDbEntity
  8
1外形線
 62
     7
100
AcDbLine
 10
222.3197781713068
 20
820.4039467109023
 30
0.0
 11
236.4456976681111
 21
820.4039467109023
 31
0.0
  0
LINE
  5
55E7
330
1BA
100
AcDbEntity
  8
1外形線
 62
     7
100
AcDbLine
 10
233.445697668111
 20
831.6768290972332
 30
0.0
 11
233.445697668111
 21
764.1768290941554
 31
0.0
  0
LINE
  5
55E8
330
1BA
100
AcDbEntity
  8
1外形線
 62
     7
100
AcDbLine
 10
236.4456976681111
 20
830.6768290972332
 30
0.0
 11
236.4456976681111
 21
764.1768290941554
 31
0.0
  0
LINE
  5
55E9
330
1BA
100
AcDbEntity
  8
1外形線
 62
     7
100
AcDbLine
 10
233.445697668111
 20
831.6768290972332
 30
0.0
 11
236.4456976681111
 21
830.6768290972332
 31
0.0
  0
LINE
  5
55EA
330
1BA
100
AcDbEntity
  8
1外形線
 62
     7
 48
3.0
100
AcDbLine
 10
233.4456976681074
 20
831.6768290972349
 30
0.0
 11
183.9456976681091
 21
831.6768290972332
 31
0.0
  0
TEXT
  5
57AD
330
1BA
100
AcDbEntity
  8
1外形線
 62
     7
100
AcDbText
 10
87.36841971011811
 20
645.8859703950666
 30
0.0
 40
10.0
  1
MT-85
  7
KANJI
100
AcDbText
  0
LINE
  5
57AE
330
1BA
100
AcDbEntity
  8
1外形線
  6
Continuous
 62
     7
370
    15
100
AcDbLine
 10
364.5890833233373
 20
607.7476019384123
 30
0.0
 11
319.4904083741371
 21
606.6879058600123
 31
0.0
  0
ARC
  5
57AF
330
1BA
100
AcDbEntity
  8
1外形線
  6
Continuous
 62
     7
370
    15
100
AcDbCircle
 10
319.6783350187373
 20
598.6901167728121
 30
0.0
 40
8.000000000000099
100
AcDbArc
 50
91.3460402122846
 51
135.0000000000092
  0
LINE
  5
57B0
330
1BA
100
AcDbEntity
  8
1外形線
  6
Continuous
 62
     7
370
    15
100
AcDbLine
 10
303.6302941275374
 20
593.9557874918124
 30
0.0
 11
314.021481050337
 21
604.3469706894123
 31
0.0
  0
ARC
  5
57B1
330
1BA
100
AcDbEntity
  8
1外形線
  6
Continuous
 62
     7
370
    15
100
AcDbCircle
 10
309.2871515107367
 20
588.2989332648125
 30
0.0
 40
8.000000000000023
100
AcDbArc
 50
135.0000000000092
 51
180.0
  0
LINE
  5
57B2
330
1BA
100
AcDbEntity
  8
1外形線
  6
Continuous
 62
     7
370
    15
100
AcDbLine
 10
301.2871535849376
 20
588.2989341736122
 30
0.0
 11
301.2871535849376
 21
542.2263505280124
 31
0.0
  0
LINE
  5
57B3
330
1BA
100
AcDbEntity
  8
1外形線
  6
Continuous
 62
     7
370
    15
100
AcDbLine
 10
319.4904083741371
 20
523.8373751164121
 30
0.0
 11
364.5871515107388
 21
522.777728155589
 31
0.0
  0
ARC
  5
57BD
330
1BA
100
AcDbEntity
  8
1外形線
  6
Continuous
 62
     7
370
    15
100
AcDbCircle
 10
319.6783350187373
 20
531.8351667548123
 30
0.0
 40
7.999999999999986
100
AcDbArc
 50
224.9999999999908
 51
268.6539597877154
  0
LINE
  5
57BE
330
1BA
100
AcDbEntity
  8
1外形線
  6
Continuous
 62
     7
370
    15
100
AcDbLine
 10
303.6302941275374
 20
536.5694972098122
 30
0.0
 11
314.021481050337
 21
526.1783140124124
 31
0.0
  0
ARC
  5
57BF
330
1BA
100
AcDbEntity
  8
1外形線
  6
Continuous
 62
     7
370
    15
100
AcDbCircle
 10
309.2871515107367
 20
542.2263502628121
 30
0.0
 40
8.000000000000062
100
AcDbArc
 50
180.0
 51
224.9999999999908
  0
LINE
  5
57C0
330
1BA
100
AcDbEntity
  8
1外形線
  6
Continuous
 62
     7
370
    15
100
AcDbLine
 10
364.5890833233528
 20
607.748209769623
 30
0.0
 11
371.5871515107289
 21
607.8626423508226
 31
0.0
  0
LINE
  5
57C1
330
1BA
100
AcDbEntity
  8
1外形線
  6
Continuous
 62
     7
370
    15
100
AcDbLine
 10
371.5871515107378
 20
522.4126423508123
 30
0.0
 11
364.5871515107378
 21
522.7777281555893
 31
0.0
  0
ARC
  5
57C2
330
1BA
100
AcDbEntity
  8
1外形線
  6
Continuous
 62
     7
370
    15
100
AcDbCircle
 10
309.2871515107367
 20
542.2263502628121
 30
0.0
 40
10.20000000000009
100
AcDbArc
 50
180.0
 51
224.9999999999908
  0
LINE
  5
57C3
330
1BA
100
AcDbEntity
  8
1外形線
  6
Continuous
 62
     7
370
    15
100
AcDbLine
 10
299.0871535969366
 20
542.2263505280124
 30
0.0
 11
299.0871535969366
 21
588.2989341736122
 31
0.0
  0
ARC
  5
57C4
330
1BA
100
AcDbEntity
  8
1外形線
  6
Continuous
 62
     7
370
    15
100
AcDbCircle
 10
309.2871515107367
 20
588.2989332648125
 30
0.0
 40
10.20000000000002
100
AcDbArc
 50
135.0000000000092
 51
180.0
  0
LINE
  5
57C5
330
1BA
100
AcDbEntity
  8
1外形線
  6
Continuous
 62
     7
370
    15
100
AcDbLine
 10
302.0746650529367
 20
595.5114240170123
 30
0.0
 11
312.4658445251375
 21
605.9026072146123
 31
0.0
  0
LINE
  5
57C6
330
1BA
100
AcDbEntity
  8
1外形線
  6
Continuous
 62
     7
370
    15
100
AcDbLine
 10
312.4658420835789
 20
524.6226799287714
 30
0.0
 11
302.0746650529367
 21
535.0138606848121
 31
0.0
  0
ARC
  5
57C7
330
1BA
100
AcDbEntity
  8
1外形線
  6
Continuous
 62
     7
370
    15
100
AcDbCircle
 10
319.6783350187373
 20
598.6901167728121
 30
0.0
 40
10.20000000000017
100
AcDbArc
 50
91.3460402122846
 51
135.0000000000092
  0
LINE
  5
57C8
330
1BA
100
AcDbEntity
  8
1外形線
  6
Continuous
 62
     7
370
    15
100
AcDbLine
 10
371.5871515107378
 20
520.4126412392122
 30
0.0
 11
319.4387273875804
 21
521.6379824389512
 31
0.0
  0
ARC
  5
57C9
330
1BA
100
AcDbEntity
  8
1外形線
  6
Continuous
 62
     7
370
    15
100
AcDbCircle
 10
319.6783325445762
 20
531.835167803979
 30
0.0
 40
10.2
100
AcDbArc
 50
224.9999897292712
 51
268.6539581234293
  0
LINE
  5
57CA
330
1BA
100
AcDbEntity
  8
1外形線
  6
Continuous
 62
     7
370
    15
100
AcDbLine
 10
319.4387311471368
 20
608.8873023510122
 30
0.0
 11
371.5871515107378
 21
610.1126397372122
 31
0.0
  0
LINE
  5
57CB
330
1BA
100
AcDbEntity
  8
1外形線
  6
Continuous
 62
     7
370
    15
100
AcDbLine
 10
303.2871501875374
 20
593.5904343865736
 30
0.0
 11
303.2871501875374
 21
536.934849141051
 31
0.0
  0
LINE
  5
57CC
330
1BA
100
AcDbEntity
  8
1外形線
  6
Continuous
 62
     7
370
    15
100
AcDbLine
 10
299.0871535969366
 20
539.2388390720123
 30
0.0
 11
299.0871535969366
 21
542.2263505280124
 31
0.0
  0
LINE
  5
57CD
330
1BA
100
AcDbEntity
  8
1外形線
  6
Continuous
 62
     7
370
    15
100
AcDbLine
 10
299.0871535969376
 20
498.1126417471783
 30
0.0
 11
299.0871535969366
 21
539.2388390720123
 31
0.0
  0
LINE
  5
57CE
330
1BA
100
AcDbEntity
  8
1外形線
  6
Continuous
 62
     7
370
    15
100
AcDbLine
 10
299.0871535969366
 20
498.1126417471783
 30
0.0
 11
371.5871515107378
 21
498.112641747178
 31
0.0
  0
LINE
  5
57CF
330
1BA
100
AcDbEntity
  8
1外形線
  6
Continuous
 62
     7
370
    15
100
AcDbLine
 10
371.5871515107378
 20
495.112641721178
 30
0.0
 11
300.0871481729377
 21
495.112641721178
 31
0.0
  0
LINE
  5
57D0
330
1BA
100
AcDbEntity
  8
1外形線
  6
Continuous
 62
     7
370
    15
100
AcDbLine
 10
299.0871535969366
 20
498.112641747178
 30
0.0
 11
300.0871481729377
 21
495.112641721178
 31
0.0
  0
LINE
  5
57D1
330
1BA
100
AcDbEntity
  8
1外形線
  6
Continuous
 62
     7
370
    15
100
AcDbLine
 10
371.5871515107378
 20
610.1126397372122
 30
0.0
 11
371.5871515107378
 21
608.112640018222
 31
0.0
  0
LINE
  5
57D2
330
1BA
100
AcDbEntity
  8
1外形線
  6
Continuous
 62
     7
370
    15
100
AcDbLine
 10
371.5871515107378
 20
522.4126423508127
 30
0.0
 11
371.5871515107388
 21
495.112641721178
 31
0.0
  0
LINE
  5
57D3
330
1BA
100
AcDbEntity
  8
1外形線
 62
     7
 48
3.0
100
AcDbLine
 10
315.3545723897891
 20
495.112641721178
 30
0.0
 11
315.3545723897909
 21
522.5969267309234
 31
0.0
  0
LINE
  5
57DE
330
1BA
100
AcDbEntity
  8
1外形線
  6
Continuous
 62
     7
370
    15
100
AcDbLine
 10
141.1226347573573
 20
520.4126423508126
 30
0.0
 11
134.3726249093423
 21
520.4126423508126
 31
0.0
  0
ARC
  5
57DF
330
1BA
100
AcDbEntity
  8
1外形線
  6
Continuous
 62
     7
370
    15
100
AcDbCircle
 10
141.1226347573573
 20
517.4126423508126
 30
0.0
 40
3.0
100
AcDbArc
 50
0.0000251122088212
 51
90.0
  0
LINE
  5
57E0
330
1BA
100
AcDbEntity
  8
1外形線
  6
Continuous
 62
     7
370
    15
100
AcDbLine
 10
131.372626280342
 20
521.4129200490127
 30
0.0
 11
134.3726249093423
 21
520.4126423508126
 31
0.0
  0
LINE
  5
57E1
330
1BA
100
AcDbEntity
  8
1外形線
  6
Continuous
 62
     7
370
    15
100
AcDbLine
 10
131.3726262803429
 20
609.1126370756234
 30
0.0
 11
131.3726262803421
 21
521.4129200490126
 31
0.0
  0
LINE
  5
57E2
330
1BA
100
AcDbEntity
  8
1外形線
  6
Continuous
 62
     7
370
    15
100
AcDbLine
 10
236.8226221393888
 20
520.4126419043445
 30
0.0
 11
243.5726306144869
 21
520.4126422134382
 31
0.0
  0
ARC
  5
57E3
330
1BA
100
AcDbEntity
  8
1外形線
  6
Continuous
 62
     7
370
    15
100
AcDbCircle
 10
236.8226222767634
 20
517.4126419043445
 30
0.0
 40
3.0
100
AcDbArc
 50
90.00000262364475
 51
179.999977511462
  0
LINE
  5
57E4
330
1BA
100
AcDbEntity
  8
1外形線
  6
Continuous
 62
     7
370
    15
100
AcDbLine
 10
243.5726306144869
 20
520.4126422134382
 30
0.0
 11
246.5726305686958
 21
521.4126423508126
 31
0.0
  0
LINE
  5
57E5
330
1BA
100
AcDbEntity
  8
1外形線
  6
Continuous
 62
     7
370
    15
100
AcDbLine
 10
243.5726265069825
 20
610.1126422134378
 30
0.0
 11
134.372626280342
 21
610.1126372129983
 31
0.0
  0
LINE
  5
57E6
330
1BA
100
AcDbEntity
  8
1外形線
  6
Continuous
 62
     7
370
    15
100
AcDbLine
 10
232.822611757787
 20
495.1126417211782
 30
0.0
 11
145.1226465035496
 21
495.1126377052587
 31
0.0
  0
LINE
  5
57E7
330
1BA
100
AcDbEntity
  8
1外形線
  6
Continuous
 62
     7
370
    15
100
AcDbLine
 10
246.5726265527746
 20
609.1126423508123
 30
0.0
 11
246.5726305686958
 21
521.4126423508126
 31
0.0
  0
LINE
  5
57E8
330
1BA
100
AcDbEntity
  8
1外形線
 62
     7
 48
3.0
100
AcDbLine
 10
145.1226465035496
 20
495.1126377052587
 30
0.0
 11
144.1226451886778
 21
498.1126376594669
 31
0.0
  0
LINE
  5
57E9
330
1BA
100
AcDbEntity
  8
1外形線
 62
     7
 48
3.0
100
AcDbLine
 10
232.8226117577878
 20
495.1126417211782
 30
0.0
 11
233.8226129352862
 21
498.1126417669697
 31
0.0
  0
LINE
  5
57EA
330
1BA
100
AcDbEntity
  8
1外形線
 62
     7
 48
3.0
100
AcDbLine
 10
131.3726262803429
 20
609.1126370756234
 30
0.0
 11
134.3726262803429
 21
610.1126372129983
 31
0.0
  0
LINE
  5
57EB
330
1BA
100
AcDbEntity
  8
1外形線
 62
     7
 48
3.0
100
AcDbLine
 10
246.5726265527746
 20
609.1126423508123
 30
0.0
 11
243.5726265069834
 21
610.1126422134378
 31
0.0
  0
LINE
  5
57EC
330
1BA
100
AcDbEntity
  8
1外形線
 62
     7
 48
3.0
100
AcDbLine
 10
134.372626280342
 20
610.1126372129983
 30
0.0
 11
134.3726249093424
 21
520.4126423508125
 31
0.0
  0
LINE
  5
57ED
330
1BA
100
AcDbEntity
  8
1外形線
 62
     7
 48
3.0
100
AcDbLine
 10
243.5726355315765
 20
378.289546653471
 30
0.0
 11
243.5726322116872
 21
450.7895445672716
 31
0.0
  0
LINE
  5
57EE
330
1BA
100
AcDbEntity
  8
1外形線
 62
     7
 48
3.0
100
AcDbLine
 10
144.1226451886778
 20
498.1126376594669
 30
0.0
 11
233.8226129352862
 21
498.1126417669697
 31
0.0
  0
LINE
  5
57EF
330
1BA
100
AcDbEntity
  8
1外形線
 62
     7
 48
3.0
100
AcDbLine
 10
131.3726262803429
 20
592.5239094037423
 30
0.0
 11
246.5726273123991
 21
592.5239094037423
 31
0.0
  0
LINE
  5
57F0
330
1BA
100
AcDbEntity
  8
1外形線
 62
     7
 48
3.0
100
AcDbLine
 10
131.372626280342
 20
538.0013780214034
 30
0.0
 11
151.711368070717
 21
538.0013780214034
 31
0.0
  0
ARC
  5
57F1
330
1BA
100
AcDbEntity
  8
1外形線
 62
     7
 48
3.0
100
AcDbCircle
 10
151.711368070717
 20
528.0013780214034
 30
0.0
 40
10.0
100
AcDbArc
 50
0.0
 51
90.0
  0
LINE
  5
57F2
330
1BA
100
AcDbEntity
  8
1外形線
 62
     7
 48
3.0
100
AcDbLine
 10
226.2338994530555
 20
538.0013780214037
 30
0.0
 11
246.5726298090713
 21
538.0013780214034
 31
0.0
  0
LINE
  5
57F3
330
1BA
100
AcDbEntity
  8
1外形線
 62
     7
 48
3.0
100
AcDbLine
 10
161.711368070717
 20
495.1126384648818
 30
0.0
 11
161.711368070717
 21
528.0013780214034
 31
0.0
  0
LINE
  5
57F4
330
1BA
100
AcDbEntity
  8
1外形線
 62
     7
 48
3.0
100
AcDbLine
 10
216.2338994530557
 20
495.1126409615548
 30
0.0
 11
216.2338994530557
 21
528.0013780214037
 31
0.0
  0
ARC
  5
57F5
330
1BA
100
AcDbEntity
  8
1外形線
 62
     7
 48
3.0
100
AcDbCircle
 10
226.2338994530555
 20
528.0013780214037
 30
0.0
 40
10.0
100
AcDbArc
 50
90.0
 51
180.0
  0
LINE
  5
583C
330
1BA
100
AcDbEntity
  8
1外形線
 62
     7
 48
3.0
100
AcDbLine
 10
144.1226451886778
 20
498.1126376594669
 30
0.0
 11
144.1226347573565
 21
517.4126436656847
 31
0.0
  0
LINE
  5
583D
330
1BA
100
AcDbEntity
  8
1外形線
 62
     7
 48
3.0
100
AcDbLine
 10
233.8226222767636
 20
517.4126419043445
 30
0.0
 11
233.8226129352862
 21
498.1126417669697
 31
0.0
  0
LINE
  5
5B5A
330
1BA
100
AcDbEntity
  8
1外形線
 62
     7
 48
3.0
100
AcDbLine
 10
371.5871515107289
 20
607.8626423508226
 30
0.0
 11
371.587151510738
 21
565.2626423508123
 31
0.0
  0
LINE
  5
5B5D
330
1BA
100
AcDbEntity
  8
1外形線
 62
     7
 48
3.0
100
AcDbLine
 10
371.587151510738
 20
502.1126412152195
 30
0.0
 11
371.587151510738
 21
565.2626423508118
 31
0.0
  0
LINE
  5
5B60
330
1BA
100
AcDbEntity
  8
1外形線
 62
     7
 48
3.0
100
AcDbLine
 10
369.387151510739
 20
522.5273836037422
 30
0.0
 11
369.3871515107373
 21
528.1978376950466
 31
0.0
  0
LINE
  5
5B61
330
1BA
100
AcDbEntity
  8
1外形線
 62
     7
 48
3.0
100
AcDbLine
 10
369.3871515107382
 20
528.1978376950466
 30
0.0
 11
369.3871515107373
 21
565.2626423508118
 31
0.0
  0
LINE
  5
5B65
330
1BA
100
AcDbEntity
  8
1外形線
 62
     7
 48
3.0
100
AcDbLine
 10
369.3871515107299
 20
607.8266678973165
 30
0.0
 11
369.3871515107373
 21
565.2626423508118
 31
0.0
  0
LINE
  5
5CDE
330
1BA
100
AcDbEntity
  8
1外形線
  6
Continuous
 62
     7
370
    15
100
AcDbLine
 10
188.9726263936625
 20
448.5895445792714
 30
0.0
 11
165.9363345708624
 21
448.5895445792714
 31
0.0
  0
LINE
  5
5CDF
330
1BA
100
AcDbEntity
  8
1外形線
  6
Continuous
 62
     7
370
    15
100
AcDbLine
 10
147.5473591592623
 20
430.3862897900719
 30
0.0
 11
146.4877121984391
 21
385.2895466534704
 31
0.0
  0
ARC
  5
5CEA
330
1BA
100
AcDbEntity
  8
1外形線
  6
Continuous
 62
     7
370
    15
100
AcDbCircle
 10
155.5451507976622
 20
430.1983631454716
 30
0.0
 40
7.999999999999986
100
AcDbArc
 50
134.9999999999908
 51
178.6539597877153
  0
LINE
  5
5CEB
330
1BA
100
AcDbEntity
  8
1外形線
  6
Continuous
 62
     7
370
    15
100
AcDbLine
 10
160.2794812526622
 20
446.2464040366715
 30
0.0
 11
149.8882980552624
 21
435.8552171138719
 31
0.0
  0
ARC
  5
5CEC
330
1BA
100
AcDbEntity
  8
1外形線
  6
Continuous
 62
     7
370
    15
100
AcDbCircle
 10
165.9363343056626
 20
440.5895466534722
 30
0.0
 40
8.000000000000062
100
AcDbArc
 50
90.0
 51
134.9999999999908
  0
LINE
  5
5CEE
330
1BA
100
AcDbEntity
  8
1外形線
  6
Continuous
 62
     7
370
    15
100
AcDbLine
 10
146.1226263936623
 20
378.2895466534712
 30
0.0
 11
146.4877121984393
 21
385.2895466534712
 31
0.0
  0
ARC
  5
5CEF
330
1BA
100
AcDbEntity
  8
1外形線
  6
Continuous
 62
     7
370
    15
100
AcDbCircle
 10
165.9363343056626
 20
440.5895466534722
 30
0.0
 40
10.20000000000009
100
AcDbArc
 50
90.0
 51
134.9999999999908
  0
LINE
  5
5CF0
330
1BA
100
AcDbEntity
  8
1外形線
  6
Continuous
 62
     7
370
    15
100
AcDbLine
 10
165.9363345708624
 20
450.7895445672723
 30
0.0
 11
188.9726263936625
 21
450.7895445672723
 31
0.0
  0
LINE
  5
5CF4
330
1BA
100
AcDbEntity
  8
1外形線
  6
Continuous
 62
     7
370
    15
100
AcDbLine
 10
148.3326639716214
 20
437.41085608063
 30
0.0
 11
158.7238447276622
 21
447.8020331112722
 31
0.0
  0
LINE
  5
5CF6
330
1BA
100
AcDbEntity
  8
1外形線
  6
Continuous
 62
     7
370
    15
100
AcDbLine
 10
144.1226252820622
 20
378.2895466534712
 30
0.0
 11
145.3479664818012
 21
430.4379707766286
 31
0.0
  0
ARC
  5
5CF7
330
1BA
100
AcDbEntity
  8
1外形線
  6
Continuous
 62
     7
370
    15
100
AcDbCircle
 10
155.5451518468293
 20
430.1983656196328
 30
0.0
 40
10.2
100
AcDbArc
 50
134.9999897292712
 51
178.6539581234293
  0
LINE
  5
5CFA
330
1BA
100
AcDbEntity
  8
1外形線
  6
Continuous
 62
     7
370
    15
100
AcDbLine
 10
188.9726263936625
 20
446.5895479766714
 30
0.0
 11
160.6448331839011
 21
446.5895479766715
 31
0.0
  0
LINE
  5
5CFB
330
1BA
100
AcDbEntity
  8
1外形線
  6
Continuous
 62
     7
370
    15
100
AcDbLine
 10
162.9488231148624
 20
450.7895445672723
 30
0.0
 11
165.9363345708624
 21
450.7895445672723
 31
0.0
  0
LINE
  5
5CFF
330
1BA
100
AcDbEntity
  8
1外形線
  6
Continuous
 62
     7
370
    15
100
AcDbLine
 10
134.3726243762296
 20
450.7895445672716
 30
0.0
 11
131.3726243502294
 21
449.7895499912707
 31
0.0
  0
LINE
  5
5D01
330
1BA
100
AcDbEntity
  8
1外形線
  6
Continuous
 62
     7
370
    15
100
AcDbLine
 10
146.1226263936628
 20
378.2895466534712
 30
0.0
 11
131.3726262803405
 21
378.2895466534705
 31
0.0
  0
LINE
  5
5D14
330
1BA
100
AcDbEntity
  8
1外形線
 62
     7
 48
3.0
100
AcDbLine
 10
131.3726262803404
 20
378.2895466534712
 30
0.0
 11
188.9726263936618
 21
378.2895466534708
 31
0.0
  0
LINE
  5
5D15
330
1BA
100
AcDbEntity
  8
1外形線
 62
     7
 48
3.0
100
AcDbLine
 10
146.2373676465922
 20
380.4895466534702
 30
0.0
 11
151.9078217378965
 21
380.4895466534714
 31
0.0
  0
LINE
  5
5D16
330
1BA
100
AcDbEntity
  8
1外形線
 62
     7
 48
3.0
100
AcDbLine
 10
151.9078217378965
 20
380.4895466534705
 30
0.0
 11
188.9726263936618
 21
380.4895466534714
 31
0.0
  0
LINE
  5
5D2F
330
1BA
100
AcDbEntity
  8
1外形線
  6
Continuous
 62
     7
370
    15
100
AcDbLine
 10
188.9726263936625
 20
448.5895445792714
 30
0.0
 11
212.0089182164622
 21
448.5895445792714
 31
0.0
  0
LINE
  5
5D30
330
1BA
100
AcDbEntity
  8
1外形線
  6
Continuous
 62
     7
370
    15
100
AcDbLine
 10
230.3978936280623
 20
430.3862897900719
 30
0.0
 11
231.4575405888855
 21
385.2895466534704
 31
0.0
  0
ARC
  5
5D36
330
1BA
100
AcDbEntity
  8
1外形線
  6
Continuous
 62
     7
370
    15
100
AcDbCircle
 10
222.4001019896624
 20
430.1983631454716
 30
0.0
 40
7.999999999999986
100
AcDbArc
 50
1.34604021228466
 51
45.00000000000919
  0
LINE
  5
5D37
330
1BA
100
AcDbEntity
  8
1外形線
  6
Continuous
 62
     7
370
    15
100
AcDbLine
 10
217.6657715346623
 20
446.2464040366715
 30
0.0
 11
228.0569547320623
 21
435.8552171138719
 31
0.0
  0
ARC
  5
5D38
330
1BA
100
AcDbEntity
  8
1外形線
  6
Continuous
 62
     7
370
    15
100
AcDbCircle
 10
212.0089184816621
 20
440.5895466534722
 30
0.0
 40
8.000000000000062
100
AcDbArc
 50
45.00000000000919
 51
90.0
  0
LINE
  5
5D39
330
1BA
100
AcDbEntity
  8
1外形線
  6
Continuous
 62
     7
370
    15
100
AcDbLine
 10
231.8226263936623
 20
378.2895466534712
 30
0.0
 11
231.4575405888852
 21
385.2895466534712
 31
0.0
  0
ARC
  5
5D3A
330
1BA
100
AcDbEntity
  8
1外形線
  6
Continuous
 62
     7
370
    15
100
AcDbCircle
 10
212.0089184816621
 20
440.5895466534722
 30
0.0
 40
10.20000000000009
100
AcDbArc
 50
45.00000000000919
 51
90.0
  0
LINE
  5
5D3B
330
1BA
100
AcDbEntity
  8
1外形線
  6
Continuous
 62
     7
370
    15
100
AcDbLine
 10
212.0089182164622
 20
450.7895445672723
 30
0.0
 11
188.9726263936625
 21
450.7895445672723
 31
0.0
  0
LINE
  5
5D3C
330
1BA
100
AcDbEntity
  8
1外形線
  6
Continuous
 62
     7
370
    15
100
AcDbLine
 10
229.6125888157034
 20
437.41085608063
 30
0.0
 11
219.2214080596624
 21
447.8020331112722
 31
0.0
  0
LINE
  5
5D3D
330
1BA
100
AcDbEntity
  8
1外形線
  6
Continuous
 62
     7
370
    15
100
AcDbLine
 10
233.8226275052622
 20
378.2895466534712
 30
0.0
 11
232.5972863055234
 21
430.4379707766286
 31
0.0
  0
ARC
  5
5D3E
330
1BA
100
AcDbEntity
  8
1外形線
  6
Continuous
 62
     7
370
    15
100
AcDbCircle
 10
222.4001009404954
 20
430.1983656196328
 30
0.0
 40
10.2
100
AcDbArc
 50
1.34604187657071
 51
45.00001027072874
  0
LINE
  5
5D3F
330
1BA
100
AcDbEntity
  8
1外形線
  6
Continuous
 62
     7
370
    15
100
AcDbLine
 10
188.9726263936625
 20
446.5895479766714
 30
0.0
 11
217.3004196034236
 21
446.5895479766715
 31
0.0
  0
LINE
  5
5D40
330
1BA
100
AcDbEntity
  8
1外形線
  6
Continuous
 62
     7
370
    15
100
AcDbLine
 10
214.9964296724622
 20
450.7895445672723
 30
0.0
 11
212.0089182164622
 21
450.7895445672723
 31
0.0
  0
LINE
  5
5D44
330
1BA
100
AcDbEntity
  8
1外形線
  6
Continuous
 62
     7
370
    15
100
AcDbLine
 10
243.5726322116845
 20
450.7895445672726
 30
0.0
 11
246.5726322376844
 21
449.7895499912716
 31
0.0
  0
LINE
  5
5D45
330
1BA
100
AcDbEntity
  8
1外形線
  6
Continuous
 62
     7
370
    15
100
AcDbLine
 10
231.8226263936622
 20
378.2895466534712
 30
0.0
 11
246.5726355315767
 21
378.2895466534707
 31
0.0
  0
LINE
  5
5D4B
330
1BA
100
AcDbEntity
  8
1外形線
 62
     7
 48
3.0
100
AcDbLine
 10
246.5726355315767
 20
378.289546653471
 30
0.0
 11
188.9726263936627
 21
378.2895466534708
 31
0.0
  0
LINE
  5
5D4C
330
1BA
100
AcDbEntity
  8
1外形線
 62
     7
 48
3.0
100
AcDbLine
 10
231.7078851407323
 20
380.4895466534702
 30
0.0
 11
226.0374310494281
 21
380.4895466534714
 31
0.0
  0
LINE
  5
5D4D
330
1BA
100
AcDbEntity
  8
1外形線
 62
     7
 48
3.0
100
AcDbLine
 10
226.0374310494281
 20
380.4895466534705
 30
0.0
 11
188.9726263936627
 21
380.4895466534714
 31
0.0
  0
LINE
  5
5D68
330
1BA
100
AcDbEntity
  8
1外形線
  6
Continuous
 62
     7
370
    15
100
AcDbLine
 10
134.3726243762297
 20
450.7895445672716
 30
0.0
 11
162.9488231148624
 21
450.7895445672723
 31
0.0
  0
LINE
  5
5D69
330
1BA
100
AcDbEntity
  8
1外形線
 62
     7
 48
3.0
100
AcDbLine
 10
131.3726262803411
 20
434.5221257744189
 30
0.0
 11
146.3069107737736
 21
434.5221257744181
 31
0.0
  0
LINE
  5
5D6C
330
1BA
100
AcDbEntity
  8
1外形線
 62
     7
 48
3.0
100
AcDbLine
 10
246.5726329565982
 20
434.5221257744192
 30
0.0
 11
231.6383420135511
 21
434.5221257744181
 31
0.0
  0
LINE
  5
5D6D
330
1BA
100
AcDbEntity
  8
1外形線
  6
Continuous
 62
     7
370
    15
100
AcDbLine
 10
243.5726322116872
 20
450.7895445672716
 30
0.0
 11
214.9964296724622
 21
450.7895445672723
 31
0.0
  0
LINE
  5
5D6E
330
1BA
100
AcDbEntity
  8
1外形線
  6
Continuous
 62
     7
370
    15
100
AcDbLine
 10
131.3726262803412
 20
449.7895506346379
 30
0.0
 11
131.3726262803405
 21
378.2895466534709
 31
0.0
  0
LINE
  5
5D6F
330
1BA
100
AcDbEntity
  8
1外形線
 62
     7
 48
3.0
100
AcDbLine
 10
134.3726243762296
 20
450.7895445672718
 30
0.0
 11
134.3726232681194
 21
378.2895466534711
 31
0.0
  0
LINE
  5
5D70
330
1BA
100
AcDbEntity
  8
1外形線
 62
     7
 48
3.0
100
AcDbLine
 10
243.572630614487
 20
520.4126422134382
 30
0.0
 11
243.5726265069825
 21
610.1126422134378
 31
0.0
  0
LINE
  5
5D71
330
1BA
100
AcDbEntity
  8
1外形線
  6
Continuous
 62
     7
370
    15
100
AcDbLine
 10
246.5726322376844
 20
449.7895499912716
 30
0.0
 11
246.5726355315767
 21
378.2895466534711
 31
0.0
  0
LWPOLYLINE
  5
5D7F
330
1BA
100
AcDbEntity
  8
2寸法線
 62
     7
100
AcDbPolyline
 90
        4
 70
     1
 43
0.0
 10
18.51647575895004
 20
1083.918338470307
 10
453.7232659832406
 20
1083.918338470307
 10
453.7232659832406
 20
287.5215568665417
 10
18.51647575895004
 20
287.5215568665417
  0
LINE
  5
5D81
330
1BA
100
AcDbEntity
  8
2寸法線
 62
     7
100
AcDbLine
 10
18.51647575895004
 20
685.7199476684245
 30
0.0
 11
453.7232659832406
 21
685.7199476684245
 31
0.0
  0
ENDSEC
  0
SECTION
  2
OBJECTS
  0
DICTIONARY
  5
1A8
330
0
100
AcDbDictionary
281
     1
  3
ACAD_COLOR
350
321
  3
ACAD_GROUP
350
1A9
  3
ACAD_LAYOUT
350
1B5
  3
ACAD_MATERIAL
350
320
  3
ACAD_MLINESTYLE
350
1B2
  3
ACAD_PLOTSETTINGS
350
1B4
  3
ACAD_PLOTSTYLENAME
350
1AA
  3
ACAD_TABLESTYLE
350
322
  3
ACDBHEADERROUNDTRIPXREC
350
5DA8
  3
AcDbVariableDictionary
350
26D
  0
DICTIONARY
  5
389
330
19E
100
AcDbDictionary
280
     1
281
     1
  3
ACAD_LAYERSTATES
360
38A
  0
DICTIONARY
  5
5CD3
330
1BA
100
AcDbDictionary
280
     1
281
     1
  3
ACAD_SORTENTS
360
5CD4
  0
DICTIONARY
  5
321
102
{ACAD_REACTORS
330
1A8
102
}
330
1A8
100
AcDbDictionary
281
     1
  0
DICTIONARY
  5
1A9
102
{ACAD_REACTORS
330
1A8
102
}
330
1A8
100
AcDbDictionary
281
     1
  0
DICTIONARY
  5
1B5
102
{ACAD_REACTORS
330
1A8
102
}
330
1A8
100
AcDbDictionary
281
     1
  3
Model
350
1BD
  3
ﾚｲｱｳﾄ1
350
1B9
  0
DICTIONARY
  5
320
102
{ACAD_REACTORS
330
1A8
102
}
330
1A8
100
AcDbDictionary
281
     1
  0
DICTIONARY
  5
1B2
102
{ACAD_REACTORS
330
1A8
102
}
330
1A8
100
AcDbDictionary
281
     1
  3
Standard
350
1B3
  0
DICTIONARY
  5
1B4
102
{ACAD_REACTORS
330
1A8
102
}
330
1A8
100
AcDbDictionary
281
     1
  0
ACDBDICTIONARYWDFLT
  5
1AA
102
{ACAD_REACTORS
330
1A8
102
}
330
1A8
100
AcDbDictionary
281
     1
  3
Normal
350
1AB
100
AcDbDictionaryWithDefault
340
1AB
  0
DICTIONARY
  5
322
102
{ACAD_REACTORS
330
1A8
102
}
330
1A8
100
AcDbDictionary
281
     1
  3
Standard
350
323
  0
DICTIONARY
  5
5DA8
102
{ACAD_REACTORS
330
1A8
102
}
330
1A8
100
AcDbDictionary
281
     1
  0
DICTIONARY
  5
26D
102
{ACAD_REACTORS
330
1A8
102
}
330
1A8
100
AcDbDictionary
281
     1
  3
CTABLESTYLE
350
54C5
  3
DIMASSOC
350
26E
  3
PROJECTNAME
350
54C6
  0
DICTIONARY
  5
38A
102
{ACAD_REACTORS
330
389
102
}
330
389
100
AcDbDictionary
281
     1
  0
SORTENTSTABLE
  5
5CD4
102
{ACAD_REACTORS
330
5CD3
102
}
330
5CD3
100
AcDbSortentsTable
330
1BA
331
57BD
  5
57BD
331
57BE
  5
57BE
331
57BF
  5
57BF
331
57C0
  5
57C0
331
57C1
  5
57C1
331
57DE
  5
57DE
331
57C2
  5
57C2
331
57DF
  5
57DF
331
57C3
  5
57C3
331
57E0
  5
57E0
331
57C4
  5
57C4
331
57E1
  5
57E1
331
57C5
  5
57C5
331
57E2
  5
57E3
331
57C6
  5
57C6
331
57E3
  5
57E4
331
57C7
  5
57C7
331
57C8
  5
57C8
331
57E4
  5
57E5
331
57E5
  5
57E6
331
57AD
  5
57AD
331
57C9
  5
57C9
331
57E6
  5
57E7
331
57CA
  5
57CA
331
57AE
  5
57AE
331
57E7
  5
57E8
331
57AF
  5
57AF
331
57CB
  5
57CB
331
583C
  5
5B5D
331
57E8
  5
57EA
331
57B0
  5
57B0
331
57CC
  5
57CC
331
583D
  5
5B60
331
57E9
  5
57EB
331
57B1
  5
57B1
331
57CD
  5
57CD
331
57EA
  5
57EC
331
57CE
  5
57CE
331
57B2
  5
57B2
331
57EB
  5
57ED
331
57B3
  5
57B3
331
57CF
  5
57CF
331
57EC
  5
57EE
331
57D0
  5
57D0
331
57ED
  5
57F0
331
57D1
  5
57D1
331
5CFA
  5
5D02
331
5CDE
  5
5CEC
331
57EE
  5
57F2
331
57D2
  5
57D2
331
5CFB
  5
5D14
331
5CDF
  5
5CEE
331
57EF
  5
57F3
331
57D3
  5
57D3
331
57F0
  5
57F4
331
57F1
  5
57F5
331
57F2
  5
5833
331
5CFF
  5
5D16
331
57F3
  5
583C
331
5D40
  5
5D68
331
57F4
  5
583D
331
5D01
  5
5D2F
331
57F5
  5
5B59
331
5D44
  5
5D6A
331
5D45
  5
5D6B
331
5CEA
  5
5CEF
331
5CEB
  5
5CF0
331
5CEC
  5
5CF4
331
5CEE
  5
5CF6
331
5D4B
  5
5D6F
331
5D2F
  5
5D3B
331
5CEF
  5
5CF7
331
5D4C
  5
5D70
331
5D30
  5
5D3C
331
5D14
  5
5D38
331
5CF0
  5
5CFA
331
5D4D
  5
5D71
331
5D15
  5
5D39
331
5D16
  5
5D3A
331
5CF4
  5
5CFB
331
5D36
  5
5D3D
331
5CF6
  5
5CFD
331
5D37
  5
5D3E
331
5CF7
  5
5D01
331
5D38
  5
5D3F
331
5D39
  5
5D40
331
5D3A
  5
5D41
331
5D3B
  5
5D42
331
5D3C
  5
5D43
331
5D3D
  5
5D45
331
5D3E
  5
5D48
331
5D3F
  5
5D4B
331
5D68
  5
5D15
331
5D69
  5
5D30
331
5D6D
  5
5D69
331
5D6E
  5
57E2
331
5D6F
  5
57EF
331
5D70
  5
57F1
331
5D71
  5
57E9
331
5558
  5
5558
331
5559
  5
5559
331
555A
  5
555A
331
555B
  5
555B
331
5578
  5
5578
331
555C
  5
555C
331
5579
  5
5579
331
555D
  5
555D
331
557A
  5
557A
331
555E
  5
555E
331
555F
  5
555F
331
557B
  5
557B
331
557C
  5
557C
331
5560
  5
5560
331
5591
  5
5591
331
5561
  5
5561
331
557D
  5
557D
331
557E
  5
557E
331
5562
  5
5562
331
5593
  5
5593
331
5563
  5
5563
331
557F
  5
557F
331
55B0
  5
55B0
331
5594
  5
5594
331
5580
  5
5580
331
5564
  5
5564
331
5581
  5
5581
331
5565
  5
5565
331
55B1
  5
55B1
331
55B2
  5
55B2
331
5582
  5
5582
331
5566
  5
5566
331
55B3
  5
55B3
331
5583
  5
5583
331
5567
  5
5567
331
5597
  5
5597
331
55B4
  5
55B4
331
5584
  5
5584
331
5568
  5
5568
331
55B5
  5
55B5
331
5569
  5
5569
331
5585
  5
5585
331
55B6
  5
55B6
331
5586
  5
5586
331
556A
  5
556A
331
5587
  5
5587
331
556B
  5
556B
331
55B7
  5
55B7
331
55B8
  5
55B8
331
5588
  5
5588
331
556C
  5
556C
331
5589
  5
5589
331
556D
  5
556D
331
55B9
  5
55B9
331
55BA
  5
55BA
331
558A
  5
558A
331
5552
  5
5552
331
556E
  5
556E
331
55D7
  5
55D7
331
558B
  5
558B
331
556F
  5
556F
331
5553
  5
5553
331
55BB
  5
55BB
331
55D8
  5
55D8
331
55BC
  5
55BC
331
5554
  5
5554
331
5570
  5
5570
331
5571
  5
5571
331
5555
  5
5555
331
55BD
  5
55BD
331
55BE
  5
55BE
331
5556
  5
5556
331
5572
  5
5572
331
5573
  5
5573
331
5557
  5
5557
331
55BF
  5
55BF
331
5574
  5
5574
331
55C0
  5
55C0
331
55A5
  5
55A5
331
5575
  5
5575
331
55C1
  5
55C1
331
5576
  5
5576
331
55A6
  5
55A6
331
55A7
  5
55A7
331
5577
  5
5577
331
55A8
  5
55A8
331
55A9
  5
55A9
331
55AA
  5
55AA
331
55C7
  5
55C7
331
55AB
  5
55AB
331
55AC
  5
55AC
331
55C9
  5
55C9
331
55AD
  5
55AD
331
55E6
  5
55E6
331
55AE
  5
55AE
331
55CA
  5
55CA
331
55E7
  5
55E7
331
55AF
  5
55AF
331
55E8
  5
55E8
331
55E9
  5
55E9
331
55CD
  5
55CD
331
55EA
  5
55EA
331
5B60
  5
5C82
331
5B61
  5
5C83
331
5B65
  5
5C84
331
5B5A
  5
5B65
331
5B5D
  5
5C81
  0
LAYOUT
  5
1BD
102
{ACAD_XDICTIONARY
360
5DAB
102
}
102
{ACAD_REACTORS
330
1B5
102
}
330
1B5
100
AcDbPlotSettings
  1

  2
none_device
  4
Letter_(8.50_x_11.00_Inches)
  6

 40
6.349999904632568
 41
6.349999904632568
 42
6.350006103515625
 43
6.350006103515625
 44
215.8999938964844
 45
279.3999938964844
 46
0.0
 47
0.0
 48
0.0
 49
0.0
140
0.0
141
0.0
142
1.0
143
84.12254952297454
 70
 11952
 72
     0
 73
     1
 74
     0
  7
INABA-CAD-Canon.ctb
 75
     0
147
0.0118874190769372
148
14412.02217806279
149
-16827.16392575429
100
AcDbLayout
  1
Model
 70
     1
 71
     0
 10
0.0
 20
0.0
 11
12.0
 21
9.0
 12
0.0
 22
0.0
 32
0.0
 14
0.0
 24
0.0
 34
0.0
 15
0.0
 25
0.0
 35
0.0
146
0.0
 13
0.0
 23
0.0
 33
0.0
 16
1.0
 26
0.0
 36
0.0
 17
0.0
 27
1.0
 37
0.0
 76
     0
330
1BA
1001
ACAD_PSEXT
1000
なし
1000
なし
1000
適切ではありません
1000
新しいプロッタ環境設定名を選択しない限り、レイアウトは印刷されません。
1070
     0
  0
LAYOUT
  5
1B9
102
{ACAD_XDICTIONARY
360
5DA9
102
}
102
{ACAD_REACTORS
330
1B5
102
}
330
1B5
100
AcDbPlotSettings
  1

  2
Canon LASER SHOT LBP-1710
  4

  6

 40
0.0
 41
0.0
 42
0.0
 43
0.0
 44
0.0
 45
0.0
 46
0.0
 47
0.0
 48
0.0
 49
0.0
140
0.0
141
0.0
142
1.0
143
1.0
 70
   688
 72
     0
 73
     0
 74
     5
  7
INABA-CAD-Canon.ctb
 75
    16
147
1.0
148
0.0
149
0.0
100
AcDbLayout
  1
ﾚｲｱｳﾄ1
 70
     1
 71
     1
 10
0.0
 20
0.0
 11
420.0
 21
297.0
 12
0.0
 22
0.0
 32
0.0
 14
1.000000000000000E+20
 24
1.000000000000000E+20
 34
1.000000000000000E+20
 15
-1.000000000000000E+20
 25
-1.000000000000000E+20
 35
-1.000000000000000E+20
146
0.0
 13
0.0
 23
0.0
 33
0.0
 16
1.0
 26
0.0
 36
0.0
 17
0.0
 27
1.0
 37
0.0
 76
     0
330
1B6
  0
MLINESTYLE
  5
1B3
102
{ACAD_REACTORS
330
1B2
102
}
330
1B2
100
AcDbMlineStyle
  2
STANDARD
 70
     0
  3

 62
   256
 51
90.0
 52
90.0
 71
     2
 49
0.5
 62
   256
  6
BYLAYER
 49
-0.5
 62
   256
  6
BYLAYER
  0
ACDBPLACEHOLDER
  5
1AB
102
{ACAD_REACTORS
330
1AA
102
}
330
1AA
  0
TABLESTYLE
  5
323
102
{ACAD_REACTORS
330
322
102
}
330
322
100
AcDbTableStyle
  3
Standard
 70
     0
 71
     0
 40
0.06
 41
0.06
280
     0
281
     0
  7
STANDARD
140
0.18
170
     2
 62
     0
 63
     7
283
     0
274
    -2
284
     1
 64
     0
275
    -2
285
     1
 65
     0
276
    -2
286
     1
 66
     0
277
    -2
287
     1
 67
     0
278
    -2
288
     1
 68
     0
279
    -2
289
     1
 69
     0
  7
STANDARD
140
0.25
170
     5
 62
     0
 63
     7
283
     0
274
    -2
284
     1
 64
     0
275
    -2
285
     1
 65
     0
276
    -2
286
     1
 66
     0
277
    -2
287
     1
 67
     0
278
    -2
288
     1
 68
     0
279
    -2
289
     1
 69
     0
  7
STANDARD
140
0.18
170
     5
 62
     0
 63
     7
283
     0
274
    -2
284
     1
 64
     0
275
    -2
285
     1
 65
     0
276
    -2
286
     1
 66
     0
277
    -2
287
     1
 67
     0
278
    -2
288
     1
 68
     0
279
    -2
289
     1
 69
     0
  0
DICTIONARYVAR
  5
54C5
102
{ACAD_REACTORS
330
26D
102
}
330
26D
100
DictionaryVariables
280
     0
  1
STANDARD
  0
DICTIONARYVAR
  5
26E
102
{ACAD_REACTORS
330
26D
102
}
330
26D
100
DictionaryVariables
280
     0
  1
1
  0
DICTIONARYVAR
  5
54C6
102
{ACAD_REACTORS
330
26D
102
}
330
26D
100
DictionaryVariables
280
     0
  1

  0
DICTIONARY
  5
5DAB
330
1BD
100
AcDbDictionary
280
     1
281
     1
  3
ACAD_XREC_ROUNDTRIP
360
5DAC
  0
DICTIONARY
  5
5DA9
330
1B9
100
AcDbDictionary
280
     1
281
     1
  3
ACAD_XREC_ROUNDTRIP
360
5DAA
  0
XRECORD
  5
5DAC
102
{ACAD_REACTORS
330
5DAB
102
}
330
5DAB
100
AcDbXrecord
280
     1
102
SHADEPLOT
 70
     0
102
SHADEPLOTRESLEVEL
 70
     2
102
SHADEPLOTCUSTOMDPI
 70
   300
  0
XRECORD
  5
5DAA
102
{ACAD_REACTORS
330
5DA9
102
}
330
5DA9
100
AcDbXrecord
280
     1
102
SHADEPLOT
 70
     0
102
SHADEPLOTRESLEVEL
 70
     2
102
SHADEPLOTCUSTOMDPI
 70
   300
  0
ENDSEC
  0
EOF
