  0
SECTION
  2
HEADER
  9
$ACADVER
  1
AC1024
  9
$ACADMAINTVER
 70
    63
  9
$DWGCODEPAGE
  3
ANSI_932
  9
$LASTSAVEDBY
  1
takaaki.hirami
  9
$INSBASE
 10
0.0
 20
0.0
 30
0.0
  9
$EXTMIN
 10
-180.1440662835093
 20
-610.6793539840214
 30
-0.000000000000013
  9
$EXTMAX
 10
221.9228742387167
 20
193.3925877816932
 30
0.0000000000000023
  9
$LIMMIN
 10
0.0
 20
0.0
  9
$LIMMAX
 10
420.0
 20
297.0
  9
$ORTHOMODE
 70
     0
  9
$REGENMODE
 70
     1
  9
$FILLMODE
 70
     1
  9
$QTEXTMODE
 70
     0
  9
$MIRRTEXT
 70
     1
  9
$LTSCALE
 40
1.0
  9
$ATTMODE
 70
     1
  9
$TEXTSIZE
 40
2.5
  9
$TRACEWID
 40
1.0
  9
$TEXTSTYLE
  7
KANJI
  9
$CLAYER
  8
2寸法線
  9
$CELTYPE
  6
ByLayer
  9
$CECOLOR
 62
   256
  9
$CELTSCALE
 40
1.0
  9
$DISPSILH
 70
     0
  9
$DIMSCALE
 40
0.0
  9
$DIMASZ
 40
1.8
  9
$DIMEXO
 40
1.0
  9
$DIMDLI
 40
0.0
  9
$DIMRND
 40
0.0
  9
$DIMDLE
 40
0.0
  9
$DIMEXE
 40
1.0
  9
$DIMTP
 40
0.0
  9
$DIMTM
 40
0.0
  9
$DIMTXT
 40
2.5
  9
$DIMCEN
 40
0.0
  9
$DIMTSZ
 40
0.0
  9
$DIMTOL
 70
     0
  9
$DIMLIM
 70
     0
  9
$DIMTIH
 70
     0
  9
$DIMTOH
 70
     0
  9
$DIMSE1
 70
     0
  9
$DIMSE2
 70
     0
  9
$DIMTAD
 70
     1
  9
$DIMZIN
 70
     8
  9
$DIMBLK
  1

  9
$DIMASO
 70
     1
  9
$DIMSHO
 70
     1
  9
$DIMPOST
  1

  9
$DIMAPOST
  1

  9
$DIMALT
 70
     0
  9
$DIMALTD
 70
     2
  9
$DIMALTF
 40
25.4
  9
$DIMLFAC
 40
1.0
  9
$DIMTOFL
 70
     1
  9
$DIMTVP
 40
0.0
  9
$DIMTIX
 70
     0
  9
$DIMSOXD
 70
     0
  9
$DIMSAH
 70
     1
  9
$DIMBLK1
  1
2
  9
$DIMBLK2
  1
2
  9
$DIMSTYLE
  2
M
  9
$DIMCLRD
 70
     0
  9
$DIMCLRE
 70
     0
  9
$DIMCLRT
 70
     0
  9
$DIMTFAC
 40
1.0
  9
$DIMGAP
 40
0.5
  9
$DIMJUST
 70
     0
  9
$DIMSD1
 70
     0
  9
$DIMSD2
 70
     0
  9
$DIMTOLJ
 70
     1
  9
$DIMTZIN
 70
     0
  9
$DIMALTZ
 70
     0
  9
$DIMALTTZ
 70
     0
  9
$DIMUPT
 70
     0
  9
$DIMDEC
 70
     4
  9
$DIMTDEC
 70
     4
  9
$DIMALTU
 70
     2
  9
$DIMALTTD
 70
     2
  9
$DIMTXSTY
  7
STANDARD
  9
$DIMAUNIT
 70
     0
  9
$DIMADEC
 70
     0
  9
$DIMALTRND
 40
0.0
  9
$DIMAZIN
 70
     0
  9
$DIMDSEP
 70
    46
  9
$DIMATFIT
 70
     3
  9
$DIMFRAC
 70
     0
  9
$DIMLDRBLK
  1
2
  9
$DIMLUNIT
 70
     2
  9
$DIMLWD
 70
    -2
  9
$DIMLWE
 70
    -2
  9
$DIMTMOVE
 70
     0
  9
$DIMFXL
 40
1.0
  9
$DIMFXLON
 70
     0
  9
$DIMJOGANG
 40
0.7853981633974483
  9
$DIMTFILL
 70
     0
  9
$DIMTFILLCLR
 70
     0
  9
$DIMARCSYM
 70
     0
  9
$DIMLTYPE
  6

  9
$DIMLTEX1
  6

  9
$DIMLTEX2
  6

  9
$DIMTXTDIRECTION
 70
     0
  9
$LUNITS
 70
     2
  9
$LUPREC
 70
     3
  9
$SKETCHINC
 40
1.0
  9
$FILLETRAD
 40
0.0
  9
$AUNITS
 70
     0
  9
$AUPREC
 70
     1
  9
$MENU
  1
.
  9
$ELEVATION
 40
0.0
  9
$PELEVATION
 40
0.0
  9
$THICKNESS
 40
0.0
  9
$LIMCHECK
 70
     0
  9
$CHAMFERA
 40
10.0
  9
$CHAMFERB
 40
10.0
  9
$CHAMFERC
 40
0.0
  9
$CHAMFERD
 40
0.0
  9
$SKPOLY
 70
     0
  9
$TDCREATE
 40
2453462.486800301
  9
$TDUCREATE
 40
2453462.111800301
  9
$TDUPDATE
 40
2458040.360827083
  9
$TDUUPDATE
 40
2458039.985827083
  9
$TDINDWG
 40
0.3155442824
  9
$TDUSRTIMER
 40
0.3155437384
  9
$USRTIMER
 70
     1
  9
$ANGBASE
 50
0.0
  9
$ANGDIR
 70
     0
  9
$PDMODE
 70
     0
  9
$PDSIZE
 40
0.0
  9
$PLINEWID
 40
0.0
  9
$SPLFRAME
 70
     0
  9
$SPLINETYPE
 70
     6
  9
$SPLINESEGS
 70
     8
  9
$HANDSEED
  5
279B
  9
$SURFTAB1
 70
     6
  9
$SURFTAB2
 70
     6
  9
$SURFTYPE
 70
     6
  9
$SURFU
 70
     6
  9
$SURFV
 70
     6
  9
$UCSBASE
  2

  9
$UCSNAME
  2

  9
$UCSORG
 10
0.0
 20
0.0
 30
0.0
  9
$UCSXDIR
 10
1.0
 20
0.0
 30
0.0
  9
$UCSYDIR
 10
0.0
 20
1.0
 30
0.0
  9
$UCSORTHOREF
  2

  9
$UCSORTHOVIEW
 70
     0
  9
$UCSORGTOP
 10
0.0
 20
0.0
 30
0.0
  9
$UCSORGBOTTOM
 10
0.0
 20
0.0
 30
0.0
  9
$UCSORGLEFT
 10
0.0
 20
0.0
 30
0.0
  9
$UCSORGRIGHT
 10
0.0
 20
0.0
 30
0.0
  9
$UCSORGFRONT
 10
0.0
 20
0.0
 30
0.0
  9
$UCSORGBACK
 10
0.0
 20
0.0
 30
0.0
  9
$PUCSBASE
  2

  9
$PUCSNAME
  2

  9
$PUCSORG
 10
0.0
 20
0.0
 30
0.0
  9
$PUCSXDIR
 10
1.0
 20
0.0
 30
0.0
  9
$PUCSYDIR
 10
0.0
 20
1.0
 30
0.0
  9
$PUCSORTHOREF
  2

  9
$PUCSORTHOVIEW
 70
     0
  9
$PUCSORGTOP
 10
0.0
 20
0.0
 30
0.0
  9
$PUCSORGBOTTOM
 10
0.0
 20
0.0
 30
0.0
  9
$PUCSORGLEFT
 10
0.0
 20
0.0
 30
0.0
  9
$PUCSORGRIGHT
 10
0.0
 20
0.0
 30
0.0
  9
$PUCSORGFRONT
 10
0.0
 20
0.0
 30
0.0
  9
$PUCSORGBACK
 10
0.0
 20
0.0
 30
0.0
  9
$USERI1
 70
     0
  9
$USERI2
 70
     0
  9
$USERI3
 70
     0
  9
$USERI4
 70
     0
  9
$USERI5
 70
     0
  9
$USERR1
 40
0.0
  9
$USERR2
 40
0.0
  9
$USERR3
 40
0.0
  9
$USERR4
 40
0.0
  9
$USERR5
 40
0.0
  9
$WORLDVIEW
 70
     1
  9
$SHADEDGE
 70
     3
  9
$SHADEDIF
 70
    70
  9
$TILEMODE
 70
     1
  9
$MAXACTVP
 70
    48
  9
$PINSBASE
 10
0.0
 20
0.0
 30
0.0
  9
$PLIMCHECK
 70
     0
  9
$PEXTMIN
 10
1.000000000000000E+20
 20
1.000000000000000E+20
 30
1.000000000000000E+20
  9
$PEXTMAX
 10
-1.000000000000000E+20
 20
-1.000000000000000E+20
 30
-1.000000000000000E+20
  9
$PLIMMIN
 10
0.0
 20
0.0
  9
$PLIMMAX
 10
420.0
 20
297.0
  9
$UNITMODE
 70
     0
  9
$VISRETAIN
 70
     1
  9
$PLINEGEN
 70
     0
  9
$PSLTSCALE
 70
     1
  9
$TREEDEPTH
 70
  3020
  9
$CMLSTYLE
  2
Standard
  9
$CMLJUST
 70
     0
  9
$CMLSCALE
 40
1.0
  9
$PROXYGRAPHICS
 70
     1
  9
$MEASUREMENT
 70
     0
  9
$CELWEIGHT
370
    -1
  9
$ENDCAPS
280
     0
  9
$JOINSTYLE
280
     0
  9
$LWDISPLAY
290
     0
  9
$INSUNITS
 70
     0
  9
$HYPERLINKBASE
  1

  9
$STYLESHEET
  1
INABA-CAD-Canon.ctb
  9
$XEDIT
290
     1
  9
$CEPSNTYPE
380
     0
  9
$PSTYLEMODE
290
     1
  9
$FINGERPRINTGUID
  2
{1A2E6D33-5A93-49EA-8BEF-0164C03B4062}
  9
$VERSIONGUID
  2
{356A16D9-7D6C-462A-A64E-3D0A03406617}
  9
$EXTNAMES
290
     1
  9
$PSVPSCALE
 40
0.0
  9
$OLESTARTUP
290
     0
  9
$SORTENTS
280
   127
  9
$INDEXCTL
280
     0
  9
$HIDETEXT
280
     0
  9
$XCLIPFRAME
280
     2
  9
$HALOGAP
280
     0
  9
$OBSCOLOR
 70
   257
  9
$OBSLTYPE
280
     0
  9
$INTERSECTIONDISPLAY
280
     0
  9
$INTERSECTIONCOLOR
 70
   257
  9
$DIMASSOC
280
     1
  9
$PROJECTNAME
  1

  9
$CAMERADISPLAY
290
     0
  9
$LENSLENGTH
 40
50.0
  9
$CAMERAHEIGHT
 40
0.0
  9
$STEPSPERSEC
 40
2.0
  9
$STEPSIZE
 40
6.0
  9
$3DDWFPREC
 40
2.0
  9
$PSOLWIDTH
 40
0.25
  9
$PSOLHEIGHT
 40
4.0
  9
$LOFTANG1
 40
1.570796326794896
  9
$LOFTANG2
 40
1.570796326794896
  9
$LOFTMAG1
 40
0.0
  9
$LOFTMAG2
 40
0.0
  9
$LOFTPARAM
 70
     7
  9
$LOFTNORMALS
280
     1
  9
$LATITUDE
 40
37.795
  9
$LONGITUDE
 40
-122.394
  9
$NORTHDIRECTION
 40
0.0
  9
$TIMEZONE
 70
 -8000
  9
$LIGHTGLYPHDISPLAY
280
     1
  9
$TILEMODELIGHTSYNCH
280
     1
  9
$CMATERIAL
347
C59
  9
$SOLIDHIST
280
     0
  9
$SHOWHIST
280
     1
  9
$DWFFRAME
280
     2
  9
$DGNFRAME
280
     0
  9
$REALWORLDSCALE
290
     1
  9
$INTERFERECOLOR
 62
     1
  9
$INTERFEREOBJVS
345
C7B
  9
$INTERFEREVPVS
346
C78
  9
$CSHADOW
280
     0
  9
$SHADOWPLANELOCATION
 40
0.0
  0
ENDSEC
  0
SECTION
  2
CLASSES
  0
CLASS
  1
ACDBDICTIONARYWDFLT
  2
AcDbDictionaryWithDefault
  3
ObjectDBX Classes
 90
        0
 91
        1
280
     0
281
     0
  0
CLASS
  1
DICTIONARYVAR
  2
AcDbDictionaryVar
  3
ObjectDBX Classes
 90
        0
 91
       11
280
     0
281
     0
  0
CLASS
  1
MATERIAL
  2
AcDbMaterial
  3
ObjectDBX Classes
 90
     1153
 91
        3
280
     0
281
     0
  0
CLASS
  1
VISUALSTYLE
  2
AcDbVisualStyle
  3
ObjectDBX Classes
 90
     4095
 91
       24
280
     0
281
     0
  0
CLASS
  1
TABLESTYLE
  2
AcDbTableStyle
  3
ObjectDBX Classes
 90
     4095
 91
        1
280
     0
281
     0
  0
CLASS
  1
SCALE
  2
AcDbScale
  3
ObjectDBX Classes
 90
     1153
 91
       17
280
     0
281
     0
  0
CLASS
  1
MLEADERSTYLE
  2
AcDbMLeaderStyle
  3
ACDB_MLEADERSTYLE_CLASS
 90
     4095
 91
        1
280
     0
281
     0
  0
CLASS
  1
SORTENTSTABLE
  2
AcDbSortentsTable
  3
ObjectDBX Classes
 90
        0
 91
        2
280
     0
281
     0
  0
CLASS
  1
CELLSTYLEMAP
  2
AcDbCellStyleMap
  3
ObjectDBX Classes
 90
     1152
 91
        3
280
     0
281
     0
  0
ENDSEC
  0
SECTION
  2
TABLES
  0
TABLE
  2
VPORT
  5
2CA
102
{ACAD_XDICTIONARY
360
17D6
102
}
330
0
100
AcDbSymbolTable
 70
     1
  0
VPORT
  5
C53
330
2CA
100
AcDbSymbolTableRecord
100
AcDbViewportTableRecord
  2
*Active
 70
     0
 10
0.0
 20
0.0
 11
1.0
 21
1.0
 12
8.776814968053713
 22
-225.2809086197791
 13
0.0
 23
0.0
 14
10.0
 24
10.0
 15
10.0
 25
10.0
 16
0.0
 26
0.0
 36
1.0
 17
0.0
 27
0.0
 37
0.0
 40
907.9709615742411
 41
2.563587684069611
 42
50.0
 43
0.0
 44
0.0
 50
0.0
 51
0.0
 71
     0
 72
   100
 73
     1
 74
     1
 75
     0
 76
     0
 77
     0
 78
     0
281
     0
 65
     1
110
0.0
120
0.0
130
0.0
111
1.0
121
0.0
131
0.0
112
0.0
122
1.0
132
0.0
 79
     0
146
0.0
348
C77
 60
     3
 61
     5
292
     1
282
     1
141
0.0
142
0.0
 63
   250
421
  3355443
1001
ACAD_NAV_VCDISPLAY
1070
     3
  0
ENDTAB
  0
TABLE
  2
LTYPE
  5
2C7
330
0
100
AcDbSymbolTable
 70
     3
  0
LTYPE
  5
2D5
330
2C7
100
AcDbSymbolTableRecord
100
AcDbLinetypeTableRecord
  2
ByBlock
 70
     0
  3

 72
    65
 73
     0
 40
0.0
  0
LTYPE
  5
2D6
330
2C7
100
AcDbSymbolTableRecord
100
AcDbLinetypeTableRecord
  2
ByLayer
 70
     0
  3

 72
    65
 73
     0
 40
0.0
  0
LTYPE
  5
2D7
330
2C7
100
AcDbSymbolTableRecord
100
AcDbLinetypeTableRecord
  2
CONTINUOUS
 70
     0
  3
Solid line
 72
    65
 73
     0
 40
0.0
  0
LTYPE
  5
2E9
330
2C7
100
AcDbSymbolTableRecord
100
AcDbLinetypeTableRecord
  2
PHANTOM
 70
     0
  3
Phantom ______  __  __  ______  __  __  ______
 72
    65
 73
     6
 40
63.5
 49
31.75
 74
     0
 49
-6.349999999999997
 74
     0
 49
6.349999999999997
 74
     0
 49
-6.349999999999997
 74
     0
 49
6.349999999999997
 74
     0
 49
-6.349999999999997
 74
     0
  0
LTYPE
  5
194D
330
2C7
100
AcDbSymbolTableRecord
100
AcDbLinetypeTableRecord
  2
CENTER
 70
     0
  3
Center ____ _ ____ _ ____ _ ____ _ ____ _ ____
 72
    65
 73
     4
 40
50.8
 49
31.75
 74
     0
 49
-6.349999999999999
 74
     0
 49
6.349999999999999
 74
     0
 49
-6.349999999999999
 74
     0
  0
ENDTAB
  0
TABLE
  2
LAYER
  5
2C4
102
{ACAD_XDICTIONARY
360
13CB
102
}
330
0
100
AcDbSymbolTable
 70
     7
  0
LAYER
  5
2D2
102
{ACAD_XDICTIONARY
360
CA3
102
}
330
2C4
100
AcDbSymbolTableRecord
100
AcDbLayerTableRecord
  2
0
 70
     0
 62
     7
  6
CONTINUOUS
370
    -3
390
2D1
347
C69
  0
LAYER
  5
2E4
102
{ACAD_XDICTIONARY
360
CA5
102
}
330
2C4
100
AcDbSymbolTableRecord
100
AcDbLayerTableRecord
  2
2寸法線
 70
     0
 62
     2
  6
CONTINUOUS
370
    -3
390
2D1
347
C69
  0
LAYER
  5
2EA
102
{ACAD_XDICTIONARY
360
CA7
102
}
330
2C4
100
AcDbSymbolTableRecord
100
AcDbLayerTableRecord
  2
1外形線
 70
     0
 62
     3
  6
CONTINUOUS
370
    -3
390
2D1
347
C69
  0
LAYER
  5
2EF
330
2C4
100
AcDbSymbolTableRecord
100
AcDbLayerTableRecord
  2
DEFPOINTS
 70
     0
 62
     7
  6
CONTINUOUS
290
     0
370
    -3
390
2D1
347
C69
  0
LAYER
  5
2F0
102
{ACAD_XDICTIONARY
360
CA9
102
}
330
2C4
100
AcDbSymbolTableRecord
100
AcDbLayerTableRecord
  2
C4
 70
     0
 62
     3
  6
CONTINUOUS
370
    -3
390
2D1
347
C69
  0
LAYER
  5
194E
102
{ACAD_XDICTIONARY
360
194F
102
}
330
2C4
100
AcDbSymbolTableRecord
100
AcDbLayerTableRecord
  2
3補助線
 70
     0
 62
     4
  6
CONTINUOUS
370
    -3
390
2D1
347
C69
  0
LAYER
  5
1CA0
102
{ACAD_XDICTIONARY
360
1CA1
102
}
330
2C4
100
AcDbSymbolTableRecord
100
AcDbLayerTableRecord
  2
SUNPOU
 70
     0
 62
     2
  6
CONTINUOUS
370
    -3
390
2D1
347
C69
  0
ENDTAB
  0
TABLE
  2
STYLE
  5
2C5
330
0
100
AcDbSymbolTable
 70
     2
  0
STYLE
  5
2D3
330
2C5
100
AcDbSymbolTableRecord
100
AcDbTextStyleTableRecord
  2
STANDARD
 70
     0
 40
0.0
 41
1.0
 50
0.0
 71
     0
 42
2.5
  3
txt
  4

  0
STYLE
  5
2E5
330
2C5
100
AcDbSymbolTableRecord
100
AcDbTextStyleTableRecord
  2
KANJI
 70
     0
 40
0.0
 41
1.0
 50
0.0
 71
     0
 42
2.5
  3
simplex.shx
  4
bigfont.shx
  0
ENDTAB
  0
TABLE
  2
VIEW
  5
2C8
330
0
100
AcDbSymbolTable
 70
     0
  0
ENDTAB
  0
TABLE
  2
UCS
  5
2C9
330
0
100
AcDbSymbolTable
 70
     0
  0
ENDTAB
  0
TABLE
  2
APPID
  5
2CB
330
0
100
AcDbSymbolTable
 70
     6
  0
APPID
  5
2D4
330
2CB
100
AcDbSymbolTableRecord
100
AcDbRegAppTableRecord
  2
ACAD
 70
     0
  0
APPID
  5
CAB
330
2CB
100
AcDbSymbolTableRecord
100
AcDbRegAppTableRecord
  2
ACAD_NAV_VCDISPLAY
 70
     0
  0
APPID
  5
CD2
330
2CB
100
AcDbSymbolTableRecord
100
AcDbRegAppTableRecord
  2
ACAD_DSTYLE_DIMRADIAL_EXTENSION
 70
     0
  0
APPID
  5
D0E
330
2CB
100
AcDbSymbolTableRecord
100
AcDbRegAppTableRecord
  2
ACAD_EXEMPT_FROM_CAD_STANDARDS
 70
     0
  0
APPID
  5
13D3
330
2CB
100
AcDbSymbolTableRecord
100
AcDbRegAppTableRecord
  2
ACAD_PSEXT
 70
     0
  0
APPID
  5
180F
330
2CB
100
AcDbSymbolTableRecord
100
AcDbRegAppTableRecord
  2
ACAD_MLEADERVER
 70
     0
  0
ENDTAB
  0
TABLE
  2
DIMSTYLE
  5
2CC
330
0
100
AcDbSymbolTable
 70
     4
100
AcDbDimStyleTable
 71
     1
340
2F4
  0
DIMSTYLE
105
2F2
330
2CC
100
AcDbSymbolTableRecord
100
AcDbDimStyleTableRecord
  2
STANDARD
 70
     0
 73
     0
 74
     0
172
     1
271
     3
272
     3
279
     2
284
     8
285
     8
286
     8
340
2E5
  0
DIMSTYLE
105
2F4
330
2CC
100
AcDbSymbolTableRecord
100
AcDbDimStyleTableRecord
  2
M
 70
     0
 40
0.0
 41
2.0
 42
1.0
 43
0.0
 44
1.0
 73
     0
 74
     0
 77
     1
 78
     8
140
2.5
141
0.0
147
0.5
172
     1
173
     1
271
     3
272
     3
279
     2
284
     8
285
     8
286
     8
340
2E5
  0
DIMSTYLE
105
1623
330
2CC
100
AcDbSymbolTableRecord
100
AcDbDimStyleTableRecord
  2
ISO-25
 70
     0
 41
2.5
 42
0.625
 43
3.75
 44
1.25
 73
     0
 74
     0
 77
     1
 78
     8
140
2.5
141
2.5
143
0.03937007874016
147
0.625
171
     3
172
     1
271
     2
272
     2
274
     3
283
     0
284
     8
340
2D3
  0
DIMSTYLE
105
1950
330
2CC
100
AcDbSymbolTableRecord
100
AcDbDimStyleTableRecord
  2
M$4
 70
     0
 40
0.0
 41
2.0
 42
1.0
 43
0.0
 44
1.0
 73
     0
 77
     1
 78
     8
140
2.5
141
0.0
147
0.5
173
     1
284
     8
340
2E5
341
2FF
343
2FF
344
2FF
  0
ENDTAB
  0
TABLE
  2
BLOCK_RECORD
  5
2C3
330
0
100
AcDbSymbolTable
 70
    27
  0
BLOCK_RECORD
  5
2E0
102
{ACAD_XDICTIONARY
360
12DF
102
}
330
2C3
100
AcDbSymbolTableRecord
100
AcDbBlockTableRecord
  2
*Model_Space
340
2E3
 70
     0
280
     1
281
     0
  0
BLOCK_RECORD
  5
2DC
330
2C3
100
AcDbSymbolTableRecord
100
AcDbBlockTableRecord
  2
*Paper_Space
340
2DF
 70
     0
280
     1
281
     0
  0
BLOCK_RECORD
  5
2FF
330
2C3
100
AcDbSymbolTableRecord
100
AcDbBlockTableRecord
  2
2
340
0
102
{BLKREFS
331
1B09
331
1B0A
331
1B12
331
1B13
331
1B1D
331
1B1E
331
1B84
331
1B85
331
1B8D
331
1B8E
331
151B
331
151C
331
1524
331
1525
331
152D
331
152E
331
1536
331
1537
331
153F
331
1540
331
1641
331
1642
331
164A
331
164B
331
1653
331
1654
331
165C
331
165D
331
1666
331
1667
331
1671
331
1672
331
167B
331
167C
331
1685
331
1686
331
168F
331
1690
331
16E1
331
16E2
102
}
 70
     0
280
     1
281
     0
  0
BLOCK_RECORD
  5
301
330
2C3
100
AcDbSymbolTableRecord
100
AcDbBlockTableRecord
  2
*U1
340
0
102
{BLKREFS
331
131
102
}
 70
     0
280
     1
281
     0
  0
BLOCK_RECORD
  5
CB9
330
2C3
100
AcDbSymbolTableRecord
100
AcDbBlockTableRecord
  2
*D2
340
0
 70
     0
280
     1
281
     0
  0
BLOCK_RECORD
  5
CC6
330
2C3
100
AcDbSymbolTableRecord
100
AcDbBlockTableRecord
  2
*D3
340
0
 70
     0
280
     1
281
     0
  0
BLOCK_RECORD
  5
CE8
330
2C3
100
AcDbSymbolTableRecord
100
AcDbBlockTableRecord
  2
*D4
340
0
 70
     0
280
     1
281
     0
  0
BLOCK_RECORD
  5
CF5
330
2C3
100
AcDbSymbolTableRecord
100
AcDbBlockTableRecord
  2
*D5
340
0
 70
     0
280
     1
281
     0
  0
BLOCK_RECORD
  5
D02
330
2C3
100
AcDbSymbolTableRecord
100
AcDbBlockTableRecord
  2
*D6
340
0
 70
     0
280
     1
281
     0
  0
BLOCK_RECORD
  5
11D3
330
2C3
100
AcDbSymbolTableRecord
100
AcDbBlockTableRecord
  2
*D7
340
0
 70
     0
280
     1
281
     0
  0
BLOCK_RECORD
  5
11DF
330
2C3
100
AcDbSymbolTableRecord
100
AcDbBlockTableRecord
  2
*D8
340
0
 70
     0
280
     1
281
     0
  0
BLOCK_RECORD
  5
11FD
330
2C3
100
AcDbSymbolTableRecord
100
AcDbBlockTableRecord
  2
*D9
340
0
 70
     0
280
     1
281
     0
  0
BLOCK_RECORD
  5
1209
330
2C3
100
AcDbSymbolTableRecord
100
AcDbBlockTableRecord
  2
*D10
340
0
 70
     0
280
     1
281
     0
  0
BLOCK_RECORD
  5
1215
330
2C3
100
AcDbSymbolTableRecord
100
AcDbBlockTableRecord
  2
*D11
340
0
 70
     0
280
     1
281
     0
  0
BLOCK_RECORD
  5
12E2
330
2C3
100
AcDbSymbolTableRecord
100
AcDbBlockTableRecord
  2
*D12
340
0
 70
     0
280
     1
281
     0
  0
BLOCK_RECORD
  5
132D
330
2C3
100
AcDbSymbolTableRecord
100
AcDbBlockTableRecord
  2
*D13
340
0
 70
     0
280
     1
281
     0
  0
BLOCK_RECORD
  5
1362
330
2C3
100
AcDbSymbolTableRecord
100
AcDbBlockTableRecord
  2
*D14
340
0
 70
     0
280
     1
281
     0
  0
BLOCK_RECORD
  5
137E
330
2C3
100
AcDbSymbolTableRecord
100
AcDbBlockTableRecord
  2
*D15
340
0
 70
     0
280
     1
281
     0
  0
BLOCK_RECORD
  5
13E6
330
2C3
100
AcDbSymbolTableRecord
100
AcDbBlockTableRecord
  2
*D16
340
0
 70
     0
280
     1
281
     0
  0
BLOCK_RECORD
  5
1915
330
2C3
100
AcDbSymbolTableRecord
100
AcDbBlockTableRecord
  2
INABAロゴ
340
0
 70
     0
280
     1
281
     0
  0
BLOCK_RECORD
  5
1A78
330
2C3
100
AcDbSymbolTableRecord
100
AcDbBlockTableRecord
  2
*D18
340
0
 70
     0
280
     1
281
     0
  0
BLOCK_RECORD
  5
1A84
330
2C3
100
AcDbSymbolTableRecord
100
AcDbBlockTableRecord
  2
*D19
340
0
 70
     0
280
     1
281
     0
  0
BLOCK_RECORD
  5
1A90
330
2C3
100
AcDbSymbolTableRecord
100
AcDbBlockTableRecord
  2
*D20
340
0
 70
     0
280
     1
281
     0
  0
BLOCK_RECORD
  5
1AC9
330
2C3
100
AcDbSymbolTableRecord
100
AcDbBlockTableRecord
  2
*D21
340
0
 70
     0
280
     1
281
     0
  0
BLOCK_RECORD
  5
1B75
330
2C3
100
AcDbSymbolTableRecord
100
AcDbBlockTableRecord
  2
*D22
340
0
 70
     0
280
     1
281
     0
  0
BLOCK_RECORD
  5
2420
330
2C3
100
AcDbSymbolTableRecord
100
AcDbBlockTableRecord
  2
*D24
340
0
 70
     0
280
     1
281
     0
  0
BLOCK_RECORD
  5
2784
330
2C3
100
AcDbSymbolTableRecord
100
AcDbBlockTableRecord
  2
*D26
340
0
 70
     0
280
     1
281
     0
  0
ENDTAB
  0
ENDSEC
  0
SECTION
  2
BLOCKS
  0
BLOCK
  5
2E1
330
2E0
100
AcDbEntity
  8
0
100
AcDbBlockBegin
  2
*Model_Space
 70
     0
 10
0.0
 20
0.0
 30
0.0
  3
*Model_Space
  1

  0
ENDBLK
  5
2E2
330
2E0
100
AcDbEntity
  8
0
100
AcDbBlockEnd
  0
BLOCK
  5
2DD
330
2DC
100
AcDbEntity
 67
     1
  8
0
100
AcDbBlockBegin
  2
*Paper_Space
 70
     0
 10
0.0
 20
0.0
 30
0.0
  3
*Paper_Space
  1

  0
ENDBLK
  5
2DE
330
2DC
100
AcDbEntity
 67
     1
  8
0
100
AcDbBlockEnd
  0
BLOCK
  5
300
330
2FF
100
AcDbEntity
  8
0
100
AcDbBlockBegin
  2
2
 70
     0
 10
0.0
 20
0.0
 30
0.0
  3
2
  1

  0
INSERT
  5
131
330
2FF
100
AcDbEntity
  8
0
  6
Continuous
 62
     0
100
AcDbBlockReference
  2
*U1
 10
0.0
 20
0.0
 30
0.0
1001
ACAD
1002
{
1000
R14_HATCH_DATA
1000
131
1011
1.0
1021
0.0
1031
0.0
1011
0.0
1021
1.0
1031
0.0
1011
0.0
1021
0.0
1031
1.0
1040
0.0
1010
0.0
1020
0.0
1030
1.0
1000
SOLID
1070
     1
1070
     0
1071
        1
1071
        1
1071
        3
1070
     1
1040
-0.9999999999983517
1040
0.2679491924306774
1040
0.0
1040
0.0
1070
     1
1040
0.0
1040
0.0
1040
-0.9999999999983517
1040
-0.2679491924306765
1070
     1
1040
-0.9999999999983524
1040
-0.267949192430676
1040
-0.9999999999983524
1040
0.2679491924306774
1071
        0
1070
     0
1070
     1
1071
        1
1040
2.995745117231336
1040
-4.124946096263201
1040
0.0
1002
}
  0
ENDBLK
  5
132
330
2FF
100
AcDbEntity
  8
0
100
AcDbBlockEnd
  0
BLOCK
  5
309
330
301
100
AcDbEntity
  8
0
100
AcDbBlockBegin
  2
*U1
 70
     1
 10
0.0
 20
0.0
 30
0.0
  3
*U1
  1

  0
SOLID
  5
209
330
301
100
AcDbEntity
  8
0
  6
Continuous
 62
     0
100
AcDbTrace
 10
0.666666666665568
 20
0.0000000000000004
 30
0.0
 11
0.9999999999983517
 21
0.2679491924306774
 31
0.0
 12
0.0
 22
0.0
 32
0.0
 13
0.0
 23
0.0
 33
0.0
210
0.0
220
0.0
230
-1.0
  0
SOLID
  5
20A
330
301
100
AcDbEntity
  8
0
  6
Continuous
 62
     0
100
AcDbTrace
 10
0.666666666665568
 20
0.0000000000000004
 30
0.0
 11
0.0
 21
0.0
 31
0.0
 12
0.9999999999983524
 22
-0.267949192430676
 32
0.0
 13
0.9999999999983524
 23
-0.267949192430676
 33
0.0
210
0.0
220
0.0
230
-1.0
  0
SOLID
  5
20B
330
301
100
AcDbEntity
  8
0
  6
Continuous
 62
     0
100
AcDbTrace
 10
0.666666666665568
 20
0.0000000000000004
 30
0.0
 11
0.9999999999983524
 21
-0.267949192430676
 31
0.0
 12
0.9999999999983517
 22
0.2679491924306774
 32
0.0
 13
0.9999999999983517
 23
0.2679491924306774
 33
0.0
210
0.0
220
0.0
230
-1.0
  0
ENDBLK
  5
20D
330
301
100
AcDbEntity
  8
0
100
AcDbBlockEnd
  0
BLOCK
  5
CBA
330
CB9
100
AcDbEntity
  8
0
100
AcDbBlockBegin
  2
*D2
 70
     1
 10
0.0
 20
0.0
 30
0.0
  3
*D2
  1

  0
LINE
  5
16DE
330
CB9
100
AcDbEntity
  8
2寸法線
 62
     0
440
 16777216
370
    -2
100
AcDbLine
 10
658.5672913017908
 20
139.5992084573975
 30
0.0
 11
584.1891814076729
 21
139.5992084573975
 31
0.0
  0
LINE
  5
16DF
330
CB9
100
AcDbEntity
  8
2寸法線
 62
     0
440
 16777216
370
    -2
100
AcDbLine
 10
619.766956180095
 20
48.59920845739754
 30
0.0
 11
584.1891814076729
 21
48.59920845739755
 31
0.0
  0
LINE
  5
16E0
330
CB9
100
AcDbEntity
  8
2寸法線
 62
     0
440
 16777216
370
    -2
100
AcDbLine
 10
585.1891814076729
 20
137.7992084573975
 30
0.0
 11
585.1891814076729
 21
50.39920845739755
 31
0.0
  0
INSERT
  5
16E1
330
CB9
100
AcDbEntity
  8
2寸法線
 62
     0
440
 16777216
370
    -2
100
AcDbBlockReference
  2
2
 10
585.1891814076729
 20
139.5992084573975
 30
0.0
 41
1.8
 42
1.8
 43
1.8
 50
90.0
  0
INSERT
  5
16E2
330
CB9
100
AcDbEntity
  8
2寸法線
 62
     0
440
 16777216
370
    -2
100
AcDbBlockReference
  2
2
 10
585.1891814076729
 20
48.59920845739755
 30
0.0
 41
1.8
 42
1.8
 43
1.8
 50
270.0
  0
MTEXT
  5
16E3
330
CB9
100
AcDbEntity
  8
2寸法線
 62
     0
440
 16777216
100
AcDbMText
 10
580.6891814076729
 20
94.0992084573976
 30
0.0
 40
8.0
 41
0.0
 46
0.0
 71
     5
 72
     1
  1
\A1;91
 11
0.0000000000000001
 21
1.0
 31
0.0
 73
     1
 44
1.0
  0
POINT
  5
16E4
330
CB9
100
AcDbEntity
  8
DEFPOINTS
 62
     0
440
 16777216
100
AcDbPoint
 10
659.5672913017907
 20
139.5992084573975
 30
0.0
  0
POINT
  5
16E5
330
CB9
100
AcDbEntity
  8
DEFPOINTS
 62
     0
440
 16777216
100
AcDbPoint
 10
620.7669561800951
 20
48.59920845739754
 30
0.0
  0
POINT
  5
16E6
330
CB9
100
AcDbEntity
  8
DEFPOINTS
 62
     0
440
 16777216
100
AcDbPoint
 10
585.1891814076729
 20
48.59920845739755
 30
0.0
  0
ENDBLK
  5
CBB
330
CB9
100
AcDbEntity
  8
0
100
AcDbBlockEnd
  0
BLOCK
  5
CC7
330
CC6
100
AcDbEntity
  8
0
100
AcDbBlockBegin
  2
*D3
 70
     1
 10
0.0
 20
0.0
 30
0.0
  3
*D3
  1

  0
LINE
  5
163E
330
CC6
100
AcDbEntity
  8
2寸法線
 62
     0
440
 16777216
370
    -2
100
AcDbLine
 10
664.2363797482494
 20
-188.3361669863909
 30
0.0
 11
573.6884100982494
 21
-188.3361669863909
 31
0.0
  0
LINE
  5
163F
330
CC6
100
AcDbEntity
  8
2寸法線
 62
     0
440
 16777216
370
    -2
100
AcDbLine
 10
625.3363797482493
 20
-292.1361669863913
 30
0.0
 11
573.6884100982492
 21
-292.1361669863913
 31
0.0
  0
LINE
  5
1640
330
CC6
100
AcDbEntity
  8
2寸法線
 62
     0
440
 16777216
370
    -2
100
AcDbLine
 10
574.6884100982494
 20
-190.1361669863909
 30
0.0
 11
574.6884100982493
 21
-290.3361669863913
 31
0.0
  0
INSERT
  5
1641
330
CC6
100
AcDbEntity
  8
2寸法線
 62
     0
440
 16777216
370
    -2
100
AcDbBlockReference
  2
2
 10
574.6884100982494
 20
-188.3361669863909
 30
0.0
 41
1.8
 42
1.8
 43
1.8
 50
90.0
  0
INSERT
  5
1642
330
CC6
100
AcDbEntity
  8
2寸法線
 62
     0
440
 16777216
370
    -2
100
AcDbBlockReference
  2
2
 10
574.6884100982493
 20
-292.1361669863913
 30
0.0
 41
1.8
 42
1.8
 43
1.8
 50
270.0
  0
MTEXT
  5
1643
330
CC6
100
AcDbEntity
  8
2寸法線
 62
     0
440
 16777216
100
AcDbMText
 10
570.1884100982494
 20
-240.236166986391
 30
0.0
 40
8.0
 41
0.0
 46
0.0
 71
     5
 72
     1
  1
\A1;103.8
 11
0.0000000000000001
 21
1.0
 31
0.0
 73
     1
 44
1.0
  0
POINT
  5
1644
330
CC6
100
AcDbEntity
  8
DEFPOINTS
 62
     0
440
 16777216
100
AcDbPoint
 10
665.2363797482494
 20
-188.3361669863909
 30
0.0
  0
POINT
  5
1645
330
CC6
100
AcDbEntity
  8
DEFPOINTS
 62
     0
440
 16777216
100
AcDbPoint
 10
626.3363797482493
 20
-292.1361669863913
 30
0.0
  0
POINT
  5
1646
330
CC6
100
AcDbEntity
  8
DEFPOINTS
 62
     0
440
 16777216
100
AcDbPoint
 10
574.6884100982493
 20
-292.1361669863913
 30
0.0
  0
ENDBLK
  5
CC8
330
CC6
100
AcDbEntity
  8
0
100
AcDbBlockEnd
  0
BLOCK
  5
CE9
330
CE8
100
AcDbEntity
  8
0
100
AcDbBlockBegin
  2
*D4
 70
     1
 10
0.0
 20
0.0
 30
0.0
  3
*D4
  1

  0
LINE
  5
1647
330
CE8
100
AcDbEntity
  8
2寸法線
 62
     0
440
 16777216
370
    -2
100
AcDbLine
 10
660.5672913017911
 20
202.5992084573975
 30
0.0
 11
744.82948338092
 21
202.5992084573975
 31
0.0
  0
LINE
  5
1648
330
CE8
100
AcDbEntity
  8
2寸法線
 62
     0
440
 16777216
370
    -2
100
AcDbLine
 10
699.3676264234882
 20
48.59920845739753
 30
0.0
 11
744.82948338092
 21
48.59920845739752
 31
0.0
  0
LINE
  5
1649
330
CE8
100
AcDbEntity
  8
2寸法線
 62
     0
440
 16777216
370
    -2
100
AcDbLine
 10
743.82948338092
 20
200.7992084573975
 30
0.0
 11
743.82948338092
 21
50.39920845739752
 31
0.0
  0
INSERT
  5
164A
330
CE8
100
AcDbEntity
  8
2寸法線
 62
     0
440
 16777216
370
    -2
100
AcDbBlockReference
  2
2
 10
743.82948338092
 20
202.5992084573975
 30
0.0
 41
1.8
 42
1.8
 43
1.8
 50
90.0
  0
INSERT
  5
164B
330
CE8
100
AcDbEntity
  8
2寸法線
 62
     0
440
 16777216
370
    -2
100
AcDbBlockReference
  2
2
 10
743.82948338092
 20
48.59920845739752
 30
0.0
 41
1.8
 42
1.8
 43
1.8
 50
270.0
  0
MTEXT
  5
164C
330
CE8
100
AcDbEntity
  8
2寸法線
 62
     0
440
 16777216
100
AcDbMText
 10
739.32948338092
 20
125.5992084573976
 30
0.0
 40
8.0
 41
0.0
 46
0.0
 71
     5
 72
     1
  1
\A1;154
 11
0.0000000000000001
 21
1.0
 31
0.0
 73
     1
 44
1.0
  0
POINT
  5
164D
330
CE8
100
AcDbEntity
  8
DEFPOINTS
 62
     0
440
 16777216
100
AcDbPoint
 10
659.5672913017911
 20
202.5992084573975
 30
0.0
  0
POINT
  5
164E
330
CE8
100
AcDbEntity
  8
DEFPOINTS
 62
     0
440
 16777216
100
AcDbPoint
 10
698.3676264234881
 20
48.59920845739753
 30
0.0
  0
POINT
  5
164F
330
CE8
100
AcDbEntity
  8
DEFPOINTS
 62
     0
440
 16777216
100
AcDbPoint
 10
743.82948338092
 20
48.59920845739752
 30
0.0
  0
ENDBLK
  5
CEA
330
CE8
100
AcDbEntity
  8
0
100
AcDbBlockEnd
  0
BLOCK
  5
CF6
330
CF5
100
AcDbEntity
  8
0
100
AcDbBlockBegin
  2
*D5
 70
     1
 10
0.0
 20
0.0
 30
0.0
  3
*D5
  1

  0
LINE
  5
1650
330
CF5
100
AcDbEntity
  8
2寸法線
 62
     0
440
 16777216
370
    -2
100
AcDbLine
 10
666.2363797482498
 20
-115.1361669863919
 30
0.0
 11
765.4557869629794
 21
-115.1361669863919
 31
0.0
  0
LINE
  5
1651
330
CF5
100
AcDbEntity
  8
2寸法線
 62
     0
440
 16777216
370
    -2
100
AcDbLine
 10
705.1363797482496
 20
-292.1361669863913
 30
0.0
 11
765.4557869629793
 21
-292.1361669863913
 31
0.0
  0
LINE
  5
1652
330
CF5
100
AcDbEntity
  8
2寸法線
 62
     0
440
 16777216
370
    -2
100
AcDbLine
 10
764.4557869629794
 20
-116.9361669863919
 30
0.0
 11
764.4557869629793
 21
-290.3361669863913
 31
0.0
  0
INSERT
  5
1653
330
CF5
100
AcDbEntity
  8
2寸法線
 62
     0
440
 16777216
370
    -2
100
AcDbBlockReference
  2
2
 10
764.4557869629794
 20
-115.1361669863919
 30
0.0
 41
1.8
 42
1.8
 43
1.8
 50
90.0
  0
INSERT
  5
1654
330
CF5
100
AcDbEntity
  8
2寸法線
 62
     0
440
 16777216
370
    -2
100
AcDbBlockReference
  2
2
 10
764.4557869629793
 20
-292.1361669863913
 30
0.0
 41
1.8
 42
1.8
 43
1.8
 50
270.0
  0
MTEXT
  5
1655
330
CF5
100
AcDbEntity
  8
2寸法線
 62
     0
440
 16777216
100
AcDbMText
 10
759.9557869629794
 20
-203.6361669863915
 30
0.0
 40
8.0
 41
0.0
 46
0.0
 71
     5
 72
     1
  1
\A1;177
 11
0.0000000000000001
 21
1.0
 31
0.0
 73
     1
 44
1.0
  0
POINT
  5
1656
330
CF5
100
AcDbEntity
  8
DEFPOINTS
 62
     0
440
 16777216
100
AcDbPoint
 10
665.2363797482498
 20
-115.1361669863919
 30
0.0
  0
POINT
  5
1657
330
CF5
100
AcDbEntity
  8
DEFPOINTS
 62
     0
440
 16777216
100
AcDbPoint
 10
704.1363797482496
 20
-292.1361669863913
 30
0.0
  0
POINT
  5
1658
330
CF5
100
AcDbEntity
  8
DEFPOINTS
 62
     0
440
 16777216
100
AcDbPoint
 10
764.4557869629793
 20
-292.1361669863913
 30
0.0
  0
ENDBLK
  5
CF7
330
CF5
100
AcDbEntity
  8
0
100
AcDbBlockEnd
  0
BLOCK
  5
D03
330
D02
100
AcDbEntity
  8
0
100
AcDbBlockBegin
  2
*D6
 70
     1
 10
0.0
 20
0.0
 30
0.0
  3
*D6
  1

  0
LINE
  5
1659
330
D02
100
AcDbEntity
  8
2寸法線
 62
     0
440
 16777216
370
    -2
100
AcDbLine
 10
666.0197760962034
 20
-475.0873443606766
 30
0.0
 11
758.0019011235313
 21
-475.0873443606766
 31
0.0
  0
LINE
  5
165A
330
D02
100
AcDbEntity
  8
2寸法線
 62
     0
440
 16777216
370
    -2
100
AcDbLine
 10
666.0197760962034
 20
-652.0873443606767
 30
0.0
 11
758.0019011235313
 21
-652.0873443606767
 31
0.0
  0
LINE
  5
165B
330
D02
100
AcDbEntity
  8
2寸法線
 62
     0
440
 16777216
370
    -2
100
AcDbLine
 10
757.0019011235313
 20
-476.8873443606767
 30
0.0
 11
757.0019011235313
 21
-650.2873443606768
 31
0.0
  0
INSERT
  5
165C
330
D02
100
AcDbEntity
  8
2寸法線
 62
     0
440
 16777216
370
    -2
100
AcDbBlockReference
  2
2
 10
757.0019011235313
 20
-475.0873443606766
 30
0.0
 41
1.8
 42
1.8
 43
1.8
 50
90.0
  0
INSERT
  5
165D
330
D02
100
AcDbEntity
  8
2寸法線
 62
     0
440
 16777216
370
    -2
100
AcDbBlockReference
  2
2
 10
757.0019011235313
 20
-652.0873443606767
 30
0.0
 41
1.8
 42
1.8
 43
1.8
 50
270.0
  0
MTEXT
  5
165E
330
D02
100
AcDbEntity
  8
2寸法線
 62
     0
440
 16777216
100
AcDbMText
 10
752.5019011235314
 20
-563.5873443606766
 30
0.0
 40
8.0
 41
0.0
 46
0.0
 71
     5
 72
     1
  1
\A1;177
 11
0.0000000000000001
 21
1.0
 31
0.0
 73
     1
 44
1.0
  0
POINT
  5
165F
330
D02
100
AcDbEntity
  8
DEFPOINTS
 62
     0
440
 16777216
100
AcDbPoint
 10
665.0197760962035
 20
-475.0873443606766
 30
0.0
  0
POINT
  5
1660
330
D02
100
AcDbEntity
  8
DEFPOINTS
 62
     0
440
 16777216
100
AcDbPoint
 10
665.0197760962035
 20
-652.0873443606767
 30
0.0
  0
POINT
  5
1661
330
D02
100
AcDbEntity
  8
DEFPOINTS
 62
     0
440
 16777216
100
AcDbPoint
 10
757.0019011235313
 20
-652.0873443606767
 30
0.0
  0
ENDBLK
  5
D04
330
D02
100
AcDbEntity
  8
0
100
AcDbBlockEnd
  0
BLOCK
  5
11D4
330
11D3
100
AcDbEntity
  8
0
100
AcDbBlockBegin
  2
*D7
 70
     1
 10
0.0
 20
0.0
 30
0.0
  3
*D7
  1

  0
LINE
  5
1521
330
11D3
100
AcDbEntity
  8
2寸法線
 62
     0
440
 16777216
370
    -2
100
AcDbLine
 10
1043.862019667731
 20
139.5992082188269
 30
0.0
 11
969.483909773613
 21
139.5992082188269
 31
0.0
  0
LINE
  5
1522
330
11D3
100
AcDbEntity
  8
2寸法線
 62
     0
440
 16777216
370
    -2
100
AcDbLine
 10
1043.862019667731
 20
52.5992082188269
 30
0.0
 11
969.483909773613
 21
52.59920821882693
 31
0.0
  0
LINE
  5
1523
330
11D3
100
AcDbEntity
  8
2寸法線
 62
     0
440
 16777216
370
    -2
100
AcDbLine
 10
970.483909773613
 20
137.7992082188269
 30
0.0
 11
970.483909773613
 21
54.39920821882693
 31
0.0
  0
INSERT
  5
1524
330
11D3
100
AcDbEntity
  8
2寸法線
 62
     0
440
 16777216
370
    -2
100
AcDbBlockReference
  2
2
 10
970.483909773613
 20
139.5992082188269
 30
0.0
 41
1.8
 42
1.8
 43
1.8
 50
90.0
  0
INSERT
  5
1525
330
11D3
100
AcDbEntity
  8
2寸法線
 62
     0
440
 16777216
370
    -2
100
AcDbBlockReference
  2
2
 10
970.483909773613
 20
52.59920821882693
 30
0.0
 41
1.8
 42
1.8
 43
1.8
 50
270.0
  0
MTEXT
  5
1526
330
11D3
100
AcDbEntity
  8
2寸法線
 62
     0
440
 16777216
100
AcDbMText
 10
965.983909773613
 20
96.09920821882708
 30
0.0
 40
8.0
 41
0.0
 46
0.0
 71
     5
 72
     1
  1
\A1;87
 11
0.0000000000000001
 21
1.0
 31
0.0
 73
     1
 44
1.0
  0
POINT
  5
1527
330
11D3
100
AcDbEntity
  8
DEFPOINTS
 62
     0
440
 16777216
100
AcDbPoint
 10
1044.86201966773
 20
139.5992082188269
 30
0.0
  0
POINT
  5
1528
330
11D3
100
AcDbEntity
  8
DEFPOINTS
 62
     0
440
 16777216
100
AcDbPoint
 10
1044.862019667731
 20
52.5992082188269
 30
0.0
  0
POINT
  5
1529
330
11D3
100
AcDbEntity
  8
DEFPOINTS
 62
     0
440
 16777216
100
AcDbPoint
 10
970.483909773613
 20
52.59920821882693
 30
0.0
  0
ENDBLK
  5
11D5
330
11D3
100
AcDbEntity
  8
0
100
AcDbBlockEnd
  0
BLOCK
  5
11E0
330
11DF
100
AcDbEntity
  8
0
100
AcDbBlockBegin
  2
*D8
 70
     1
 10
0.0
 20
0.0
 30
0.0
  3
*D8
  1

  0
LINE
  5
1533
330
11DF
100
AcDbEntity
  8
2寸法線
 62
     0
440
 16777216
370
    -2
100
AcDbLine
 10
1049.531108114189
 20
-188.3361672249615
 30
0.0
 11
958.9831384641895
 21
-188.3361672249615
 31
0.0
  0
LINE
  5
1534
330
11DF
100
AcDbEntity
  8
2寸法線
 62
     0
440
 16777216
370
    -2
100
AcDbLine
 10
1049.531108114189
 20
-286.1361672249619
 30
0.0
 11
958.9831384641893
 21
-286.1361672249619
 31
0.0
  0
LINE
  5
1535
330
11DF
100
AcDbEntity
  8
2寸法線
 62
     0
440
 16777216
370
    -2
100
AcDbLine
 10
959.9831384641895
 20
-190.1361672249615
 30
0.0
 11
959.9831384641893
 21
-284.3361672249618
 31
0.0
  0
INSERT
  5
1536
330
11DF
100
AcDbEntity
  8
2寸法線
 62
     0
440
 16777216
370
    -2
100
AcDbBlockReference
  2
2
 10
959.9831384641895
 20
-188.3361672249615
 30
0.0
 41
1.8
 42
1.8
 43
1.8
 50
90.0
  0
INSERT
  5
1537
330
11DF
100
AcDbEntity
  8
2寸法線
 62
     0
440
 16777216
370
    -2
100
AcDbBlockReference
  2
2
 10
959.9831384641893
 20
-286.1361672249619
 30
0.0
 41
1.8
 42
1.8
 43
1.8
 50
270.0
  0
MTEXT
  5
1538
330
11DF
100
AcDbEntity
  8
2寸法線
 62
     0
440
 16777216
100
AcDbMText
 10
955.4831384641895
 20
-237.2361672249615
 30
0.0
 40
8.0
 41
0.0
 46
0.0
 71
     5
 72
     1
  1
\A1;97.8
 11
0.0000000000000001
 21
1.0
 31
0.0
 73
     1
 44
1.0
  0
POINT
  5
1539
330
11DF
100
AcDbEntity
  8
DEFPOINTS
 62
     0
440
 16777216
100
AcDbPoint
 10
1050.531108114189
 20
-188.3361672249615
 30
0.0
  0
POINT
  5
153A
330
11DF
100
AcDbEntity
  8
DEFPOINTS
 62
     0
440
 16777216
100
AcDbPoint
 10
1050.531108114189
 20
-286.1361672249619
 30
0.0
  0
POINT
  5
153B
330
11DF
100
AcDbEntity
  8
DEFPOINTS
 62
     0
440
 16777216
100
AcDbPoint
 10
959.9831384641893
 20
-286.1361672249619
 30
0.0
  0
ENDBLK
  5
11E1
330
11DF
100
AcDbEntity
  8
0
100
AcDbBlockEnd
  0
BLOCK
  5
11FE
330
11FD
100
AcDbEntity
  8
0
100
AcDbBlockBegin
  2
*D9
 70
     1
 10
0.0
 20
0.0
 30
0.0
  3
*D9
  1

  0
LINE
  5
1518
330
11FD
100
AcDbEntity
  8
2寸法線
 62
     0
440
 16777216
370
    -2
100
AcDbLine
 10
1045.862019667731
 20
202.5992082188269
 30
0.0
 11
1130.12421174686
 21
202.5992082188269
 31
0.0
  0
LINE
  5
1519
330
11FD
100
AcDbEntity
  8
2寸法線
 62
     0
440
 16777216
370
    -2
100
AcDbLine
 10
1044.862019667731
 20
52.5992082188269
 30
0.0
 11
1130.12421174686
 21
52.59920821882688
 31
0.0
  0
LINE
  5
151A
330
11FD
100
AcDbEntity
  8
2寸法線
 62
     0
440
 16777216
370
    -2
100
AcDbLine
 10
1129.12421174686
 20
200.7992082188269
 30
0.0
 11
1129.12421174686
 21
54.39920821882687
 31
0.0
  0
INSERT
  5
151B
330
11FD
100
AcDbEntity
  8
2寸法線
 62
     0
440
 16777216
370
    -2
100
AcDbBlockReference
  2
2
 10
1129.12421174686
 20
202.5992082188269
 30
0.0
 41
1.8
 42
1.8
 43
1.8
 50
90.0
  0
INSERT
  5
151C
330
11FD
100
AcDbEntity
  8
2寸法線
 62
     0
440
 16777216
370
    -2
100
AcDbBlockReference
  2
2
 10
1129.12421174686
 20
52.59920821882688
 30
0.0
 41
1.8
 42
1.8
 43
1.8
 50
270.0
  0
MTEXT
  5
151D
330
11FD
100
AcDbEntity
  8
2寸法線
 62
     0
440
 16777216
100
AcDbMText
 10
1124.62421174686
 20
127.599208218827
 30
0.0
 40
8.0
 41
0.0
 46
0.0
 71
     5
 72
     1
  1
\A1;150
 11
0.0000000000000001
 21
1.0
 31
0.0
 73
     1
 44
1.0
  0
POINT
  5
151E
330
11FD
100
AcDbEntity
  8
DEFPOINTS
 62
     0
440
 16777216
100
AcDbPoint
 10
1044.862019667731
 20
202.5992082188269
 30
0.0
  0
POINT
  5
151F
330
11FD
100
AcDbEntity
  8
DEFPOINTS
 62
     0
440
 16777216
100
AcDbPoint
 10
1043.862019667731
 20
52.5992082188269
 30
0.0
  0
POINT
  5
1520
330
11FD
100
AcDbEntity
  8
DEFPOINTS
 62
     0
440
 16777216
100
AcDbPoint
 10
1129.12421174686
 20
52.59920821882688
 30
0.0
  0
ENDBLK
  5
11FF
330
11FD
100
AcDbEntity
  8
0
100
AcDbBlockEnd
  0
BLOCK
  5
120A
330
1209
100
AcDbEntity
  8
0
100
AcDbBlockBegin
  2
*D10
 70
     1
 10
0.0
 20
0.0
 30
0.0
  3
*D10
  1

  0
LINE
  5
152A
330
1209
100
AcDbEntity
  8
2寸法線
 62
     0
440
 16777216
370
    -2
100
AcDbLine
 10
1051.53110811419
 20
-115.1361672249625
 30
0.0
 11
1150.750515328919
 21
-115.1361672249625
 31
0.0
  0
LINE
  5
152B
330
1209
100
AcDbEntity
  8
2寸法線
 62
     0
440
 16777216
370
    -2
100
AcDbLine
 10
1051.531108114189
 20
-286.1361672249619
 30
0.0
 11
1150.750515328919
 21
-286.1361672249619
 31
0.0
  0
LINE
  5
152C
330
1209
100
AcDbEntity
  8
2寸法線
 62
     0
440
 16777216
370
    -2
100
AcDbLine
 10
1149.750515328919
 20
-116.9361672249625
 30
0.0
 11
1149.750515328919
 21
-284.3361672249618
 31
0.0
  0
INSERT
  5
152D
330
1209
100
AcDbEntity
  8
2寸法線
 62
     0
440
 16777216
370
    -2
100
AcDbBlockReference
  2
2
 10
1149.750515328919
 20
-115.1361672249625
 30
0.0
 41
1.8
 42
1.8
 43
1.8
 50
90.0
  0
INSERT
  5
152E
330
1209
100
AcDbEntity
  8
2寸法線
 62
     0
440
 16777216
370
    -2
100
AcDbBlockReference
  2
2
 10
1149.750515328919
 20
-286.1361672249619
 30
0.0
 41
1.8
 42
1.8
 43
1.8
 50
270.0
  0
MTEXT
  5
152F
330
1209
100
AcDbEntity
  8
2寸法線
 62
     0
440
 16777216
100
AcDbMText
 10
1145.250515328919
 20
-200.636167224962
 30
0.0
 40
8.0
 41
0.0
 46
0.0
 71
     5
 72
     1
  1
\A1;171
 11
0.0000000000000001
 21
1.0
 31
0.0
 73
     1
 44
1.0
  0
POINT
  5
1530
330
1209
100
AcDbEntity
  8
DEFPOINTS
 62
     0
440
 16777216
100
AcDbPoint
 10
1050.53110811419
 20
-115.1361672249625
 30
0.0
  0
POINT
  5
1531
330
1209
100
AcDbEntity
  8
DEFPOINTS
 62
     0
440
 16777216
100
AcDbPoint
 10
1050.531108114189
 20
-286.1361672249619
 30
0.0
  0
POINT
  5
1532
330
1209
100
AcDbEntity
  8
DEFPOINTS
 62
     0
440
 16777216
100
AcDbPoint
 10
1149.750515328919
 20
-286.1361672249619
 30
0.0
  0
ENDBLK
  5
120B
330
1209
100
AcDbEntity
  8
0
100
AcDbBlockEnd
  0
BLOCK
  5
1216
330
1215
100
AcDbEntity
  8
0
100
AcDbBlockBegin
  2
*D11
 70
     1
 10
0.0
 20
0.0
 30
0.0
  3
*D11
  1

  0
LINE
  5
153C
330
1215
100
AcDbEntity
  8
2寸法線
 62
     0
440
 16777216
370
    -2
100
AcDbLine
 10
1051.314504462143
 20
-475.0873445992472
 30
0.0
 11
1143.296629489471
 21
-475.0873445992472
 31
0.0
  0
LINE
  5
153D
330
1215
100
AcDbEntity
  8
2寸法線
 62
     0
440
 16777216
370
    -2
100
AcDbLine
 10
1051.314504462143
 20
-646.0873445992473
 30
0.0
 11
1143.296629489471
 21
-646.0873445992473
 31
0.0
  0
LINE
  5
153E
330
1215
100
AcDbEntity
  8
2寸法線
 62
     0
440
 16777216
370
    -2
100
AcDbLine
 10
1142.296629489471
 20
-476.8873445992473
 30
0.0
 11
1142.296629489471
 21
-644.2873445992473
 31
0.0
  0
INSERT
  5
153F
330
1215
100
AcDbEntity
  8
2寸法線
 62
     0
440
 16777216
370
    -2
100
AcDbBlockReference
  2
2
 10
1142.296629489471
 20
-475.0873445992472
 30
0.0
 41
1.8
 42
1.8
 43
1.8
 50
90.0
  0
INSERT
  5
1540
330
1215
100
AcDbEntity
  8
2寸法線
 62
     0
440
 16777216
370
    -2
100
AcDbBlockReference
  2
2
 10
1142.296629489471
 20
-646.0873445992473
 30
0.0
 41
1.8
 42
1.8
 43
1.8
 50
270.0
  0
MTEXT
  5
1541
330
1215
100
AcDbEntity
  8
2寸法線
 62
     0
440
 16777216
100
AcDbMText
 10
1137.796629489471
 20
-560.5873445992472
 30
0.0
 40
8.0
 41
0.0
 46
0.0
 71
     5
 72
     1
  1
\A1;171
 11
0.0000000000000001
 21
1.0
 31
0.0
 73
     1
 44
1.0
  0
POINT
  5
1542
330
1215
100
AcDbEntity
  8
DEFPOINTS
 62
     0
440
 16777216
100
AcDbPoint
 10
1050.314504462143
 20
-475.0873445992472
 30
0.0
  0
POINT
  5
1543
330
1215
100
AcDbEntity
  8
DEFPOINTS
 62
     0
440
 16777216
100
AcDbPoint
 10
1050.314504462143
 20
-646.0873445992473
 30
0.0
  0
POINT
  5
1544
330
1215
100
AcDbEntity
  8
DEFPOINTS
 62
     0
440
 16777216
100
AcDbPoint
 10
1142.296629489471
 20
-646.0873445992473
 30
0.0
  0
ENDBLK
  5
1217
330
1215
100
AcDbEntity
  8
0
100
AcDbBlockEnd
  0
BLOCK
  5
12E3
330
12E2
100
AcDbEntity
  8
0
100
AcDbBlockBegin
  2
*D12
 70
     1
 10
0.0
 20
0.0
 30
0.0
  3
*D12
  1

  0
LINE
  5
1662
330
12E2
100
AcDbEntity
  8
2寸法線
 62
     0
440
 16777216
370
    -2
100
AcDbLine
 10
706.1363797482497
 20
-188.3361669863909
 30
0.0
 11
719.9511827385708
 21
-188.3361669863909
 31
0.0
  0
LINE
  5
1663
330
12E2
100
AcDbEntity
  8
2寸法線
 62
     0
440
 16777216
370
    -2
100
AcDbLine
 10
706.1363797482497
 20
-194.3361669863909
 30
0.0
 11
719.9511827385708
 21
-194.3361669863909
 31
0.0
  0
LINE
  5
1664
330
12E2
100
AcDbEntity
  8
2寸法線
 62
     0
440
 16777216
370
    -2
100
AcDbLine
 10
718.9511827385708
 20
-192.5361669863909
 30
0.0
 11
718.9511827385708
 21
-190.1361669863909
 31
0.0
  0
LINE
  5
1665
330
12E2
100
AcDbEntity
  8
2寸法線
 62
     0
440
 16777216
370
    -2
100
AcDbLine
 10
718.9511827385708
 20
-188.3361669863909
 30
0.0
 11
718.9511827385708
 21
-175.5063135451555
 31
0.0
  0
INSERT
  5
1666
330
12E2
100
AcDbEntity
  8
2寸法線
 62
     0
440
 16777216
370
    -2
100
AcDbBlockReference
  2
2
 10
718.9511827385708
 20
-194.3361669863909
 30
0.0
 41
1.8
 42
1.8
 43
1.8
 50
270.0
  0
INSERT
  5
1667
330
12E2
100
AcDbEntity
  8
2寸法線
 62
     0
440
 16777216
370
    -2
100
AcDbBlockReference
  2
2
 10
718.9511827385708
 20
-188.3361669863909
 30
0.0
 41
1.8
 42
1.8
 43
1.8
 50
90.0
  0
MTEXT
  5
1668
330
12E2
100
AcDbEntity
  8
2寸法線
 62
     0
440
 16777216
100
AcDbMText
 10
714.4511827385708
 20
-178.672980211822
 30
0.0
 40
8.0
 41
0.0
 46
0.0
 71
     5
 72
     1
  1
\A1;6
 11
0.0000000000000001
 21
1.0
 31
0.0
 73
     1
 44
1.0
  0
POINT
  5
1669
330
12E2
100
AcDbEntity
  8
DEFPOINTS
 62
     0
440
 16777216
100
AcDbPoint
 10
705.1363797482497
 20
-188.3361669863909
 30
0.0
  0
POINT
  5
166A
330
12E2
100
AcDbEntity
  8
DEFPOINTS
 62
     0
440
 16777216
100
AcDbPoint
 10
705.1363797482497
 20
-194.3361669863909
 30
0.0
  0
POINT
  5
166B
330
12E2
100
AcDbEntity
  8
DEFPOINTS
 62
     0
440
 16777216
100
AcDbPoint
 10
718.9511827385708
 20
-194.3361669863909
 30
0.0
  0
ENDBLK
  5
12E4
330
12E2
100
AcDbEntity
  8
0
100
AcDbBlockEnd
  0
BLOCK
  5
132E
330
132D
100
AcDbEntity
  8
0
100
AcDbBlockBegin
  2
*D13
 70
     1
 10
0.0
 20
0.0
 30
0.0
  3
*D13
  1

  0
LINE
  5
166C
330
132D
100
AcDbEntity
  8
2寸法線
 62
     0
440
 16777216
370
    -2
100
AcDbLine
 10
700.3676264234862
 20
139.5992084573975
 30
0.0
 11
713.0313745191783
 21
139.5992084573975
 31
0.0
  0
LINE
  5
166D
330
132D
100
AcDbEntity
  8
2寸法線
 62
     0
440
 16777216
370
    -2
100
AcDbLine
 10
700.3676264234862
 20
135.5992084573975
 30
0.0
 11
713.0313745191783
 21
135.5992084573975
 31
0.0
  0
LINE
  5
166E
330
132D
100
AcDbEntity
  8
2寸法線
 62
     0
440
 16777216
370
    -2
100
AcDbLine
 10
712.0313745191784
 20
133.7992084573975
 30
0.0
 11
712.0313745191784
 21
131.9992084573975
 31
0.0
  0
LINE
  5
166F
330
132D
100
AcDbEntity
  8
2寸法線
 62
     0
440
 16777216
370
    -2
100
AcDbLine
 10
712.0313745191784
 20
141.3992084573975
 30
0.0
 11
712.0313745191784
 21
150.4514324273878
 31
0.0
  0
LINE
  5
1670
330
132D
100
AcDbEntity
  8
2寸法線
 62
     0
440
 16777216
370
    -2
100
AcDbLine
 10
712.0313745191784
 20
135.5992084573975
 30
0.0
 11
712.0313745191784
 21
139.5992084573975
 31
0.0
  0
INSERT
  5
1671
330
132D
100
AcDbEntity
  8
2寸法線
 62
     0
440
 16777216
370
    -2
100
AcDbBlockReference
  2
2
 10
712.0313745191784
 20
135.5992084573975
 30
0.0
 41
1.8
 42
1.8
 43
1.8
 50
90.0
  0
INSERT
  5
1672
330
132D
100
AcDbEntity
  8
2寸法線
 62
     0
440
 16777216
370
    -2
100
AcDbBlockReference
  2
2
 10
712.0313745191784
 20
139.5992084573975
 30
0.0
 41
1.8
 42
1.8
 43
1.8
 50
270.0
  0
MTEXT
  5
1673
330
132D
100
AcDbEntity
  8
2寸法線
 62
     0
440
 16777216
100
AcDbMText
 10
707.5313745191784
 20
147.2847657607212
 30
0.0
 40
8.0
 41
0.0
 46
0.0
 71
     5
 72
     1
  1
\A1;4
 11
0.0000000000000001
 21
1.0
 31
0.0
 73
     1
 44
1.0
  0
POINT
  5
1674
330
132D
100
AcDbEntity
  8
DEFPOINTS
 62
     0
440
 16777216
100
AcDbPoint
 10
699.3676264234863
 20
139.5992084573975
 30
0.0
  0
POINT
  5
1675
330
132D
100
AcDbEntity
  8
DEFPOINTS
 62
     0
440
 16777216
100
AcDbPoint
 10
699.3676264234863
 20
135.5992084573975
 30
0.0
  0
POINT
  5
1676
330
132D
100
AcDbEntity
  8
DEFPOINTS
 62
     0
440
 16777216
100
AcDbPoint
 10
712.0313745191784
 20
135.5992084573975
 30
0.0
  0
ENDBLK
  5
132F
330
132D
100
AcDbEntity
  8
0
100
AcDbBlockEnd
  0
BLOCK
  5
1363
330
1362
100
AcDbEntity
  8
0
100
AcDbBlockBegin
  2
*D14
 70
     1
 10
0.0
 20
0.0
 30
0.0
  3
*D14
  1

  0
LINE
  5
1677
330
1362
100
AcDbEntity
  8
2寸法線
 62
     0
440
 16777216
370
    -2
100
AcDbLine
 10
739.4363797482488
 20
-188.3361669863909
 30
0.0
 11
748.5619577835464
 21
-188.3361669863909
 31
0.0
  0
LINE
  5
1678
330
1362
100
AcDbEntity
  8
2寸法線
 62
     0
440
 16777216
370
    -2
100
AcDbLine
 10
739.4363797482488
 20
-194.3361669863909
 30
0.0
 11
748.5619577835464
 21
-194.3361669863909
 31
0.0
  0
LINE
  5
1679
330
1362
100
AcDbEntity
  8
2寸法線
 62
     0
440
 16777216
370
    -2
100
AcDbLine
 10
747.5619577835463
 20
-192.5361669863909
 30
0.0
 11
747.5619577835463
 21
-190.1361669863909
 31
0.0
  0
LINE
  5
167A
330
1362
100
AcDbEntity
  8
2寸法線
 62
     0
440
 16777216
370
    -2
100
AcDbLine
 10
747.5619577835463
 20
-188.3361669863909
 30
0.0
 11
747.5619577835463
 21
-175.9812530847188
 31
0.0
  0
INSERT
  5
167B
330
1362
100
AcDbEntity
  8
2寸法線
 62
     0
440
 16777216
370
    -2
100
AcDbBlockReference
  2
2
 10
747.5619577835463
 20
-194.3361669863909
 30
0.0
 41
1.8
 42
1.8
 43
1.8
 50
270.0
  0
INSERT
  5
167C
330
1362
100
AcDbEntity
  8
2寸法線
 62
     0
440
 16777216
370
    -2
100
AcDbBlockReference
  2
2
 10
747.5619577835463
 20
-188.3361669863909
 30
0.0
 41
1.8
 42
1.8
 43
1.8
 50
90.0
  0
MTEXT
  5
167D
330
1362
100
AcDbEntity
  8
2寸法線
 62
     0
440
 16777216
100
AcDbMText
 10
743.0619577835464
 20
-179.1479197513854
 30
0.0
 40
8.0
 41
0.0
 46
0.0
 71
     5
 72
     1
  1
\A1;6
 11
0.0000000000000001
 21
1.0
 31
0.0
 73
     1
 44
1.0
  0
POINT
  5
167E
330
1362
100
AcDbEntity
  8
DEFPOINTS
 62
     0
440
 16777216
100
AcDbPoint
 10
738.4363797482487
 20
-188.3361669863909
 30
0.0
  0
POINT
  5
167F
330
1362
100
AcDbEntity
  8
DEFPOINTS
 62
     0
440
 16777216
100
AcDbPoint
 10
738.4363797482487
 20
-194.3361669863909
 30
0.0
  0
POINT
  5
1680
330
1362
100
AcDbEntity
  8
DEFPOINTS
 62
     0
440
 16777216
100
AcDbPoint
 10
747.5619577835463
 20
-194.3361669863909
 30
0.0
  0
ENDBLK
  5
1364
330
1362
100
AcDbEntity
  8
0
100
AcDbBlockEnd
  0
BLOCK
  5
137F
330
137E
100
AcDbEntity
  8
0
100
AcDbBlockBegin
  2
*D15
 70
     1
 10
0.0
 20
0.0
 30
0.0
  3
*D15
  1

  0
LINE
  5
1681
330
137E
100
AcDbEntity
  8
2寸法線
 62
     0
440
 16777216
370
    -2
100
AcDbLine
 10
739.2197760962035
 20
-548.2873443606766
 30
0.0
 11
747.5253054955569
 21
-548.2873443606766
 31
0.0
  0
LINE
  5
1682
330
137E
100
AcDbEntity
  8
2寸法線
 62
     0
440
 16777216
370
    -2
100
AcDbLine
 10
739.2197760962035
 20
-554.2873443606765
 30
0.0
 11
747.5253054955569
 21
-554.2873443606765
 31
0.0
  0
LINE
  5
1683
330
137E
100
AcDbEntity
  8
2寸法線
 62
     0
440
 16777216
370
    -2
100
AcDbLine
 10
746.5253054955569
 20
-552.4873443606765
 30
0.0
 11
746.5253054955569
 21
-550.0873443606765
 31
0.0
  0
LINE
  5
1684
330
137E
100
AcDbEntity
  8
2寸法線
 62
     0
440
 16777216
370
    -2
100
AcDbLine
 10
746.5253054955569
 20
-548.2873443606766
 30
0.0
 11
746.5253054955569
 21
-527.4351591647504
 31
0.0
  0
INSERT
  5
1685
330
137E
100
AcDbEntity
  8
2寸法線
 62
     0
440
 16777216
370
    -2
100
AcDbBlockReference
  2
2
 10
746.5253054955569
 20
-554.2873443606765
 30
0.0
 41
1.8
 42
1.8
 43
1.8
 50
270.0
  0
INSERT
  5
1686
330
137E
100
AcDbEntity
  8
2寸法線
 62
     0
440
 16777216
370
    -2
100
AcDbBlockReference
  2
2
 10
746.5253054955569
 20
-548.2873443606766
 30
0.0
 41
1.8
 42
1.8
 43
1.8
 50
90.0
  0
MTEXT
  5
1687
330
137E
100
AcDbEntity
  8
2寸法線
 62
     0
440
 16777216
100
AcDbMText
 10
742.025305495557
 20
-530.601825831417
 30
0.0
 40
8.0
 41
0.0
 46
0.0
 71
     5
 72
     1
  1
\A1;6
 11
0.0000000000000001
 21
1.0
 31
0.0
 73
     1
 44
1.0
  0
POINT
  5
1688
330
137E
100
AcDbEntity
  8
DEFPOINTS
 62
     0
440
 16777216
100
AcDbPoint
 10
738.2197760962035
 20
-548.2873443606766
 30
0.0
  0
POINT
  5
1689
330
137E
100
AcDbEntity
  8
DEFPOINTS
 62
     0
440
 16777216
100
AcDbPoint
 10
738.2197760962035
 20
-554.2873443606765
 30
0.0
  0
POINT
  5
168A
330
137E
100
AcDbEntity
  8
DEFPOINTS
 62
     0
440
 16777216
100
AcDbPoint
 10
746.5253054955569
 20
-554.2873443606765
 30
0.0
  0
ENDBLK
  5
1380
330
137E
100
AcDbEntity
  8
0
100
AcDbBlockEnd
  0
BLOCK
  5
13E7
330
13E6
100
AcDbEntity
  8
0
100
AcDbBlockBegin
  2
*D16
 70
     1
 10
0.0
 20
0.0
 30
0.0
  3
*D16
  1

  0
LINE
  5
168B
330
13E6
100
AcDbEntity
  8
2寸法線
 62
     0
440
 16777216
370
    -2
100
AcDbLine
 10
710.7197760961951
 20
-548.2873443606766
 30
0.0
 11
724.8465703779952
 21
-548.2873443606766
 31
0.0
  0
LINE
  5
168C
330
13E6
100
AcDbEntity
  8
2寸法線
 62
     0
440
 16777216
370
    -2
100
AcDbLine
 10
710.7197760961951
 20
-554.2873443606766
 30
0.0
 11
724.8465703779952
 21
-554.2873443606766
 31
0.0
  0
LINE
  5
168D
330
13E6
100
AcDbEntity
  8
2寸法線
 62
     0
440
 16777216
370
    -2
100
AcDbLine
 10
723.8465703779952
 20
-552.4873443606767
 30
0.0
 11
723.8465703779952
 21
-550.0873443606766
 31
0.0
  0
LINE
  5
168E
330
13E6
100
AcDbEntity
  8
2寸法線
 62
     0
440
 16777216
370
    -2
100
AcDbLine
 10
723.8465703779952
 20
-548.2873443606766
 30
0.0
 11
723.8465703779952
 21
-530.8395620430086
 31
0.0
  0
INSERT
  5
168F
330
13E6
100
AcDbEntity
  8
2寸法線
 62
     0
440
 16777216
370
    -2
100
AcDbBlockReference
  2
2
 10
723.8465703779952
 20
-554.2873443606766
 30
0.0
 41
1.8
 42
1.8
 43
1.8
 50
270.0
  0
INSERT
  5
1690
330
13E6
100
AcDbEntity
  8
2寸法線
 62
     0
440
 16777216
370
    -2
100
AcDbBlockReference
  2
2
 10
723.8465703779952
 20
-548.2873443606766
 30
0.0
 41
1.8
 42
1.8
 43
1.8
 50
90.0
  0
MTEXT
  5
1691
330
13E6
100
AcDbEntity
  8
2寸法線
 62
     0
440
 16777216
100
AcDbMText
 10
719.3465703779954
 20
-534.0062287096753
 30
0.0
 40
8.0
 41
0.0
 46
0.0
 71
     5
 72
     1
  1
\A1;6
 11
0.0000000000000001
 21
1.0
 31
0.0
 73
     1
 44
1.0
  0
POINT
  5
1692
330
13E6
100
AcDbEntity
  8
DEFPOINTS
 62
     0
440
 16777216
100
AcDbPoint
 10
709.7197760961951
 20
-548.2873443606766
 30
0.0
  0
POINT
  5
1693
330
13E6
100
AcDbEntity
  8
DEFPOINTS
 62
     0
440
 16777216
100
AcDbPoint
 10
709.7197760961951
 20
-554.2873443606766
 30
0.0
  0
POINT
  5
1694
330
13E6
100
AcDbEntity
  8
DEFPOINTS
 62
     0
440
 16777216
100
AcDbPoint
 10
723.8465703779952
 20
-554.2873443606766
 30
0.0
  0
ENDBLK
  5
13E8
330
13E6
100
AcDbEntity
  8
0
100
AcDbBlockEnd
  0
BLOCK
  5
1916
330
1915
100
AcDbEntity
  8
0
 48
3.0
100
AcDbBlockBegin
  2
INABAロゴ
 70
     0
 10
0.0
 20
0.0
 30
0.0
  3
INABAロゴ
  1

  0
LINE
  5
1917
330
1915
100
AcDbEntity
  8
C4
100
AcDbLine
 10
0.0000007494031777
 20
-0.0000005923924462
 30
0.0
 11
2.000000749403177
 21
-0.0000005923924462
 31
0.0
  0
LINE
  5
1918
330
1915
100
AcDbEntity
  8
C4
100
AcDbLine
 10
0.0000007494032914
 20
5.999999407607553
 30
0.0
 11
2.000000749403177
 21
5.999999407607553
 31
0.0
  0
LINE
  5
1919
330
1915
100
AcDbEntity
  8
C4
100
AcDbLine
 10
2.000000749403177
 20
5.999999407607553
 30
0.0
 11
2.000000749403177
 21
-0.0000005923924462
 31
0.0
  0
LINE
  5
191A
330
1915
100
AcDbEntity
  8
C4
100
AcDbLine
 10
0.0000007494032346
 20
5.999999407607553
 30
0.0
 11
0.0000007494031209
 21
-0.0000005923924462
 31
0.0
  0
LINE
  5
191B
330
1915
100
AcDbEntity
  8
C4
100
AcDbLine
 10
3.000000749403177
 20
5.999999407607553
 30
0.0
 11
3.00000074940312
 21
-0.0000005923924462
 31
0.0
  0
LINE
  5
191C
330
1915
100
AcDbEntity
  8
C4
100
AcDbLine
 10
5.000000749403177
 20
2.999999407607639
 30
0.0
 11
5.00000074940312
 21
-0.0000005923924462
 31
0.0
  0
LINE
  5
191D
330
1915
100
AcDbEntity
  8
C4
100
AcDbLine
 10
9.000000749403234
 20
5.999999407607553
 30
0.0
 11
9.000000749403177
 21
-0.0000005923924462
 31
0.0
  0
LINE
  5
191E
330
1915
100
AcDbEntity
  8
C4
100
AcDbLine
 10
7.000000749403234
 20
5.99999940760761
 30
0.0
 11
7.000000749403177
 21
2.999999407607496
 31
0.0
  0
LINE
  5
191F
330
1915
100
AcDbEntity
  8
C4
100
AcDbLine
 10
5.000000749403177
 20
2.999999407607639
 30
0.0
 11
7.000000749403177
 21
-0.0000005923924462
 31
0.0
  0
LINE
  5
1920
330
1915
100
AcDbEntity
  8
C4
100
AcDbLine
 10
5.000000749403177
 20
5.999999407607553
 30
0.0
 11
7.000000749403177
 21
2.999999407607496
 31
0.0
  0
LINE
  5
1921
330
1915
100
AcDbEntity
  8
C4
100
AcDbLine
 10
9.500000749403177
 20
-0.0000005923924462
 30
0.0
 11
11.00000074940318
 21
5.999999407607553
 31
0.0
  0
LINE
  5
1922
330
1915
100
AcDbEntity
  8
C4
100
AcDbLine
 10
11.50000074940318
 20
-0.0000005923924462
 30
0.0
 11
12.50000074940318
 21
3.99999940760744
 31
0.0
  0
LINE
  5
1923
330
1915
100
AcDbEntity
  8
C4
100
AcDbLine
 10
15.50000074940317
 20
-0.0000005923924462
 30
0.0
 11
14.00000074940318
 21
5.999999407607553
 31
0.0
  0
LINE
  5
1924
330
1915
100
AcDbEntity
  8
C4
100
AcDbLine
 10
11.87500074940317
 20
1.499999407607553
 30
0.0
 11
13.12500074940318
 21
1.499999407607525
 31
0.0
  0
LINE
  5
1925
330
1915
100
AcDbEntity
  8
C4
100
AcDbLine
 10
13.12500074940318
 20
1.499999407607525
 30
0.0
 11
12.50000074940318
 21
3.99999940760744
 31
0.0
  0
LINE
  5
1926
330
1915
100
AcDbEntity
  8
C4
100
AcDbLine
 10
11.87500074940317
 20
1.499999407607553
 30
0.0
 11
12.37500074940317
 21
-0.0000005923924462
 31
0.0
  0
LINE
  5
1927
330
1915
100
AcDbEntity
  8
C4
100
AcDbLine
 10
16.00000074940318
 20
-0.0000005923924462
 30
0.0
 11
16.00000074940318
 21
5.999999407607553
 31
0.0
  0
LINE
  5
1928
330
1915
100
AcDbEntity
  8
C4
100
AcDbLine
 10
18.00000074940312
 20
1.399999407607559
 30
0.0
 11
18.00000074940317
 21
2.249999407607553
 31
0.0
  0
LINE
  5
1929
330
1915
100
AcDbEntity
  8
C4
100
AcDbLine
 10
18.00000074940317
 20
3.749999407607553
 30
0.0
 11
19.77500074940321
 21
3.749999407607553
 31
0.0
  0
LINE
  5
192A
330
1915
100
AcDbEntity
  8
C4
100
AcDbLine
 10
18.00000074940323
 20
2.249999407607553
 30
0.0
 11
19.77500074940321
 21
2.249999407607553
 31
0.0
  0
LINE
  5
192B
330
1915
100
AcDbEntity
  8
C4
100
AcDbLine
 10
18.00000074940317
 20
4.599999407607548
 30
0.0
 11
19.77500074940321
 21
4.599999407607548
 31
0.0
  0
LINE
  5
192C
330
1915
100
AcDbEntity
  8
C4
100
AcDbLine
 10
18.00000074940312
 20
1.399999407607559
 30
0.0
 11
19.77500074940321
 21
1.399999407607559
 31
0.0
  0
ARC
  5
192D
330
1915
100
AcDbEntity
  8
C4
100
AcDbCircle
 10
19.77500074940321
 20
4.174999407607565
 30
0.0
 40
0.425
100
AcDbArc
 50
270.0
 51
90.0
  0
ARC
  5
192E
330
1915
100
AcDbEntity
  8
C4
100
AcDbCircle
 10
20.71810822603869
 20
4.239368566486085
 30
0.0
 40
1.783054781389808
100
AcDbArc
 50
315.9662536629796
 51
80.9036439828637
  0
ARC
  5
192F
330
1915
100
AcDbEntity
  8
C4
100
AcDbCircle
 10
19.77500074940321
 20
1.82499940760757
 30
0.0
 40
0.425
100
AcDbArc
 50
270.0
 51
90.0
  0
ARC
  5
1930
330
1915
100
AcDbEntity
  8
C4
100
AcDbCircle
 10
20.71810822603869
 20
1.760630248729079
 30
0.0
 40
1.783054781389769
100
AcDbArc
 50
279.096356017136
 51
44.03374633701921
  0
LINE
  5
1931
330
1915
100
AcDbEntity
  8
C4
100
AcDbLine
 10
22.50000074940318
 20
-0.0000005923924462
 30
0.0
 11
24.00000074940318
 21
5.999999407607553
 31
0.0
  0
LINE
  5
1932
330
1915
100
AcDbEntity
  8
C4
100
AcDbLine
 10
24.50000074940318
 20
-0.0000005923924462
 30
0.0
 11
25.50000074940318
 21
3.99999940760744
 31
0.0
  0
LINE
  5
1933
330
1915
100
AcDbEntity
  8
C4
100
AcDbLine
 10
28.50000074940318
 20
-0.0000005923924462
 30
0.0
 11
27.00000074940318
 21
5.999999407607553
 31
0.0
  0
LINE
  5
1934
330
1915
100
AcDbEntity
  8
C4
100
AcDbLine
 10
24.87500074940318
 20
1.499999407607553
 30
0.0
 11
26.12500074940318
 21
1.499999407607525
 31
0.0
  0
LINE
  5
1935
330
1915
100
AcDbEntity
  8
C4
100
AcDbLine
 10
26.12500074940318
 20
1.499999407607525
 30
0.0
 11
25.50000074940318
 21
3.99999940760744
 31
0.0
  0
LINE
  5
1936
330
1915
100
AcDbEntity
  8
C4
100
AcDbLine
 10
24.87500074940318
 20
1.499999407607553
 30
0.0
 11
25.37500074940318
 21
-0.0000005923924462
 31
0.0
  0
LINE
  5
1937
330
1915
100
AcDbEntity
  8
C4
100
AcDbLine
 10
18.00000074940317
 20
3.749999407607582
 30
0.0
 11
18.00000074940317
 21
4.599999407607548
 31
0.0
  0
LINE
  5
1938
330
1915
100
AcDbEntity
  8
C4
100
AcDbLine
 10
3.00000074940312
 20
-0.0000005923924462
 30
0.0
 11
5.000000749403177
 21
-0.0000005923924462
 31
0.0
  0
LINE
  5
1939
330
1915
100
AcDbEntity
  8
C4
100
AcDbLine
 10
3.000000749403177
 20
5.999999407607553
 30
0.0
 11
5.000000749403177
 21
5.999999407607553
 31
0.0
  0
LINE
  5
193A
330
1915
100
AcDbEntity
  8
C4
100
AcDbLine
 10
7.000000749403177
 20
5.999999407607582
 30
0.0
 11
9.000000749403291
 21
5.999999407607525
 31
0.0
  0
LINE
  5
193B
330
1915
100
AcDbEntity
  8
C4
100
AcDbLine
 10
7.000000749403177
 20
-0.0000005923924462
 30
0.0
 11
9.000000749403291
 21
-0.0000005923924462
 31
0.0
  0
LINE
  5
193C
330
1915
100
AcDbEntity
  8
C4
100
AcDbLine
 10
9.500000749403234
 20
-0.0000005923924462
 30
0.0
 11
11.50000074940318
 21
-0.0000005923924462
 31
0.0
  0
LINE
  5
193D
330
1915
100
AcDbEntity
  8
C4
100
AcDbLine
 10
11.00000074940318
 20
5.999999407607525
 30
0.0
 11
14.00000074940312
 21
5.999999407607525
 31
0.0
  0
LINE
  5
193E
330
1915
100
AcDbEntity
  8
C4
100
AcDbLine
 10
12.37500074940306
 20
-0.0000005923924462
 30
0.0
 11
15.50000074940323
 21
-0.0000005923924746
 31
0.0
  0
LINE
  5
193F
330
1915
100
AcDbEntity
  8
C4
100
AcDbLine
 10
16.00000074940318
 20
-0.0000005923924746
 30
0.0
 11
21.00000074940301
 21
-0.0000005923924178
 31
0.0
  0
LINE
  5
1940
330
1915
100
AcDbEntity
  8
C4
100
AcDbLine
 10
16.00000074940318
 20
5.999999407607553
 30
0.0
 11
21.00000074940352
 21
5.999999407607553
 31
0.0
  0
LINE
  5
1941
330
1915
100
AcDbEntity
  8
C4
100
AcDbLine
 10
24.00000074940318
 20
5.999999407607553
 30
0.0
 11
27.00000074940312
 21
5.999999407607553
 31
0.0
  0
LINE
  5
1942
330
1915
100
AcDbEntity
  8
C4
100
AcDbLine
 10
22.50000074940329
 20
-0.0000005923923894
 30
0.0
 11
24.50000074940312
 21
-0.0000005923924746
 31
0.0
  0
LINE
  5
1943
330
1915
100
AcDbEntity
  8
C4
100
AcDbLine
 10
25.37500074940318
 20
-0.0000005923924178
 30
0.0
 11
28.50000074940312
 21
-0.0000005923924178
 31
0.0
  0
ENDBLK
  5
1944
330
1915
100
AcDbEntity
  8
0
 48
3.0
100
AcDbBlockEnd
  0
BLOCK
  5
1A79
330
1A78
100
AcDbEntity
  8
0
100
AcDbBlockBegin
  2
*D18
 70
     1
 10
0.0
 20
0.0
 30
0.0
  3
*D18
  1

  0
LINE
  5
1B06
330
1A78
100
AcDbEntity
  8
2寸法線
 62
     0
440
 16777216
370
    -2
100
AcDbLine
 10
157.9979601205505
 20
185.4124508777575
 30
0.0
 11
83.61985022643276
 21
185.4124508777575
 31
0.0
  0
LINE
  5
1B07
330
1A78
100
AcDbEntity
  8
2寸法線
 62
     0
440
 16777216
370
    -2
100
AcDbLine
 10
119.1976249988548
 20
94.41245087775758
 30
0.0
 11
83.61985022643272
 21
94.4124508777576
 31
0.0
  0
LINE
  5
1B08
330
1A78
100
AcDbEntity
  8
2寸法線
 62
     0
440
 16777216
370
    -2
100
AcDbLine
 10
84.61985022643276
 20
183.6124508777575
 30
0.0
 11
84.61985022643274
 21
96.2124508777576
 31
0.0
  0
INSERT
  5
1B09
330
1A78
100
AcDbEntity
  8
2寸法線
 62
     0
440
 16777216
370
    -2
100
AcDbBlockReference
  2
2
 10
84.61985022643276
 20
185.4124508777575
 30
0.0
 41
1.8
 42
1.8
 43
1.8
 50
90.0
  0
INSERT
  5
1B0A
330
1A78
100
AcDbEntity
  8
2寸法線
 62
     0
440
 16777216
370
    -2
100
AcDbBlockReference
  2
2
 10
84.61985022643274
 20
94.4124508777576
 30
0.0
 41
1.8
 42
1.8
 43
1.8
 50
270.0
  0
MTEXT
  5
1B0B
330
1A78
100
AcDbEntity
  8
2寸法線
 62
     0
440
 16777216
100
AcDbMText
 10
80.11985022643273
 20
139.9124508777576
 30
0.0
 40
8.0
 41
0.0
 46
0.0
 71
     5
 72
     1
  1
\A1;91
 11
0.0000000000000001
 21
1.0
 31
0.0
 73
     1
 44
1.0
  0
POINT
  5
1B0C
330
1A78
100
AcDbEntity
  8
DEFPOINTS
 62
     0
440
 16777216
100
AcDbPoint
 10
158.9979601205505
 20
185.4124508777575
 30
0.0
  0
POINT
  5
1B0D
330
1A78
100
AcDbEntity
  8
DEFPOINTS
 62
     0
440
 16777216
100
AcDbPoint
 10
120.1976249988548
 20
94.41245087775758
 30
0.0
  0
POINT
  5
1B0E
330
1A78
100
AcDbEntity
  8
DEFPOINTS
 62
     0
440
 16777216
100
AcDbPoint
 10
84.61985022643274
 20
94.4124508777576
 30
0.0
  0
ENDBLK
  5
1A7A
330
1A78
100
AcDbEntity
  8
0
100
AcDbBlockEnd
  0
BLOCK
  5
1A85
330
1A84
100
AcDbEntity
  8
0
100
AcDbBlockBegin
  2
*D19
 70
     1
 10
0.0
 20
0.0
 30
0.0
  3
*D19
  1

  0
LINE
  5
1B0F
330
1A84
100
AcDbEntity
  8
2寸法線
 62
     0
440
 16777216
370
    -2
100
AcDbLine
 10
159.9979601205508
 20
248.4124508777576
 30
0.0
 11
244.2601521996798
 21
248.4124508777575
 31
0.0
  0
LINE
  5
1B10
330
1A84
100
AcDbEntity
  8
2寸法線
 62
     0
440
 16777216
370
    -2
100
AcDbLine
 10
198.7982952422479
 20
94.41245087775758
 30
0.0
 11
244.2601521996798
 21
94.41245087775756
 31
0.0
  0
LINE
  5
1B11
330
1A84
100
AcDbEntity
  8
2寸法線
 62
     0
440
 16777216
370
    -2
100
AcDbLine
 10
243.2601521996798
 20
246.6124508777575
 30
0.0
 11
243.2601521996797
 21
96.21245087775756
 31
0.0
  0
INSERT
  5
1B12
330
1A84
100
AcDbEntity
  8
2寸法線
 62
     0
440
 16777216
370
    -2
100
AcDbBlockReference
  2
2
 10
243.2601521996798
 20
248.4124508777575
 30
0.0
 41
1.8
 42
1.8
 43
1.8
 50
90.0
  0
INSERT
  5
1B13
330
1A84
100
AcDbEntity
  8
2寸法線
 62
     0
440
 16777216
370
    -2
100
AcDbBlockReference
  2
2
 10
243.2601521996797
 20
94.41245087775756
 30
0.0
 41
1.8
 42
1.8
 43
1.8
 50
270.0
  0
MTEXT
  5
1B14
330
1A84
100
AcDbEntity
  8
2寸法線
 62
     0
440
 16777216
100
AcDbMText
 10
238.7601521996797
 20
171.4124508777575
 30
0.0
 40
8.0
 41
0.0
 46
0.0
 71
     5
 72
     1
  1
\A1;154
 11
0.0000000000000001
 21
1.0
 31
0.0
 73
     1
 44
1.0
  0
POINT
  5
1B15
330
1A84
100
AcDbEntity
  8
DEFPOINTS
 62
     0
440
 16777216
100
AcDbPoint
 10
158.9979601205508
 20
248.4124508777576
 30
0.0
  0
POINT
  5
1B16
330
1A84
100
AcDbEntity
  8
DEFPOINTS
 62
     0
440
 16777216
100
AcDbPoint
 10
197.7982952422479
 20
94.41245087775758
 30
0.0
  0
POINT
  5
1B17
330
1A84
100
AcDbEntity
  8
DEFPOINTS
 62
     0
440
 16777216
100
AcDbPoint
 10
243.2601521996797
 20
94.41245087775756
 30
0.0
  0
ENDBLK
  5
1A86
330
1A84
100
AcDbEntity
  8
0
100
AcDbBlockEnd
  0
BLOCK
  5
1A91
330
1A90
100
AcDbEntity
  8
0
100
AcDbBlockBegin
  2
*D20
 70
     1
 10
0.0
 20
0.0
 30
0.0
  3
*D20
  1

  0
LINE
  5
1B18
330
1A90
100
AcDbEntity
  8
2寸法線
 62
     0
440
 16777216
370
    -2
100
AcDbLine
 10
199.798295242246
 20
185.4124508777575
 30
0.0
 11
212.4620433379381
 21
185.4124508777575
 31
0.0
  0
LINE
  5
1B19
330
1A90
100
AcDbEntity
  8
2寸法線
 62
     0
440
 16777216
370
    -2
100
AcDbLine
 10
199.798295242246
 20
181.4124508777575
 30
0.0
 11
212.4620433379381
 21
181.4124508777575
 31
0.0
  0
LINE
  5
1B1A
330
1A90
100
AcDbEntity
  8
2寸法線
 62
     0
440
 16777216
370
    -2
100
AcDbLine
 10
211.4620433379381
 20
179.6124508777575
 30
0.0
 11
211.4620433379381
 21
177.8124508777575
 31
0.0
  0
LINE
  5
1B1B
330
1A90
100
AcDbEntity
  8
2寸法線
 62
     0
440
 16777216
370
    -2
100
AcDbLine
 10
211.4620433379381
 20
187.2124508777575
 30
0.0
 11
211.4620433379382
 21
196.2646748477479
 31
0.0
  0
LINE
  5
1B1C
330
1A90
100
AcDbEntity
  8
2寸法線
 62
     0
440
 16777216
370
    -2
100
AcDbLine
 10
211.4620433379381
 20
181.4124508777575
 30
0.0
 11
211.4620433379381
 21
185.4124508777575
 31
0.0
  0
INSERT
  5
1B1D
330
1A90
100
AcDbEntity
  8
2寸法線
 62
     0
440
 16777216
370
    -2
100
AcDbBlockReference
  2
2
 10
211.4620433379381
 20
181.4124508777575
 30
0.0
 41
1.8
 42
1.8
 43
1.8
 50
90.0
  0
INSERT
  5
1B1E
330
1A90
100
AcDbEntity
  8
2寸法線
 62
     0
440
 16777216
370
    -2
100
AcDbBlockReference
  2
2
 10
211.4620433379381
 20
185.4124508777575
 30
0.0
 41
1.8
 42
1.8
 43
1.8
 50
270.0
  0
MTEXT
  5
1B1F
330
1A90
100
AcDbEntity
  8
2寸法線
 62
     0
440
 16777216
100
AcDbMText
 10
206.9620433379381
 20
193.0980081810813
 30
0.0
 40
8.0
 41
0.0
 46
0.0
 71
     5
 72
     1
  1
\A1;4
 11
0.0000000000000001
 21
1.0
 31
0.0
 73
     1
 44
1.0
  0
POINT
  5
1B20
330
1A90
100
AcDbEntity
  8
DEFPOINTS
 62
     0
440
 16777216
100
AcDbPoint
 10
198.798295242246
 20
185.4124508777575
 30
0.0
  0
POINT
  5
1B21
330
1A90
100
AcDbEntity
  8
DEFPOINTS
 62
     0
440
 16777216
100
AcDbPoint
 10
198.798295242246
 20
181.4124508777575
 30
0.0
  0
POINT
  5
1B22
330
1A90
100
AcDbEntity
  8
DEFPOINTS
 62
     0
440
 16777216
100
AcDbPoint
 10
211.4620433379381
 20
181.4124508777575
 30
0.0
  0
ENDBLK
  5
1A92
330
1A90
100
AcDbEntity
  8
0
100
AcDbBlockEnd
  0
BLOCK
  5
1ACA
330
1AC9
100
AcDbEntity
  8
0
100
AcDbBlockBegin
  2
*D21
 70
     1
 10
0.0
 20
0.0
 30
0.0
  3
*D21
  1

  0
LINE
  5
1B8A
330
1AC9
100
AcDbEntity
  8
2寸法線
 62
     0
440
 16777216
370
    -2
100
AcDbLine
 10
1049.314504462143
 20
-548.2873445992472
 30
0.0
 11
968.2662867464209
 21
-548.2873445992472
 31
0.0
  0
LINE
  5
1B8B
330
1AC9
100
AcDbEntity
  8
2寸法線
 62
     0
440
 16777216
370
    -2
100
AcDbLine
 10
1050.314504462143
 20
-646.0873445992473
 30
0.0
 11
968.2662867464209
 21
-646.0873445992473
 31
0.0
  0
LINE
  5
1B8C
330
1AC9
100
AcDbEntity
  8
2寸法線
 62
     0
440
 16777216
370
    -2
100
AcDbLine
 10
969.2662867464209
 20
-550.0873445992472
 30
0.0
 11
969.2662867464209
 21
-644.2873445992473
 31
0.0
  0
INSERT
  5
1B8D
330
1AC9
100
AcDbEntity
  8
2寸法線
 62
     0
440
 16777216
370
    -2
100
AcDbBlockReference
  2
2
 10
969.2662867464209
 20
-548.2873445992472
 30
0.0
 41
1.8
 42
1.8
 43
1.8
 50
90.0
  0
INSERT
  5
1B8E
330
1AC9
100
AcDbEntity
  8
2寸法線
 62
     0
440
 16777216
370
    -2
100
AcDbBlockReference
  2
2
 10
969.2662867464209
 20
-646.0873445992473
 30
0.0
 41
1.8
 42
1.8
 43
1.8
 50
270.0
  0
MTEXT
  5
1B8F
330
1AC9
100
AcDbEntity
  8
2寸法線
 62
     0
440
 16777216
100
AcDbMText
 10
964.7662867464209
 20
-599.4111290514784
 30
0.0
 40
8.0
 41
0.0
 46
0.0
 71
     5
 72
     1
  1
\A1;97.8
 11
0.0000000000000001
 21
1.0
 31
0.0
 73
     1
 44
1.0
  0
POINT
  5
1B90
330
1AC9
100
AcDbEntity
  8
DEFPOINTS
 62
     0
440
 16777216
100
AcDbPoint
 10
1050.314504462143
 20
-548.2873445992472
 30
0.0
  0
POINT
  5
1B91
330
1AC9
100
AcDbEntity
  8
DEFPOINTS
 62
     0
440
 16777216
100
AcDbPoint
 10
1051.314504462143
 20
-646.0873445992473
 30
0.0
  0
POINT
  5
1B92
330
1AC9
100
AcDbEntity
  8
DEFPOINTS
 62
     0
440
 16777216
100
AcDbPoint
 10
969.2662867464209
 20
-646.0873445992473
 30
0.0
  0
ENDBLK
  5
1ACB
330
1AC9
100
AcDbEntity
  8
0
100
AcDbBlockEnd
  0
BLOCK
  5
1B76
330
1B75
100
AcDbEntity
  8
0
100
AcDbBlockBegin
  2
*D22
 70
     1
 10
0.0
 20
0.0
 30
0.0
  3
*D22
  1

  0
LINE
  5
1B81
330
1B75
100
AcDbEntity
  8
2寸法線
 62
     0
440
 16777216
370
    -2
100
AcDbLine
 10
666.0197760962034
 20
-548.2873443606766
 30
0.0
 11
583.9715583804808
 21
-548.2873443606766
 31
0.0
  0
LINE
  5
1B82
330
1B75
100
AcDbEntity
  8
2寸法線
 62
     0
440
 16777216
370
    -2
100
AcDbLine
 10
666.0197760962034
 20
-652.0873443606767
 30
0.0
 11
583.9715583804808
 21
-652.0873443606767
 31
0.0
  0
LINE
  5
1B83
330
1B75
100
AcDbEntity
  8
2寸法線
 62
     0
440
 16777216
370
    -2
100
AcDbLine
 10
584.9715583804807
 20
-550.0873443606765
 30
0.0
 11
584.9715583804807
 21
-650.2873443606768
 31
0.0
  0
INSERT
  5
1B84
330
1B75
100
AcDbEntity
  8
2寸法線
 62
     0
440
 16777216
370
    -2
100
AcDbBlockReference
  2
2
 10
584.9715583804807
 20
-548.2873443606766
 30
0.0
 41
1.8
 42
1.8
 43
1.8
 50
90.0
  0
INSERT
  5
1B85
330
1B75
100
AcDbEntity
  8
2寸法線
 62
     0
440
 16777216
370
    -2
100
AcDbBlockReference
  2
2
 10
584.9715583804807
 20
-652.0873443606767
 30
0.0
 41
1.8
 42
1.8
 43
1.8
 50
270.0
  0
MTEXT
  5
1B86
330
1B75
100
AcDbEntity
  8
2寸法線
 62
     0
440
 16777216
100
AcDbMText
 10
580.4715583804809
 20
-605.4111288129079
 30
0.0
 40
8.0
 41
0.0
 46
0.0
 71
     5
 72
     1
  1
\A1;103.8
 11
0.0000000000000001
 21
1.0
 31
0.0
 73
     1
 44
1.0
  0
POINT
  5
1B87
330
1B75
100
AcDbEntity
  8
DEFPOINTS
 62
     0
440
 16777216
100
AcDbPoint
 10
667.0197760962034
 20
-548.2873443606766
 30
0.0
  0
POINT
  5
1B88
330
1B75
100
AcDbEntity
  8
DEFPOINTS
 62
     0
440
 16777216
100
AcDbPoint
 10
667.0197760962034
 20
-652.0873443606767
 30
0.0
  0
POINT
  5
1B89
330
1B75
100
AcDbEntity
  8
DEFPOINTS
 62
     0
440
 16777216
100
AcDbPoint
 10
584.9715583804807
 20
-652.0873443606767
 30
0.0
  0
ENDBLK
  5
1B77
330
1B75
100
AcDbEntity
  8
0
100
AcDbBlockEnd
  0
BLOCK
  5
2421
330
2420
100
AcDbEntity
  8
0
100
AcDbBlockBegin
  2
*D24
 70
     1
 10
0.0
 20
0.0
 30
0.0
  3
*D24
  1

  0
LINE
  5
2422
330
2420
100
AcDbEntity
  8
0
 62
     0
440
 16777216
370
    -2
100
AcDbLine
 10
103.2924195437537
 20
767.5218937230138
 30
0.0
 11
58.83709179330145
 21
767.5218937230138
 31
0.0
  0
LINE
  5
2423
330
2420
100
AcDbEntity
  8
0
 62
     0
440
 16777216
370
    -2
100
AcDbLine
 10
103.2924195437536
 20
706.5218937230136
 30
0.0
 11
58.83709179330144
 21
706.5218937230136
 31
0.0
  0
LINE
  5
2424
330
2420
100
AcDbEntity
  8
0
 62
     0
440
 16777216
370
    -2
100
AcDbLine
 10
60.08709179330145
 20
765.0218937230138
 30
0.0
 11
60.08709179330144
 21
709.0218937230137
 31
0.0
  0
SOLID
  5
2425
330
2420
100
AcDbEntity
  8
0
 62
     0
440
 16777216
100
AcDbTrace
 10
59.67042512663478
 20
765.0218937230138
 30
0.0
 11
60.50375845996811
 21
765.0218937230138
 31
0.0
 12
60.08709179330145
 22
767.5218937230138
 32
0.0
 13
60.08709179330145
 23
767.5218937230138
 33
0.0
  0
SOLID
  5
2426
330
2420
100
AcDbEntity
  8
0
 62
     0
440
 16777216
100
AcDbTrace
 10
59.67042512663478
 20
709.0218937230137
 30
0.0
 11
60.50375845996811
 21
709.0218937230137
 31
0.0
 12
60.08709179330144
 22
706.5218937230136
 32
0.0
 13
60.08709179330144
 23
706.5218937230136
 33
0.0
  0
MTEXT
  5
2427
330
2420
100
AcDbEntity
  8
0
 62
     0
440
 16777216
100
AcDbMText
 10
55.46209179330133
 20
736.5218937230138
 30
0.0
 40
8.0
 41
0.0
 46
0.0
 71
     5
 72
     1
  1
\A1;61
 11
0.0000000000000001
 21
1.0
 31
0.0
 73
     1
 44
1.0
  0
POINT
  5
2428
330
2420
100
AcDbEntity
  8
DEFPOINTS
 62
     0
440
 16777216
100
AcDbPoint
 10
103.9174195437537
 20
767.5218937230138
 30
0.0
  0
POINT
  5
2429
330
2420
100
AcDbEntity
  8
DEFPOINTS
 62
     0
440
 16777216
100
AcDbPoint
 10
103.9174195437537
 20
706.5218937230136
 30
0.0
  0
POINT
  5
242A
330
2420
100
AcDbEntity
  8
DEFPOINTS
 62
     0
440
 16777216
100
AcDbPoint
 10
60.08709179330144
 20
706.5218937230136
 30
0.0
  0
ENDBLK
  5
242B
330
2420
100
AcDbEntity
  8
0
100
AcDbBlockEnd
  0
BLOCK
  5
2785
330
2784
100
AcDbEntity
  8
0
100
AcDbBlockBegin
  2
*D26
 70
     1
 10
0.0
 20
0.0
 30
0.0
  3
*D26
  1

  0
LINE
  5
2790
330
2784
100
AcDbEntity
  8
0
 62
     0
440
 16777216
370
    -2
100
AcDbLine
 10
-97.76369838879311
 20
133.8761118016505
 30
0.0
 11
-142.2190261392454
 21
133.8761118016505
 31
0.0
  0
LINE
  5
2791
330
2784
100
AcDbEntity
  8
0
 62
     0
440
 16777216
370
    -2
100
AcDbLine
 10
-97.76369838879316
 20
72.87611180165038
 30
0.0
 11
-142.2190261392454
 21
72.87611180165038
 31
0.0
  0
LINE
  5
2792
330
2784
100
AcDbEntity
  8
0
 62
     0
440
 16777216
370
    -2
100
AcDbLine
 10
-140.9690261392454
 20
131.3761118016505
 30
0.0
 11
-140.9690261392454
 21
75.37611180165038
 31
0.0
  0
SOLID
  5
2793
330
2784
100
AcDbEntity
  8
0
 62
     0
440
 16777216
100
AcDbTrace
 10
-141.3856928059121
 20
131.3761118016505
 30
0.0
 11
-140.5523594725788
 21
131.3761118016505
 31
0.0
 12
-140.9690261392454
 22
133.8761118016505
 32
0.0
 13
-140.9690261392454
 23
133.8761118016505
 33
0.0
  0
SOLID
  5
2794
330
2784
100
AcDbEntity
  8
0
 62
     0
440
 16777216
100
AcDbTrace
 10
-141.3856928059121
 20
75.37611180165038
 30
0.0
 11
-140.5523594725788
 21
75.37611180165038
 31
0.0
 12
-140.9690261392454
 22
72.87611180165038
 32
0.0
 13
-140.9690261392454
 23
72.87611180165038
 33
0.0
  0
MTEXT
  5
2795
330
2784
100
AcDbEntity
  8
0
 62
     0
440
 16777216
100
AcDbMText
 10
-145.5940261392455
 20
102.8761118016505
 30
0.0
 40
8.0
 41
0.0
 46
0.0
 71
     5
 72
     1
  1
61
 11
0.0000000000000001
 21
1.0
 31
0.0
 73
     1
 44
1.0
  0
POINT
  5
2796
330
2784
100
AcDbEntity
  8
DEFPOINTS
 62
     0
440
 16777216
100
AcDbPoint
 10
-97.13869838879311
 20
133.8761118016505
 30
0.0
  0
POINT
  5
2797
330
2784
100
AcDbEntity
  8
DEFPOINTS
 62
     0
440
 16777216
100
AcDbPoint
 10
-97.13869838879316
 20
72.87611180165038
 30
0.0
  0
POINT
  5
2798
330
2784
100
AcDbEntity
  8
DEFPOINTS
 62
     0
440
 16777216
100
AcDbPoint
 10
-140.9690261392454
 20
72.87611180165038
 30
0.0
  0
ENDBLK
  5
2786
330
2784
100
AcDbEntity
  8
0
100
AcDbBlockEnd
  0
ENDSEC
  0
SECTION
  2
ENTITIES
  0
LINE
  5
25DA
330
2E0
100
AcDbEntity
  8
1外形線
100
AcDbLine
 10
221.8613016112065
 20
193.3761118016502
 30
0.0
 11
221.8613016112065
 21
-610.6238881983497
 31
0.0
  0
TEXT
  5
25DB
330
2E0
100
AcDbEntity
  8
1外形線
100
AcDbText
 10
-130.2137431963207
 20
-215.735926173663
 30
0.0
 40
10.0
  1
SC-100
  7
KANJI
100
AcDbText
  0
LINE
  5
25DC
330
2E0
100
AcDbEntity
  8
1外形線
100
AcDbLine
 10
-180.1386983887931
 20
-610.6238881983497
 30
0.0
 11
-180.1386983887931
 21
193.3761118016502
 31
0.0
  0
LINE
  5
25DD
330
2E0
100
AcDbEntity
  8
1外形線
100
AcDbLine
 10
221.8613016112065
 20
-610.6238881983497
 30
0.0
 11
-180.1386983887931
 21
-610.6238881983497
 31
0.0
  0
LINE
  5
25DE
330
2E0
100
AcDbEntity
  8
1外形線
100
AcDbLine
 10
221.8613016112065
 20
-393.6238881983497
 30
0.0
 11
-180.1386983887931
 21
-393.6238881983497
 31
0.0
  0
LINE
  5
25DF
330
2E0
100
AcDbEntity
  8
1外形線
100
AcDbLine
 10
52.86130161120673
 20
-471.0486563569669
 30
0.0
 11
144.4365334525889
 21
-471.0486563569669
 31
0.0
  0
LINE
  5
25E0
330
2E0
100
AcDbEntity
  8
1外形線
100
AcDbLine
 10
52.86130161120673
 20
-462.3019461033124
 30
0.0
 11
148.1832437062435
 21
-462.3019461033124
 31
0.0
  0
LINE
  5
25E1
330
2E0
100
AcDbEntity
  8
1外形線
100
AcDbLine
 10
52.86130161120673
 20
-456.5836511679481
 30
0.0
 11
150.8613016112065
 21
-456.5836511679481
 31
0.0
  0
LINE
  5
25E2
330
2E0
100
AcDbEntity
  8
1外形線
100
AcDbLine
 10
44.86130161120695
 20
-522.2847354317706
 30
0.0
 11
84.86130161120673
 21
-522.2847354317706
 31
0.0
  0
LINE
  5
25E3
330
2E0
100
AcDbEntity
  8
1外形線
100
AcDbLine
 10
44.86130161120695
 20
-531.1506924049775
 30
0.0
 11
84.86130161120673
 21
-531.1506924049775
 31
0.0
  0
LINE
  5
25E4
330
2E0
100
AcDbEntity
  8
1外形線
100
AcDbLine
 10
44.86130161120695
 20
-536.854242657552
 30
0.0
 11
84.86130161120673
 21
-536.854242657552
 31
0.0
  0
LINE
  5
25E5
330
2E0
100
AcDbEntity
  8
1外形線
100
AcDbLine
 10
150.8613016112065
 20
-454.6238881983497
 30
0.0
 11
52.86130161120673
 21
-454.6238881983499
 31
0.0
  0
LINE
  5
25E6
330
2E0
100
AcDbEntity
  8
1外形線
100
AcDbLine
 10
44.86130161120672
 20
-490.6238881983496
 30
0.0
 11
72.86130161120673
 21
-490.6238881983495
 31
0.0
  0
LINE
  5
25E7
330
2E0
100
AcDbEntity
  8
1外形線
100
AcDbLine
 10
84.86130161120673
 20
-538.6238881983498
 30
0.0
 11
44.86130161120695
 21
-538.6238881983497
 31
0.0
  0
LINE
  5
25E8
330
2E0
100
AcDbEntity
  8
1外形線
100
AcDbLine
 10
102.8613016112069
 20
-246.6238881983496
 30
0.0
 11
13.86130161120718
 21
-246.6238881983497
 31
0.0
  0
LINE
  5
25E9
330
2E0
100
AcDbEntity
  8
1外形線
100
AcDbLine
 10
13.86130161120718
 20
-248.6666939565238
 30
0.0
 11
102.8613016112069
 21
-248.6666939565238
 31
0.0
  0
LINE
  5
25EA
330
2E0
100
AcDbEntity
  8
1外形線
100
AcDbLine
 10
13.86130161120718
 20
-254.3897466316809
 30
0.0
 11
100.0954431778759
 21
-254.3897466316809
 31
0.0
  0
LWPOLYLINE
  5
25EB
330
2E0
100
AcDbEntity
  8
1外形線
100
AcDbPolyline
 90
        5
 70
     0
 43
0.0
 10
54.34658298544582
 20
-315.1386068241113
 42
0.1747045211890497
 10
55.81299314499233
 20
-315.8280333227261
 42
0.1042029417664594
 10
58.46054401612332
 20
-315.5246457934319
 42
0.0649481016501909
 10
61.05501719443168
 20
-314.2666826114718
 42
0.0510992989621213
 10
63.89252453146401
 20
-311.9566263087716
 42
0.0510992989621184
  0
LWPOLYLINE
  5
25EC
330
2E0
100
AcDbEntity
  8
1外形線
100
AcDbPolyline
 90
        5
 70
     0
 43
0.0
 10
54.34658298544559
 20
-315.1386068241113
 42
-0.1747045211890497
 10
53.65715648683067
 20
-313.6721966645646
 42
-0.1042029417664594
 10
53.96054401612514
 20
-311.0246457934337
 42
-0.0649481016501909
 10
55.21850719808504
 20
-308.4301726151253
 42
-0.0510992989621213
 10
57.52856350078514
 20
-305.5926652780929
 42
-0.0510992989621184
  0
LINE
  5
25ED
330
2E0
100
AcDbEntity
  8
1外形線
100
AcDbLine
 10
39.86130161120696
 20
-278.6238881983497
 30
0.0
 11
70.86130161120696
 21
-278.6238881983497
 31
0.0
  0
LINE
  5
25EE
330
2E0
100
AcDbEntity
  8
1外形線
100
AcDbLine
 10
13.86130161120718
 20
-263.0858924664033
 30
0.0
 11
96.39929734315387
 21
-263.0858924664032
 31
0.0
  0
LINE
  5
25EF
330
2E0
100
AcDbEntity
  8
1外形線
100
AcDbLine
 10
123.3613016112071
 20
-363.6238881983496
 30
0.0
 11
47.86130161120718
 21
-363.6238881983496
 31
0.0
  0
LINE
  5
25F0
330
2E0
100
AcDbEntity
  8
1外形線
100
AcDbLine
 10
52.86130161120673
 20
-454.1238881983499
 30
0.0
 11
52.86130161120673
 21
-481.5238881983496
 31
0.0
  0
LINE
  5
25F1
330
2E0
100
AcDbEntity
  8
1外形線
100
AcDbLine
 10
44.86130161120672
 20
-454.1238881983499
 30
0.0
 11
44.86130161120695
 21
-538.6238881983498
 31
0.0
  0
ARC
  5
25F2
330
2E0
100
AcDbEntity
  8
1外形線
100
AcDbCircle
 10
-13.13869838879327
 20
-481.6238881983497
 30
0.0
 40
25.0
100
AcDbArc
 50
0.0
 51
90.0
  0
ARC
  5
25F3
330
2E0
100
AcDbEntity
  8
1外形線
100
AcDbCircle
 10
-13.03869838879313
 20
-481.5238881983496
 30
0.0
 40
27.9
100
AcDbArc
 50
0.0
 51
90.0
  0
ARC
  5
25F4
330
2E0
100
AcDbEntity
  8
1外形線
100
AcDbCircle
 10
-102.2386983887932
 20
-481.5238881983496
 30
0.0
 40
27.9
100
AcDbArc
 50
90.0
 51
180.0
  0
ARC
  5
25F5
330
2E0
100
AcDbEntity
  8
1外形線
100
AcDbCircle
 10
-102.1386983887931
 20
-481.6238881983497
 30
0.0
 40
25.0
100
AcDbArc
 50
90.0
 51
180.0
  0
LINE
  5
25F6
330
2E0
100
AcDbEntity
  8
1外形線
100
AcDbLine
 10
-102.9386983887931
 20
-538.6238881983497
 30
0.0
 11
-57.63869838879327
 21
-538.6238881983497
 31
0.0
  0
LINE
  5
25F7
330
2E0
100
AcDbEntity
  8
1外形線
100
AcDbLine
 10
-57.63869838879327
 20
-534.6238881983497
 30
0.0
 11
-111.9366573599258
 21
-534.6238881983497
 31
0.0
  0
LINE
  5
25F8
330
2E0
100
AcDbEntity
  8
1外形線
100
AcDbLine
 10
-57.63869838879327
 20
-536.6238881983497
 30
0.0
 11
-102.138698388793
 21
-536.6238881983497
 31
0.0
  0
LINE
  5
25F9
330
2E0
100
AcDbEntity
  8
1外形線
100
AcDbLine
 10
-130.1386983887931
 20
-580.6238881983496
 30
0.0
 11
-57.63869838879327
 21
-580.6238881983497
 31
0.0
  0
LINE
  5
25FA
330
2E0
100
AcDbEntity
  8
1外形線
100
AcDbLine
 10
-127.8762603661053
 20
-522.2847354317655
 30
0.0
 11
-127.8762603661053
 21
-580.6238881983496
 31
0.0
  0
ARC
  5
25FB
330
2E0
100
AcDbEntity
  8
1外形線
100
AcDbCircle
 10
-102.9386983887931
 20
-511.4238881983497
 30
0.0
 40
27.2
100
AcDbArc
 50
180.0
 51
270.0
  0
ARC
  5
25FC
330
2E0
100
AcDbEntity
  8
1外形線
100
AcDbCircle
 10
-102.138698388793
 20
-511.6238881983497
 30
0.0
 40
25.0
100
AcDbArc
 50
180.0
 51
270.0
  0
LINE
  5
25FD
330
2E0
100
AcDbEntity
  8
1外形線
100
AcDbLine
 10
-118.1386983887929
 20
-530.8332609106484
 30
0.0
 11
-118.1386983887931
 21
-462.4145154860512
 31
0.0
  0
LINE
  5
25FE
330
2E0
100
AcDbEntity
  8
1外形線
100
AcDbLine
 10
-130.1386983887931
 20
-495.6238881983497
 30
0.0
 11
-130.1386983887931
 21
-580.6238881983496
 31
0.0
  0
LINE
  5
25FF
330
2E0
100
AcDbEntity
  8
1外形線
100
AcDbLine
 10
-121.6655025954209
 20
-531.1506924049736
 30
0.0
 11
-121.6655025954209
 21
-580.6238881983496
 31
0.0
  0
LINE
  5
2600
330
2E0
100
AcDbEntity
  8
1外形線
100
AcDbLine
 10
-112.5894533892748
 20
-536.8542426575502
 30
0.0
 11
-112.5894533892747
 21
-580.6238881983496
 31
0.0
  0
ARC
  5
2601
330
2E0
100
AcDbEntity
  8
1外形線
100
AcDbCircle
 10
-126.2765965105665
 20
-501.6078448970584
 30
0.0
 40
11.0
100
AcDbArc
 50
42.28485895570395
 51
94.4950459803716
  0
ARC
  5
2602
330
2E0
100
AcDbEntity
  8
1外形線
100
AcDbCircle
 10
-126.2765965105667
 20
-500.9007381158719
 30
0.0
 40
11.0
100
AcDbArc
 50
42.28485895570286
 51
94.4950459803716
  0
LINE
  5
2603
330
2E0
100
AcDbEntity
  8
1外形線
100
AcDbLine
 10
-130.1386983887931
 20
-495.6238881983497
 30
0.0
 11
-130.1386983887931
 21
-481.5238881983496
 31
0.0
  0
LINE
  5
2604
330
2E0
100
AcDbEntity
  8
1外形線
100
AcDbLine
 10
-127.138698388793
 20
-511.6238881983498
 30
0.0
 11
-127.1386983887931
 21
-481.6238881983498
 31
0.0
  0
LINE
  5
2605
330
2E0
100
AcDbEntity
  8
1外形線
100
AcDbLine
 10
-128.6386983887931
 20
-484.6238881983497
 30
0.0
 11
-127.1386983887931
 21
-484.6238881983497
 31
0.0
  0
LINE
  5
2606
330
2E0
100
AcDbEntity
  8
1外形線
100
AcDbLine
 10
-130.1386983887931
 20
-490.6238881983497
 30
0.0
 11
-128.6386983887931
 21
-490.6238881983497
 31
0.0
  0
LINE
  5
2607
330
2E0
100
AcDbEntity
  8
1外形線
100
AcDbLine
 10
-128.6386983887931
 20
-490.6238881983497
 30
0.0
 11
-128.6386983887931
 21
-484.6238881983497
 31
0.0
  0
ARC
  5
2608
330
2E0
100
AcDbEntity
  8
1外形線
100
AcDbCircle
 10
-13.13869838879327
 20
-511.6238881983497
 30
0.0
 40
25.0
100
AcDbArc
 50
270.0
 51
0.0
  0
ARC
  5
2609
330
2E0
100
AcDbEntity
  8
1外形線
100
AcDbCircle
 10
-12.33869838879332
 20
-511.4238881983497
 30
0.0
 40
27.2
100
AcDbArc
 50
270.0
 51
0.0
  0
LINE
  5
260A
330
2E0
100
AcDbEntity
  8
1外形線
100
AcDbLine
 10
-57.63869838879305
 20
-534.6238881983497
 30
0.0
 11
-3.340739417660643
 21
-534.6238881983497
 31
0.0
  0
LINE
  5
260B
330
2E0
100
AcDbEntity
  8
1外形線
100
AcDbLine
 10
14.86130161120672
 20
-580.6238881983496
 30
0.0
 11
-57.63869838879305
 21
-580.6238881983497
 31
0.0
  0
LINE
  5
260C
330
2E0
100
AcDbEntity
  8
1外形線
100
AcDbLine
 10
-57.63869838879305
 20
-536.6238881983497
 30
0.0
 11
-13.13869838879327
 21
-536.6238881983497
 31
0.0
  0
LINE
  5
260D
330
2E0
100
AcDbEntity
  8
1外形線
100
AcDbLine
 10
-12.33869838879332
 20
-538.6238881983497
 30
0.0
 11
-57.63869838879327
 21
-538.6238881983497
 31
0.0
  0
LINE
  5
260E
330
2E0
100
AcDbEntity
  8
1外形線
100
AcDbLine
 10
12.59886358851918
 20
-522.2847354317655
 30
0.0
 11
12.59886358851918
 21
-580.6238881983496
 31
0.0
  0
LINE
  5
260F
330
2E0
100
AcDbEntity
  8
1外形線
100
AcDbLine
 10
2.861301611206727
 20
-530.8332609106482
 30
0.0
 11
2.861301611206727
 21
-462.4145154860511
 31
0.0
  0
LINE
  5
2610
330
2E0
100
AcDbEntity
  8
1外形線
100
AcDbLine
 10
14.86130161120672
 20
-495.6238881983497
 30
0.0
 11
14.86130161120672
 21
-580.6238881983496
 31
0.0
  0
LINE
  5
2611
330
2E0
100
AcDbEntity
  8
1外形線
100
AcDbLine
 10
-2.687943388311623
 20
-536.85424265755
 30
0.0
 11
-2.687943388311623
 21
-580.6238881983496
 31
0.0
  0
LINE
  5
2612
330
2E0
100
AcDbEntity
  8
1外形線
100
AcDbLine
 10
6.388105817834457
 20
-531.1506924049736
 30
0.0
 11
6.388105817834457
 21
-580.6238881983496
 31
0.0
  0
ARC
  5
2613
330
2E0
100
AcDbEntity
  8
1外形線
100
AcDbCircle
 10
10.99919973298051
 20
-500.9007381158719
 30
0.0
 40
11.0
100
AcDbArc
 50
85.50495401962839
 51
137.7151410442971
  0
ARC
  5
2614
330
2E0
100
AcDbEntity
  8
1外形線
100
AcDbCircle
 10
10.99919973298006
 20
-501.6078448970583
 30
0.0
 40
11.0
100
AcDbArc
 50
85.50495401962839
 51
137.715141044296
  0
LINE
  5
2615
330
2E0
100
AcDbEntity
  8
1外形線
100
AcDbLine
 10
11.86130161120672
 20
-511.6238881983497
 30
0.0
 11
11.86130161120672
 21
-481.6238881983497
 31
0.0
  0
LINE
  5
2616
330
2E0
100
AcDbEntity
  8
1外形線
100
AcDbLine
 10
14.86130161120672
 20
-495.6238881983497
 30
0.0
 11
14.86130161120672
 21
-481.5238881983496
 31
0.0
  0
LINE
  5
2617
330
2E0
100
AcDbEntity
  8
1外形線
100
AcDbLine
 10
14.86130161120672
 20
-490.6238881983497
 30
0.0
 11
13.36130161120673
 21
-490.6238881983497
 31
0.0
  0
LINE
  5
2618
330
2E0
100
AcDbEntity
  8
1外形線
100
AcDbLine
 10
13.36130161120673
 20
-490.6238881983497
 30
0.0
 11
13.36130161120673
 21
-484.6238881983497
 31
0.0
  0
LINE
  5
2619
330
2E0
100
AcDbEntity
  8
1外形線
100
AcDbLine
 10
13.36130161120673
 20
-484.6238881983497
 30
0.0
 11
11.86130161120672
 21
-484.6238881983497
 31
0.0
  0
TEXT
  5
261A
330
2E0
100
AcDbEntity
  8
1外形線
100
AcDbText
 10
-130.2137431963207
 20
-423.7359261736631
 30
0.0
 40
10.0
  1
SC-140
  7
KANJI
100
AcDbText
  0
LINE
  5
261B
330
2E0
100
AcDbEntity
  8
1外形線
100
AcDbLine
 10
-102.1386983887931
 20
-248.6238881983497
 30
0.0
 11
-77.13869838879327
 21
-248.6238881983497
 31
0.0
  0
LINE
  5
261C
330
2E0
100
AcDbEntity
  8
1外形線
100
AcDbLine
 10
-101.9386983887933
 20
-245.6238881983497
 30
0.0
 11
-77.13869838879327
 21
-245.6238881983497
 31
0.0
  0
LINE
  5
261D
330
2E0
100
AcDbEntity
  8
1外形線
100
AcDbLine
 10
-77.13869838879327
 20
-321.6238881983497
 30
0.0
 11
-102.6386983887931
 21
-321.6238881983497
 31
0.0
  0
LINE
  5
261E
330
2E0
100
AcDbEntity
  8
1外形線
100
AcDbLine
 10
-77.13869838879327
 20
-319.6238881983498
 30
0.0
 11
-102.138698388793
 21
-319.6238881983498
 31
0.0
  0
LINE
  5
261F
330
2E0
100
AcDbEntity
  8
1外形線
100
AcDbLine
 10
-130.138698388793
 20
-363.6238881983497
 30
0.0
 11
-77.13869838879304
 21
-363.6238881983497
 31
0.0
  0
LINE
  5
2620
330
2E0
100
AcDbEntity
  8
1外形線
100
AcDbLine
 10
-77.13869838879327
 20
-317.6238881983498
 30
0.0
 11
-111.9366573599258
 21
-317.6238881983498
 31
0.0
  0
LINE
  5
2621
330
2E0
100
AcDbEntity
  8
1外形線
100
AcDbLine
 10
-111.9366573599259
 20
-250.6238881983497
 30
0.0
 11
-77.13869838879327
 21
-250.6238881983497
 31
0.0
  0
LINE
  5
2622
330
2E0
100
AcDbEntity
  8
1外形線
100
AcDbLine
 10
-102.2386983887932
 20
-453.6238881983497
 30
0.0
 11
-57.63869838879327
 21
-453.6238881983497
 31
0.0
  0
LINE
  5
2623
330
2E0
100
AcDbEntity
  8
1外形線
100
AcDbLine
 10
-111.9366573599259
 20
-458.6238881983497
 30
0.0
 11
-57.63869838879327
 21
-458.6238881983497
 31
0.0
  0
LINE
  5
2624
330
2E0
100
AcDbEntity
  8
1外形線
100
AcDbLine
 10
-102.1386983887931
 20
-456.6238881983497
 30
0.0
 11
-57.63869838879327
 21
-456.6238881983497
 31
0.0
  0
LINE
  5
2625
330
2E0
100
AcDbEntity
  8
1外形線
100
AcDbLine
 10
-121.5777055650868
 20
-314.0628953746397
 30
0.0
 11
-121.5777055650867
 21
-363.6238881983497
 31
0.0
  0
LINE
  5
2626
330
2E0
100
AcDbEntity
  8
1外形線
100
AcDbLine
 10
-112.555969507896
 20
-319.7734054170053
 30
0.0
 11
-112.5559695078959
 21
-363.6238881983497
 31
0.0
  0
LINE
  5
2627
330
2E0
100
AcDbEntity
  8
1外形線
100
AcDbLine
 10
-130.138698388793
 20
-287.6238881983497
 30
0.0
 11
-130.138698388793
 21
-363.6238881983497
 31
0.0
  0
LINE
  5
2628
330
2E0
100
AcDbEntity
  8
1外形線
100
AcDbLine
 10
-127.7882156074505
 20
-305.2482660986344
 30
0.0
 11
-127.7882156074504
 21
-363.6238881983497
 31
0.0
  0
LINE
  5
2629
330
2E0
100
AcDbEntity
  8
1外形線
100
AcDbLine
 10
-118.138698388793
 20
-313.8332609106484
 30
0.0
 11
-118.1386983887932
 21
-254.4145154860513
 31
0.0
  0
ARC
  5
262A
330
2E0
100
AcDbEntity
  8
1外形線
100
AcDbCircle
 10
-101.9386983887932
 20
-273.8238881983497
 30
0.0
 40
28.2
100
AcDbArc
 50
90.0
 51
180.0
  0
ARC
  5
262B
330
2E0
100
AcDbEntity
  8
1外形線
100
AcDbCircle
 10
-102.138698388793
 20
-273.6238881983497
 30
0.0
 40
25.0
100
AcDbArc
 50
90.0
 51
180.0
  0
ARC
  5
262C
330
2E0
100
AcDbEntity
  8
1外形線
100
AcDbCircle
 10
-102.638698388793
 20
-294.1238881983498
 30
0.0
 40
27.5
100
AcDbArc
 50
180.0
 51
270.0
  0
ARC
  5
262D
330
2E0
100
AcDbEntity
  8
1外形線
100
AcDbCircle
 10
-102.138698388793
 20
-294.6238881983498
 30
0.0
 40
25.0
100
AcDbArc
 50
180.0
 51
270.0
  0
LINE
  5
262E
330
2E0
100
AcDbEntity
  8
1外形線
100
AcDbLine
 10
-130.138698388793
 20
-287.6238881983497
 30
0.0
 11
-130.138698388793
 21
-273.8238881983497
 31
0.0
  0
ARC
  5
262F
330
2E0
100
AcDbEntity
  8
1外形線
100
AcDbCircle
 10
-126.2765965105668
 20
-294.900738115872
 30
0.0
 40
11.0
100
AcDbArc
 50
42.28485895570286
 51
94.4950459803716
  0
LINE
  5
2630
330
2E0
100
AcDbEntity
  8
1外形線
100
AcDbLine
 10
-127.138698388793
 20
-294.6238881983498
 30
0.0
 11
-127.138698388793
 21
-273.6238881983498
 31
0.0
  0
ARC
  5
2631
330
2E0
100
AcDbEntity
  8
1外形線
100
AcDbCircle
 10
-126.2765965105666
 20
-295.6078448970584
 30
0.0
 40
11.0
100
AcDbArc
 50
42.28485895570395
 51
94.4950459803716
  0
LINE
  5
2632
330
2E0
100
AcDbEntity
  8
1外形線
100
AcDbLine
 10
-128.6386983887931
 20
-284.6238881983497
 30
0.0
 11
-128.6386983887931
 21
-278.6238881983497
 31
0.0
  0
LINE
  5
2633
330
2E0
100
AcDbEntity
  8
1外形線
100
AcDbLine
 10
-130.1386983887931
 20
-284.6238881983497
 30
0.0
 11
-128.6386983887931
 21
-284.6238881983497
 31
0.0
  0
LINE
  5
2634
330
2E0
100
AcDbEntity
  8
1外形線
100
AcDbLine
 10
-128.6386983887931
 20
-278.6238881983497
 30
0.0
 11
-127.1386983887931
 21
-278.6238881983497
 31
0.0
  0
LINE
  5
2635
330
2E0
100
AcDbEntity
  8
1外形線
100
AcDbLine
 10
-26.48918117013546
 20
-305.2482660986342
 30
0.0
 11
-26.48918117013546
 21
-363.6238881983497
 31
0.0
  0
LINE
  5
2636
330
2E0
100
AcDbEntity
  8
1外形線
100
AcDbLine
 10
-24.13869838879305
 20
-287.6238881983497
 30
0.0
 11
-24.13869838879282
 21
-363.6238881983497
 31
0.0
  0
LINE
  5
2637
330
2E0
100
AcDbEntity
  8
1外形線
100
AcDbLine
 10
-41.72142726968991
 20
-319.7734054170053
 30
0.0
 11
-41.72142726968991
 21
-363.6238881983497
 31
0.0
  0
LINE
  5
2638
330
2E0
100
AcDbEntity
  8
1外形線
100
AcDbLine
 10
-32.69969121249915
 20
-314.0628953746396
 30
0.0
 11
-32.69969121249915
 21
-363.6238881983497
 31
0.0
  0
LINE
  5
2639
330
2E0
100
AcDbEntity
  8
1外形線
100
AcDbLine
 10
55.42229443491351
 20
-363.6238881983496
 30
0.0
 11
55.42229443491328
 21
-323.6238881983497
 31
0.0
  0
LINE
  5
263A
330
2E0
100
AcDbEntity
  8
1外形線
100
AcDbLine
 10
49.71178439255186
 20
-363.6238881983496
 30
0.0
 11
49.71178439255163
 21
-323.6238881983497
 31
0.0
  0
LINE
  5
263B
330
2E0
100
AcDbEntity
  8
1外形線
100
AcDbLine
 10
47.86130161120718
 20
-363.6238881983496
 30
0.0
 11
47.86130161120718
 21
-323.6238881983497
 31
0.0
  0
LINE
  5
263C
330
2E0
100
AcDbEntity
  8
1外形線
100
AcDbLine
 10
-3.340739417660415
 20
-458.6238881983497
 30
0.0
 11
-57.63869838879327
 21
-458.6238881983497
 31
0.0
  0
LINE
  5
263D
330
2E0
100
AcDbEntity
  8
1外形線
100
AcDbLine
 10
-13.13869838879327
 20
-456.6238881983497
 30
0.0
 11
-57.63869838879327
 21
-456.6238881983497
 31
0.0
  0
LINE
  5
263E
330
2E0
100
AcDbEntity
  8
1外形線
100
AcDbLine
 10
-13.03869838879313
 20
-453.6238881983497
 30
0.0
 11
-57.63869838879327
 21
-453.6238881983497
 31
0.0
  0
LINE
  5
263F
330
2E0
100
AcDbEntity
  8
1外形線
100
AcDbLine
 10
-24.13869838879282
 20
-363.6238881983497
 30
0.0
 11
-77.13869838879304
 21
-363.6238881983497
 31
0.0
  0
LINE
  5
2640
330
2E0
100
AcDbEntity
  8
1外形線
100
AcDbLine
 10
45.36130161120673
 20
-453.6238881983499
 30
0.0
 11
52.36130161120673
 21
-453.6238881983499
 31
0.0
  0
ARC
  5
2641
330
2E0
100
AcDbEntity
  8
1外形線
100
AcDbCircle
 10
45.36130161120673
 20
-454.1238881983499
 30
0.0
 40
0.5
100
AcDbArc
 50
90.0
 51
180.0
  0
ARC
  5
2642
330
2E0
100
AcDbEntity
  8
1外形線
100
AcDbCircle
 10
52.36130161120673
 20
-454.1238881983499
 30
0.0
 40
0.5
100
AcDbArc
 50
0.0
 51
90.0
  0
LINE
  5
2643
330
2E0
100
AcDbEntity
  8
1外形線
100
AcDbLine
 10
-36.13869838879305
 20
-313.8332609106482
 30
0.0
 11
-36.13869838879282
 21
-254.4145154860513
 31
0.0
  0
ARC
  5
2644
330
2E0
100
AcDbEntity
  8
1外形線
100
AcDbCircle
 10
-52.13869838879304
 20
-273.6238881983497
 30
0.0
 40
25.0
100
AcDbArc
 50
0.0
 51
90.0
  0
ARC
  5
2645
330
2E0
100
AcDbEntity
  8
1外形線
100
AcDbCircle
 10
-52.33869838879286
 20
-273.8238881983496
 30
0.0
 40
28.2
100
AcDbArc
 50
0.0
 51
90.0
  0
LINE
  5
2646
330
2E0
100
AcDbEntity
  8
1外形線
100
AcDbLine
 10
-77.13869838879282
 20
-317.6238881983498
 30
0.0
 11
-42.34073941766019
 21
-317.6238881983498
 31
0.0
  0
ARC
  5
2647
330
2E0
100
AcDbEntity
  8
1外形線
100
AcDbCircle
 10
-52.13869838879304
 20
-294.6238881983498
 30
0.0
 40
25.0
100
AcDbArc
 50
270.0
 51
0.0
  0
ARC
  5
2648
330
2E0
100
AcDbEntity
  8
1外形線
100
AcDbCircle
 10
-51.63869838879304
 20
-294.1238881983498
 30
0.0
 40
27.5
100
AcDbArc
 50
270.0
 51
0.0
  0
LINE
  5
2649
330
2E0
100
AcDbEntity
  8
1外形線
100
AcDbLine
 10
-77.13869838879282
 20
-319.6238881983498
 30
0.0
 11
-52.13869838879304
 21
-319.6238881983498
 31
0.0
  0
LINE
  5
264A
330
2E0
100
AcDbEntity
  8
1外形線
100
AcDbLine
 10
-77.13869838879282
 20
-321.6238881983497
 30
0.0
 11
-51.63869838879282
 21
-321.6238881983497
 31
0.0
  0
ARC
  5
264B
330
2E0
100
AcDbEntity
  8
1外形線
100
AcDbCircle
 10
-28.00080026701948
 20
-295.6078448970584
 30
0.0
 40
11.0
100
AcDbArc
 50
85.50495401962839
 51
137.715141044296
  0
ARC
  5
264C
330
2E0
100
AcDbEntity
  8
1外形線
100
AcDbCircle
 10
-28.00080026701926
 20
-294.900738115872
 30
0.0
 40
11.0
100
AcDbArc
 50
85.50495401962839
 51
137.7151410442971
  0
LINE
  5
264D
330
2E0
100
AcDbEntity
  8
1外形線
100
AcDbLine
 10
-27.13869838879304
 20
-294.6238881983498
 30
0.0
 11
-27.13869838879304
 21
-273.6238881983498
 31
0.0
  0
LINE
  5
264E
330
2E0
100
AcDbEntity
  8
1外形線
100
AcDbLine
 10
-24.13869838879305
 20
-287.6238881983497
 30
0.0
 11
-24.13869838879305
 21
-273.8238881983496
 31
0.0
  0
LINE
  5
264F
330
2E0
100
AcDbEntity
  8
1外形線
100
AcDbLine
 10
-25.63869838879282
 20
-278.6238881983497
 30
0.0
 11
-27.13869838879282
 21
-278.6238881983497
 31
0.0
  0
LINE
  5
2650
330
2E0
100
AcDbEntity
  8
1外形線
100
AcDbLine
 10
-24.13869838879282
 20
-284.6238881983497
 30
0.0
 11
-25.63869838879282
 21
-284.6238881983497
 31
0.0
  0
LINE
  5
2651
330
2E0
100
AcDbEntity
  8
1外形線
100
AcDbLine
 10
-25.63869838879282
 20
-284.6238881983497
 30
0.0
 11
-25.63869838879282
 21
-278.6238881983497
 31
0.0
  0
LINE
  5
2652
330
2E0
100
AcDbEntity
  8
1外形線
100
AcDbLine
 10
-42.34073941766019
 20
-250.6238881983497
 30
0.0
 11
-77.13869838879304
 21
-250.6238881983497
 31
0.0
  0
LINE
  5
2653
330
2E0
100
AcDbEntity
  8
1外形線
100
AcDbLine
 10
-52.33869838879286
 20
-245.6238881983497
 30
0.0
 11
-77.13869838879304
 21
-245.6238881983497
 31
0.0
  0
LINE
  5
2654
330
2E0
100
AcDbEntity
  8
1外形線
100
AcDbLine
 10
-52.13869838879304
 20
-248.6238881983497
 30
0.0
 11
-77.13869838879304
 21
-248.6238881983497
 31
0.0
  0
LINE
  5
2655
330
2E0
100
AcDbEntity
  8
1外形線
100
AcDbLine
 10
13.86130161120718
 20
-246.1238881983497
 30
0.0
 11
13.86130161120718
 21
-271.6238881983497
 31
0.0
  0
LINE
  5
2656
330
2E0
100
AcDbEntity
  8
1外形線
100
AcDbLine
 10
5.861301611207181
 20
-246.1238881983497
 30
0.0
 11
5.861301611207181
 21
-321.6238881983497
 31
0.0
  0
LINE
  5
2657
330
2E0
100
AcDbEntity
  8
1外形線
100
AcDbLine
 10
5.861301611207181
 20
-284.6238881983497
 30
0.0
 11
33.86130161120695
 21
-284.6238881983497
 31
0.0
  0
LINE
  5
2658
330
2E0
100
AcDbEntity
  8
1外形線
100
AcDbLine
 10
5.861301611207181
 20
-305.2482660986342
 30
0.0
 11
45.86130161120718
 21
-305.2482660986342
 31
0.0
  0
LINE
  5
2659
330
2E0
100
AcDbEntity
  8
1外形線
100
AcDbLine
 10
5.861301611207181
 20
-321.6238881983497
 30
0.0
 11
45.86130161120718
 21
-321.6238881983497
 31
0.0
  0
LINE
  5
265A
330
2E0
100
AcDbEntity
  8
1外形線
100
AcDbLine
 10
5.861301611207181
 20
-319.7734054170053
 30
0.0
 11
45.86130161120718
 21
-319.7734054170053
 31
0.0
  0
LINE
  5
265B
330
2E0
100
AcDbEntity
  8
1外形線
100
AcDbLine
 10
5.861301611207181
 20
-314.0628953746435
 30
0.0
 11
45.86130161120718
 21
-314.0628953746435
 31
0.0
  0
ARC
  5
265C
330
2E0
100
AcDbEntity
  8
1外形線
100
AcDbCircle
 10
45.86130161120718
 20
-323.6238881983497
 30
0.0
 40
9.560992823706227
100
AcDbArc
 50
0.0
 51
45.00000000000806
  0
ARC
  5
265D
330
2E0
100
AcDbEntity
  8
1外形線
100
AcDbCircle
 10
45.86130161120718
 20
-323.6238881983497
 30
0.0
 40
3.850482781344581
100
AcDbArc
 50
0.0
 51
45.00000000000806
  0
ARC
  5
265E
330
2E0
100
AcDbEntity
  8
1外形線
100
AcDbCircle
 10
45.86130161120718
 20
-323.6238881983497
 30
0.0
 40
3.850482781344581
100
AcDbArc
 50
45.00000000000806
 51
90.0
  0
ARC
  5
265F
330
2E0
100
AcDbEntity
  8
1外形線
100
AcDbCircle
 10
45.86130161120718
 20
-323.6238881983497
 30
0.0
 40
2.0
100
AcDbArc
 50
45.00000000000806
 51
90.0
  0
ARC
  5
2660
330
2E0
100
AcDbEntity
  8
1外形線
100
AcDbCircle
 10
45.86130161120718
 20
-323.6238881983497
 30
0.0
 40
2.0
100
AcDbArc
 50
0.0
 51
45.00000000000806
  0
ARC
  5
2661
330
2E0
100
AcDbEntity
  8
1外形線
100
AcDbCircle
 10
45.86130161120718
 20
-323.6238881983497
 30
0.0
 40
9.560992823706227
100
AcDbArc
 50
45.00000000000806
 51
90.0
  0
ARC
  5
2662
330
2E0
100
AcDbEntity
  8
1外形線
100
AcDbCircle
 10
45.86130161120718
 20
-323.6238881983497
 30
0.0
 40
18.37562209971549
100
AcDbArc
 50
58.2997390475843
 51
90.0
  0
LINE
  5
2663
330
2E0
100
AcDbEntity
  8
1外形線
100
AcDbLine
 10
33.86130161120695
 20
-284.6238881983497
 30
0.0
 11
39.86130161120696
 21
-278.6238881983497
 31
0.0
  0
ARC
  5
2664
330
2E0
100
AcDbEntity
  8
1外形線
100
AcDbCircle
 10
6.361301611207181
 20
-246.1238881983497
 30
0.0
 40
0.5
100
AcDbArc
 50
90.0
 51
180.0
  0
ARC
  5
2665
330
2E0
100
AcDbEntity
  8
1外形線
100
AcDbCircle
 10
13.36130161120718
 20
-246.1238881983497
 30
0.0
 40
0.5
100
AcDbArc
 50
0.0
 51
90.0
  0
LINE
  5
2666
330
2E0
100
AcDbEntity
  8
1外形線
100
AcDbLine
 10
6.361301611207181
 20
-245.6238881983497
 30
0.0
 11
13.36130161120718
 21
-245.6238881983497
 31
0.0
  0
ARC
  5
2667
330
2E0
100
AcDbEntity
  8
1外形線
100
AcDbCircle
 10
150.8613016112065
 20
-474.6238881983497
 30
0.0
 40
18.04023703040161
100
AcDbArc
 50
45.00000000000806
 51
90.0
  0
ARC
  5
2668
330
2E0
100
AcDbEntity
  8
1外形線
100
AcDbCircle
 10
150.8613016112065
 20
-474.6238881983497
 30
0.0
 40
20.0
100
AcDbArc
 50
45.00000000000806
 51
90.0
  0
LINE
  5
2669
330
2E0
100
AcDbEntity
  8
1外形線
100
AcDbLine
 10
171.3613016112065
 20
-580.6238881983496
 30
0.0
 11
86.86130161120649
 21
-580.6238881983495
 31
0.0
  0
ARC
  5
266A
330
2E0
100
AcDbEntity
  8
1外形線
100
AcDbCircle
 10
120.8613016112067
 20
-504.6238881983496
 30
0.0
 40
20.0
100
AcDbArc
 50
45.00000000000806
 51
90.0
  0
LINE
  5
266B
330
2E0
100
AcDbEntity
  8
1外形線
100
AcDbLine
 10
102.8925245314635
 20
-528.9566263087716
 30
0.0
 11
124.3968355171391
 21
-507.4523153230959
 31
0.0
  0
ARC
  5
266C
330
2E0
100
AcDbEntity
  8
1外形線
100
AcDbCircle
 10
84.86130161120696
 20
-540.6238881983497
 30
0.0
 40
18.33915276657913
100
AcDbArc
 50
58.30618798819856
 51
90.0
  0
LWPOLYLINE
  5
266D
330
2E0
100
AcDbEntity
  8
1外形線
100
AcDbPolyline
 90
        5
 70
     0
 43
0.0
 10
93.34658298544537
 20
-532.138606824111
 42
-0.1747045211890497
 10
92.65715648683045
 20
-530.6721966645645
 42
-0.1042029417664594
 10
92.96054401612469
 20
-528.0246457934334
 42
-0.0649481016501909
 10
94.21850719808459
 20
-525.4301726151252
 42
-0.0510992989621213
 10
96.52856350078492
 20
-522.5926652780929
 42
-0.0510992989621184
  0
ARC
  5
266E
330
2E0
100
AcDbEntity
  8
1外形線
100
AcDbCircle
 10
84.86130161120673
 20
-540.6238881983496
 30
0.0
 40
9.473195793372211
100
AcDbArc
 50
359.9999999999935
 51
45.00000000000806
  0
ARC
  5
266F
330
2E0
100
AcDbEntity
  8
1外形線
100
AcDbCircle
 10
84.86130161120696
 20
-540.6238881983497
 30
0.0
 40
9.473195793372211
100
AcDbArc
 50
45.00000000000806
 51
90.0
  0
LINE
  5
2670
330
2E0
100
AcDbEntity
  8
1外形線
100
AcDbLine
 10
86.86130161120649
 20
-540.6238881983498
 30
0.0
 11
86.86130161120672
 21
-580.6238881983495
 31
0.0
  0
LINE
  5
2671
330
2E0
100
AcDbEntity
  8
1外形線
100
AcDbLine
 10
88.63094715200441
 20
-580.6238881983495
 30
0.0
 11
88.63094715200418
 21
-540.6238881983498
 31
0.0
  0
ARC
  5
2672
330
2E0
100
AcDbEntity
  8
1外形線
100
AcDbCircle
 10
84.86130161120673
 20
-540.6238881983496
 30
0.0
 40
3.769645540797568
100
AcDbArc
 50
359.9999999999935
 51
45.00000000000806
  0
ARC
  5
2673
330
2E0
100
AcDbEntity
  8
1外形線
100
AcDbCircle
 10
84.86130161120673
 20
-540.6238881983496
 30
0.0
 40
2.0
100
AcDbArc
 50
359.9999999999935
 51
45.00000000000806
  0
ARC
  5
2674
330
2E0
100
AcDbEntity
  8
1外形線
100
AcDbCircle
 10
84.86130161120696
 20
-540.6238881983497
 30
0.0
 40
2.0
100
AcDbArc
 50
45.00000000000806
 51
90.0
  0
ARC
  5
2675
330
2E0
100
AcDbEntity
  8
1外形線
100
AcDbCircle
 10
84.86130161120696
 20
-540.6238881983497
 30
0.0
 40
3.769645540797568
100
AcDbArc
 50
45.00000000000806
 51
90.0
  0
LINE
  5
2676
330
2E0
100
AcDbEntity
  8
1外形線
100
AcDbLine
 10
103.2004543777859
 20
-580.6238881983495
 30
0.0
 11
103.2004543777857
 21
-540.6238881983498
 31
0.0
  0
LINE
  5
2677
330
2E0
100
AcDbEntity
  8
1外形線
100
AcDbLine
 10
94.334497404579
 20
-580.6238881983495
 30
0.0
 11
94.334497404579
 21
-540.6238881983498
 31
0.0
  0
ARC
  5
2678
330
2E0
100
AcDbEntity
  8
1外形線
100
AcDbCircle
 10
84.86130161120673
 20
-540.6238881983496
 30
0.0
 40
18.33915276657913
100
AcDbArc
 50
359.9999999999935
 51
31.6938120117959
  0
LWPOLYLINE
  5
2679
330
2E0
100
AcDbEntity
  8
1外形線
100
AcDbPolyline
 90
        5
 70
     0
 43
0.0
 10
93.34658298544537
 20
-532.1386068241111
 42
0.1747045211890497
 10
94.81299314499187
 20
-532.8280333227261
 42
0.1042029417664594
 10
97.46054401612287
 20
-532.5246457934318
 42
0.0649481016501909
 10
100.0550171944312
 20
-531.2666826114718
 42
0.0510992989621213
 10
102.8925245314635
 20
-528.9566263087716
 42
0.0510992989621184
  0
LINE
  5
267A
330
2E0
100
AcDbEntity
  8
1外形線
100
AcDbLine
 10
78.86130161120672
 20
-484.6238881983496
 30
0.0
 11
120.8613016112067
 21
-484.6238881983496
 31
0.0
  0
LINE
  5
267B
330
2E0
100
AcDbEntity
  8
1外形線
100
AcDbLine
 10
72.86130161120673
 20
-490.6238881983495
 30
0.0
 11
78.86130161120672
 21
-484.6238881983496
 31
0.0
  0
LINE
  5
267C
330
2E0
100
AcDbEntity
  8
1外形線
100
AcDbLine
 10
96.52856350078492
 20
-522.5926652780929
 30
0.0
 11
118.0328744864605
 21
-501.0883542924172
 31
0.0
  0
LINE
  5
267D
330
2E0
100
AcDbEntity
  8
1外形線
100
AcDbLine
 10
121.2148550017998
 20
-504.2703348077563
 30
0.0
 11
124.3968355171391
 21
-507.4523153230959
 31
0.0
  0
LINE
  5
267E
330
2E0
100
AcDbEntity
  8
1外形線
100
AcDbLine
 10
121.2148550018
 20
-504.2703348077566
 30
0.0
 11
118.0328744864605
 21
-501.0883542924172
 31
0.0
  0
LINE
  5
267F
330
2E0
100
AcDbEntity
  8
1外形線
100
AcDbLine
 10
140.8613016112067
 20
-546.6238881983494
 30
0.0
 11
140.8613016112067
 21
-504.6238881983496
 31
0.0
  0
LINE
  5
2680
330
2E0
100
AcDbEntity
  8
1外形線
100
AcDbLine
 10
170.8613016112065
 20
-474.6238881983498
 30
0.0
 11
170.8613016112065
 21
-572.6238881983497
 31
0.0
  0
LINE
  5
2681
330
2E0
100
AcDbEntity
  8
1外形線
100
AcDbLine
 10
168.9015386416083
 20
-572.6238881983497
 30
0.0
 11
168.9015386416083
 21
-474.6238881983498
 31
0.0
  0
LINE
  5
2682
330
2E0
100
AcDbEntity
  8
1外形線
100
AcDbLine
 10
163.1832437062437
 20
-572.6238881983497
 30
0.0
 11
163.1832437062437
 21
-477.3019461033128
 31
0.0
  0
LINE
  5
2683
330
2E0
100
AcDbEntity
  8
1外形線
100
AcDbLine
 10
154.4365334525894
 20
-572.6238881983497
 30
0.0
 11
154.4365334525894
 21
-481.0486563569675
 31
0.0
  0
LINE
  5
2684
330
2E0
100
AcDbEntity
  8
1外形線
100
AcDbLine
 10
171.3613016112065
 20
-572.6238881983497
 30
0.0
 11
143.9613016112068
 21
-572.6238881983497
 31
0.0
  0
LINE
  5
2685
330
2E0
100
AcDbEntity
  8
1外形線
100
AcDbLine
 10
134.8613016112069
 20
-580.6238881983495
 30
0.0
 11
134.8613016112069
 21
-552.6238881983495
 31
0.0
  0
LINE
  5
2686
330
2E0
100
AcDbEntity
  8
1外形線
100
AcDbLine
 10
134.8613016112069
 20
-552.6238881983495
 30
0.0
 11
140.8613016112067
 21
-546.6238881983494
 31
0.0
  0
ARC
  5
2687
330
2E0
100
AcDbEntity
  8
1外形線
100
AcDbCircle
 10
171.3613016112065
 20
-573.1238881983496
 30
0.0
 40
0.5
100
AcDbArc
 50
0.0
 51
90.0
  0
ARC
  5
2688
330
2E0
100
AcDbEntity
  8
1外形線
100
AcDbCircle
 10
171.3613016112065
 20
-580.1238881983497
 30
0.0
 40
0.5
100
AcDbArc
 50
270.0
 51
0.0
  0
LINE
  5
2689
330
2E0
100
AcDbEntity
  8
1外形線
100
AcDbLine
 10
171.8613016112065
 20
-580.1238881983497
 30
0.0
 11
171.8613016112065
 21
-573.1238881983496
 31
0.0
  0
LINE
  5
268A
330
2E0
100
AcDbEntity
  8
1外形線
100
AcDbLine
 10
142.0745050468029
 20
-489.7746457934318
 30
0.0
 11
160.4072431572249
 21
-471.4419076830105
 31
0.0
  0
LWPOLYLINE
  5
268B
330
2E0
100
AcDbEntity
  8
1外形線
100
AcDbPolyline
 90
        5
 70
     0
 43
0.0
 10
154.043282126546
 20
-465.0779466523314
 42
-0.0510992989621341
 10
156.8807894635783
 20
-462.7678903496313
 42
-0.0649481016502022
 10
159.4752626418869
 20
-461.5099271676713
 42
-0.1042029417664566
 10
162.1228135130177
 20
-461.206539638377
 42
-0.1747045211890639
 10
163.5892236725647
 20
-461.8959661369918
 42
-0.1747045211890532
  0
ARC
  5
268C
330
2E0
100
AcDbEntity
  8
1外形線
100
AcDbCircle
 10
120.8613016112067
 20
-504.6238881983497
 30
0.0
 40
20.0
100
AcDbArc
 50
0.0
 51
45.00000000000806
  0
LINE
  5
268D
330
2E0
100
AcDbEntity
  8
1外形線
100
AcDbLine
 10
135.7105440161244
 20
-483.4106847627532
 30
0.0
 11
154.0432821265458
 21
-465.0779466523314
 31
0.0
  0
LINE
  5
268E
330
2E0
100
AcDbEntity
  8
1外形線
100
AcDbLine
 10
138.8925245314638
 20
-486.5926652780928
 30
0.0
 11
142.0745050468029
 21
-489.7746457934318
 31
0.0
  0
LINE
  5
268F
330
2E0
100
AcDbEntity
  8
1外形線
100
AcDbLine
 10
138.8925245314635
 20
-486.5926652780924
 30
0.0
 11
135.7105440161244
 21
-483.4106847627532
 31
0.0
  0
ARC
  5
2690
330
2E0
100
AcDbEntity
  8
1外形線
100
AcDbCircle
 10
144.4365334525894
 20
-481.0486563569675
 30
0.0
 40
10.0
100
AcDbArc
 50
0.0
 51
18.25631604960285
  0
ARC
  5
2691
330
2E0
100
AcDbEntity
  8
1外形線
100
AcDbCircle
 10
148.1832437062435
 20
-477.3019461033125
 30
0.0
 40
15.0
100
AcDbArc
 50
62.1919083568964
 51
90.0
  0
ARC
  5
2692
330
2E0
100
AcDbEntity
  8
1外形線
100
AcDbCircle
 10
144.4365334525889
 20
-481.048656356967
 30
0.0
 40
10.0
100
AcDbArc
 50
71.74368395039767
 51
90.0
  0
ARC
  5
2693
330
2E0
100
AcDbEntity
  8
1外形線
100
AcDbCircle
 10
148.1832437062437
 20
-477.3019461033128
 30
0.0
 40
15.0
100
AcDbArc
 50
0.0
 51
27.80809164310285
  0
ARC
  5
2694
330
2E0
100
AcDbEntity
  8
1外形線
100
AcDbCircle
 10
150.8613016112065
 20
-474.6238881983498
 30
0.0
 40
20.0
100
AcDbArc
 50
0.0
 51
45.00000000000806
  0
ARC
  5
2695
330
2E0
100
AcDbEntity
  8
1外形線
100
AcDbCircle
 10
150.8613016112065
 20
-474.6238881983498
 30
0.0
 40
18.04023703040161
100
AcDbArc
 50
0.0
 51
45.00000000000806
  0
LWPOLYLINE
  5
2696
330
2E0
100
AcDbEntity
  8
1外形線
100
AcDbPolyline
 90
        5
 70
     0
 43
0.0
 10
160.4072431572249
 20
-471.4419076830102
 42
0.0510992989621341
 10
162.717299459925
 20
-468.6044003459779
 42
0.0649481016502022
 10
163.9752626418849
 20
-466.0099271676693
 42
0.1042029417664566
 10
164.2786501711791
 20
-463.3623762965386
 42
0.1747045211890639
 10
163.5892236725642
 20
-461.8959661369918
 42
0.1747045211890532
  0
LINE
  5
2697
330
2E0
100
AcDbEntity
  8
1外形線
100
AcDbLine
 10
120.8184958530332
 20
-355.6238881983496
 30
0.0
 11
120.818495853033
 21
-266.6238881983497
 31
0.0
  0
LINE
  5
2698
330
2E0
100
AcDbEntity
  8
1外形線
100
AcDbLine
 10
122.8613016112072
 20
-266.6238881983497
 30
0.0
 11
122.8613016112072
 21
-355.6238881983496
 31
0.0
  0
LINE
  5
2699
330
2E0
100
AcDbEntity
  8
1外形線
100
AcDbLine
 10
84.86130161120717
 20
-335.6238881983497
 30
0.0
 11
90.86130161120719
 21
-329.6238881983498
 31
0.0
  0
LINE
  5
269A
330
2E0
100
AcDbEntity
  8
1外形線
100
AcDbLine
 10
64.23692371092261
 20
-363.6238881983496
 30
0.0
 11
64.23692371092261
 21
-323.6238881983497
 31
0.0
  0
LINE
  5
269B
330
2E0
100
AcDbEntity
  8
1外形線
100
AcDbLine
 10
106.3992973431534
 20
-355.6238881983496
 30
0.0
 11
106.3992973431534
 21
-273.0858924664029
 31
0.0
  0
LINE
  5
269C
330
2E0
100
AcDbEntity
  8
1外形線
100
AcDbLine
 10
115.0954431778762
 20
-355.6238881983496
 30
0.0
 11
115.0954431778759
 21
-269.3897466316808
 31
0.0
  0
LINE
  5
269D
330
2E0
100
AcDbEntity
  8
1外形線
100
AcDbLine
 10
84.86130161120717
 20
-363.6238881983496
 30
0.0
 11
84.86130161120717
 21
-335.6238881983497
 31
0.0
  0
LINE
  5
269E
330
2E0
100
AcDbEntity
  8
1外形線
100
AcDbLine
 10
123.3613016112071
 20
-355.6238881983496
 30
0.0
 11
97.86130161120718
 21
-355.6238881983496
 31
0.0
  0
ARC
  5
269F
330
2E0
100
AcDbEntity
  8
1外形線
100
AcDbCircle
 10
123.3613016112071
 20
-356.1238881983496
 30
0.0
 40
0.5
100
AcDbArc
 50
0.0
 51
90.0
  0
ARC
  5
26A0
330
2E0
100
AcDbEntity
  8
1外形線
100
AcDbCircle
 10
123.3613016112071
 20
-363.1238881983496
 30
0.0
 40
0.5
100
AcDbArc
 50
270.0
 51
0.0
  0
LINE
  5
26A1
330
2E0
100
AcDbEntity
  8
1外形線
100
AcDbLine
 10
123.8613016112072
 20
-363.1238881983496
 30
0.0
 11
123.8613016112072
 21
-356.1238881983496
 31
0.0
  0
ARC
  5
26A2
330
2E0
100
AcDbEntity
  8
1外形線
100
AcDbCircle
 10
96.39929734315343
 20
-273.0858924664029
 30
0.0
 40
10.0
100
AcDbArc
 50
0.0
 51
18.25631604959616
  0
LINE
  5
26A3
330
2E0
100
AcDbEntity
  8
1外形線
100
AcDbLine
 10
91.72095165621021
 20
-284.1281991840256
 30
0.0
 11
112.4072431572253
 21
-263.4419076830104
 31
0.0
  0
LINE
  5
26A4
330
2E0
100
AcDbEntity
  8
1外形線
100
AcDbLine
 10
85.35699062553112
 20
-277.7642381533468
 30
0.0
 11
106.0432821265463
 21
-257.0779466523313
 31
0.0
  0
LINE
  5
26A5
330
2E0
100
AcDbEntity
  8
1外形線
100
AcDbLine
 10
88.53897114087089
 20
-280.9462186686862
 30
0.0
 11
91.72095165621021
 21
-284.1281991840256
 31
0.0
  0
ARC
  5
26A6
330
2E0
100
AcDbEntity
  8
1外形線
100
AcDbCircle
 10
70.86130161120718
 20
-298.6238881983498
 30
0.0
 40
20.0
100
AcDbArc
 50
0.0
 51
45.00000000000806
  0
LINE
  5
26A7
330
2E0
100
AcDbEntity
  8
1外形線
100
AcDbLine
 10
90.86130161120719
 20
-329.6238881983498
 30
0.0
 11
90.86130161120719
 21
-298.6238881983497
 31
0.0
  0
LINE
  5
26A8
330
2E0
100
AcDbEntity
  8
1外形線
100
AcDbLine
 10
63.89252453146401
 20
-311.9566263087716
 30
0.0
 11
76.16460247010604
 21
-299.6845483701297
 31
0.0
  0
LINE
  5
26A9
330
2E0
100
AcDbEntity
  8
1外形線
100
AcDbLine
 10
57.52856350078514
 20
-305.5926652780929
 30
0.0
 11
69.80064143942695
 21
-293.3205873394509
 31
0.0
  0
ARC
  5
26AA
330
2E0
100
AcDbEntity
  8
1外形線
100
AcDbCircle
 10
45.86130161120718
 20
-323.6238881983497
 30
0.0
 40
18.37562209971549
100
AcDbArc
 50
0.0
 51
31.70026095241656
  0
LINE
  5
26AB
330
2E0
100
AcDbEntity
  8
1外形線
100
AcDbLine
 10
72.98262195476673
 20
-296.5025678547901
 30
0.0
 11
76.16460247010604
 21
-299.6845483701297
 31
0.0
  0
ARC
  5
26AC
330
2E0
100
AcDbEntity
  8
1外形線
100
AcDbCircle
 10
70.86130161120696
 20
-298.6238881983497
 30
0.0
 40
20.0
100
AcDbArc
 50
45.00000000000806
 51
90.0
  0
LINE
  5
26AD
330
2E0
100
AcDbEntity
  8
1外形線
100
AcDbLine
 10
72.98262195476673
 20
-296.5025678547902
 30
0.0
 11
69.80064143942695
 21
-293.3205873394509
 31
0.0
  0
LINE
  5
26AE
330
2E0
100
AcDbEntity
  8
1外形線
100
AcDbLine
 10
88.53897114087045
 20
-280.946218668686
 30
0.0
 11
85.35699062553112
 21
-277.7642381533468
 31
0.0
  0
LWPOLYLINE
  5
26AF
330
2E0
100
AcDbEntity
  8
1外形線
100
AcDbPolyline
 90
        5
 70
     0
 43
0.0
 10
106.0432821265465
 20
-257.0779466523313
 42
-0.0510992989621341
 10
108.8807894635788
 20
-254.7678903496312
 42
-0.0649481016502022
 10
111.4752626418874
 20
-253.5099271676712
 42
-0.1042029417664566
 10
114.1228135130184
 20
-253.206539638377
 42
-0.1747045211890639
 10
115.5892236725651
 20
-253.8959661369919
 42
-0.1747045211890532
  0
ARC
  5
26B0
330
2E0
100
AcDbEntity
  8
1外形線
100
AcDbCircle
 10
102.8613016112069
 20
-266.6238881983496
 30
0.0
 40
20.0
100
AcDbArc
 50
45.00000000000806
 51
90.0
  0
ARC
  5
26B1
330
2E0
100
AcDbEntity
  8
1外形線
100
AcDbCircle
 10
102.8613016112069
 20
-266.6238881983496
 30
0.0
 40
17.9571942418259
100
AcDbArc
 50
46.54091014257993
 51
90.0
  0
ARC
  5
26B2
330
2E0
100
AcDbEntity
  8
1外形線
100
AcDbCircle
 10
100.0954431778759
 20
-269.3897466316808
 30
0.0
 40
15.0
100
AcDbArc
 50
62.23403659622737
 51
90.0
  0
ARC
  5
26B3
330
2E0
100
AcDbEntity
  8
1外形線
100
AcDbCircle
 10
96.39929734315387
 20
-273.0858924664032
 30
0.0
 40
10.0
100
AcDbArc
 50
71.74368395041003
 51
90.0
  0
LWPOLYLINE
  5
26B4
330
2E0
100
AcDbEntity
  8
1外形線
100
AcDbPolyline
 90
        5
 70
     0
 43
0.0
 10
112.4072431572256
 20
-263.4419076830103
 42
0.0510992989621341
 10
114.7172994599257
 20
-260.604400345978
 42
0.0649481016502022
 10
115.9752626418856
 20
-258.0099271676693
 42
0.1042029417664566
 10
116.2786501711798
 20
-255.3623762965385
 42
0.1747045211890639
 10
115.5892236725651
 20
-253.8959661369919
 42
0.1747045211890532
  0
ARC
  5
26B5
330
2E0
100
AcDbEntity
  8
1外形線
100
AcDbCircle
 10
102.8613016112072
 20
-266.6238881983497
 30
0.0
 40
20.0
100
AcDbArc
 50
0.0
 51
45.00000000000806
  0
ARC
  5
26B6
330
2E0
100
AcDbEntity
  8
1外形線
100
AcDbCircle
 10
102.8613016112072
 20
-266.6238881983497
 30
0.0
 40
17.9571942418259
100
AcDbArc
 50
0.0
 51
43.45908985747533
  0
ARC
  5
26B7
330
2E0
100
AcDbEntity
  8
1外形線
100
AcDbCircle
 10
100.0954431778759
 20
-269.3897466316808
 30
0.0
 40
15.0
100
AcDbArc
 50
0.0
 51
27.7659634037734
  0
LINE
  5
26B8
330
2E0
100
AcDbEntity
  8
1外形線
100
AcDbLine
 10
221.8613016112065
 20
-185.6238881983498
 30
0.0
 11
-180.1386983887931
 21
-185.6238881983498
 31
0.0
  0
LINE
  5
26B9
330
2E0
100
AcDbEntity
  8
1外形線
100
AcDbLine
 10
221.8613016112065
 20
5.376111801650154
 30
0.0
 11
-180.1386983887931
 21
5.376111801650154
 31
0.0
  0
LINE
  5
26BA
330
2E0
100
AcDbEntity
  8
1外形線
100
AcDbLine
 10
221.8613016112065
 20
193.3761118016502
 30
0.0
 11
-180.1386983887931
 21
193.3761118016502
 31
0.0
  0
LINE
  5
26BB
330
2E0
100
AcDbEntity
  8
1外形線
100
AcDbLine
 10
51.43236942307225
 20
-91.41678141716317
 30
0.0
 11
70.40724315722513
 21
-72.44190768301042
 31
0.0
  0
LINE
  5
26BC
330
2E0
100
AcDbEntity
  8
1外形線
100
AcDbLine
 10
81.36130161120673
 20
-147.6238881983496
 30
0.0
 11
55.86130161120673
 21
-147.6238881983496
 31
0.0
  0
LINE
  5
26BD
330
2E0
100
AcDbEntity
  8
1外形線
100
AcDbLine
 10
81.36130161120673
 20
-155.6238881983496
 30
0.0
 11
13.86130161120673
 21
-155.6238881983496
 31
0.0
  0
ARC
  5
26BE
330
2E0
100
AcDbEntity
  8
1外形線
100
AcDbCircle
 10
55.65834070646838
 20
-80.82684910308797
 30
0.0
 40
10.0
100
AcDbArc
 50
71.74368395041003
 51
90.0
  0
LINE
  5
26BF
330
2E0
100
AcDbEntity
  8
1外形線
100
AcDbLine
 10
-11.13869838879327
 20
-62.74591224886069
 30
0.0
 11
58.73927756069566
 21
-62.74591224886069
 31
0.0
  0
LINE
  5
26C0
330
2E0
100
AcDbEntity
  8
1外形線
100
AcDbLine
 10
-11.13869838879327
 20
-57.45917578890964
 30
0.0
 11
60.86130161120673
 21
-57.45917578890964
 31
0.0
  0
LINE
  5
26C1
330
2E0
100
AcDbEntity
  8
1外形線
100
AcDbLine
 10
45.06840839239339
 20
-85.05282038648408
 30
0.0
 11
64.04328212654604
 21
-66.07794665233143
 31
0.0
  0
LINE
  5
26C2
330
2E0
100
AcDbEntity
  8
1外形線
100
AcDbLine
 10
60.86130161120673
 20
-55.62388819834962
 30
0.0
 11
-11.13869838879327
 21
-55.62388819834973
 31
0.0
  0
LINE
  5
26C3
330
2E0
100
AcDbEntity
  8
1外形線
100
AcDbLine
 10
-113.5195299084399
 20
-59.62388819834973
 30
0.0
 11
-65.75786686914625
 21
-59.62388819834973
 31
0.0
  0
LINE
  5
26C4
330
2E0
100
AcDbEntity
  8
1外形線
100
AcDbLine
 10
-104.1386983887931
 20
-57.62388819834973
 30
0.0
 11
-75.13869838879327
 21
-57.62388819834973
 31
0.0
  0
LINE
  5
26C5
330
2E0
100
AcDbEntity
  8
1外形線
100
AcDbLine
 10
-75.13869838879327
 20
-54.62388819834973
 30
0.0
 11
-89.63869838879316
 21
-54.62388819834973
 31
0.0
  0
LINE
  5
26C6
330
2E0
100
AcDbEntity
  8
1外形線
100
AcDbLine
 10
-130.1386983887931
 20
-155.6238881983497
 30
0.0
 11
-49.13869838879327
 21
-155.6238881983497
 31
0.0
  0
LINE
  5
26C7
330
2E0
100
AcDbEntity
  8
1外形線
100
AcDbLine
 10
-65.75786686914625
 20
-118.6238881983497
 30
0.0
 11
-113.5195299084399
 21
-118.6238881983497
 31
0.0
  0
LINE
  5
26C8
330
2E0
100
AcDbEntity
  8
1外形線
100
AcDbLine
 10
-75.13869838879327
 20
-122.6238881983497
 30
0.0
 11
-104.1386983887931
 21
-122.6238881983497
 31
0.0
  0
LINE
  5
26C9
330
2E0
100
AcDbEntity
  8
1外形線
100
AcDbLine
 10
-75.13869838879327
 20
-120.6238881983497
 30
0.0
 11
-104.1386983887931
 21
-120.6238881983497
 31
0.0
  0
LINE
  5
26CA
330
2E0
100
AcDbEntity
  8
1外形線
100
AcDbLine
 10
-118.1386983887931
 20
-115.8721757892443
 30
0.0
 11
-118.1386983887931
 21
-62.375600607455
 31
0.0
  0
LINE
  5
26CB
330
2E0
100
AcDbEntity
  8
1外形線
100
AcDbLine
 10
-130.1386983887931
 20
-96.62388819834973
 30
0.0
 11
-130.1386983887931
 21
-80.62388819834973
 31
0.0
  0
LINE
  5
26CC
330
2E0
100
AcDbEntity
  8
1外形線
100
AcDbLine
 10
-127.1386983887931
 20
-97.62388819834974
 30
0.0
 11
-127.1386983887931
 21
-80.62388819834973
 31
0.0
  0
LINE
  5
26CD
330
2E0
100
AcDbEntity
  8
1外形線
100
AcDbLine
 10
-113.7338364372552
 20
-120.788600607788
 30
0.0
 11
-113.7338364372552
 21
-155.6238881983497
 31
0.0
  0
LINE
  5
26CE
330
2E0
100
AcDbEntity
  8
1外形線
100
AcDbLine
 10
-122.0166743382823
 20
-115.5018641478351
 30
0.0
 11
-122.0166743382823
 21
-155.6238881983497
 31
0.0
  0
LINE
  5
26CF
330
2E0
100
AcDbEntity
  8
1外形線
100
AcDbLine
 10
-130.1386983887931
 20
-96.62388819834973
 30
0.0
 11
-130.1386983887931
 21
-155.6238881983497
 31
0.0
  0
ARC
  5
26D0
330
2E0
100
AcDbEntity
  8
1外形線
100
AcDbCircle
 10
-104.1386983887931
 20
-96.62388819834973
 30
0.0
 40
26.0
100
AcDbArc
 50
180.0
 51
270.0
  0
ARC
  5
26D1
330
2E0
100
AcDbEntity
  8
1外形線
100
AcDbCircle
 10
-104.1386983887931
 20
-97.62388819834974
 30
0.0
 40
23.0
100
AcDbArc
 50
180.0
 51
270.0
  0
ARC
  5
26D2
330
2E0
100
AcDbEntity
  8
1外形線
100
AcDbCircle
 10
-126.2765965105666
 20
-103.1078448970585
 30
0.0
 40
11.0
100
AcDbArc
 50
40.16478531378208
 51
93.09485962887805
  0
ARC
  5
26D3
330
2E0
100
AcDbEntity
  8
1外形線
100
AcDbCircle
 10
-126.2765965105667
 20
-102.4007381158719
 30
0.0
 40
11.0
100
AcDbArc
 50
40.16478531378208
 51
93.09485962887805
  0
LINE
  5
26D4
330
2E0
100
AcDbEntity
  8
1外形線
100
AcDbLine
 10
-128.6386983887931
 20
-86.12388819834984
 30
0.0
 11
-127.1386983887931
 21
-86.12388819834984
 31
0.0
  0
LINE
  5
26D5
330
2E0
100
AcDbEntity
  8
1外形線
100
AcDbLine
 10
-130.1386983887931
 20
-92.12388819834973
 30
0.0
 11
-128.6386983887931
 21
-92.12388819834973
 31
0.0
  0
LINE
  5
26D6
330
2E0
100
AcDbEntity
  8
1外形線
100
AcDbLine
 10
-128.6386983887931
 20
-92.12388819834973
 30
0.0
 11
-128.6386983887931
 21
-86.12388819834984
 31
0.0
  0
TEXT
  5
26D7
330
2E0
100
AcDbEntity
  8
1外形線
100
AcDbText
 10
-130.2137431963207
 20
-24.73592617366307
 30
0.0
 40
10.0
  1
SC-77
  7
KANJI
100
AcDbText
  0
ARC
  5
26D8
330
2E0
100
AcDbEntity
  8
1外形線
100
AcDbCircle
 10
-104.1386983887931
 20
-80.62388819834973
 30
0.0
 40
26.0
100
AcDbArc
 50
90.0
 51
180.0
  0
ARC
  5
26D9
330
2E0
100
AcDbEntity
  8
1外形線
100
AcDbCircle
 10
-104.1386983887931
 20
-80.62388819834973
 30
0.0
 40
23.0
100
AcDbArc
 50
90.0
 51
180.0
  0
LINE
  5
26DA
330
2E0
100
AcDbEntity
  8
1外形線
100
AcDbLine
 10
-104.1386983887931
 20
-54.62388819834973
 30
0.0
 11
-89.63869838879316
 21
-54.62388819834973
 31
0.0
  0
LINE
  5
26DB
330
2E0
100
AcDbEntity
  8
1外形線
100
AcDbLine
 10
-19.13869838879327
 20
-55.12388819834973
 30
0.0
 11
-19.13869838879327
 21
-122.6238881983497
 31
0.0
  0
LINE
  5
26DC
330
2E0
100
AcDbEntity
  8
1外形線
100
AcDbLine
 10
-52.13869838879327
 20
-97.62388819834974
 30
0.0
 11
-52.13869838879327
 21
-80.62388819834973
 31
0.0
  0
LINE
  5
26DD
330
2E0
100
AcDbEntity
  8
1外形線
100
AcDbLine
 10
-49.13869838879327
 20
-96.62388819834973
 30
0.0
 11
-49.13869838879327
 21
-80.62388819834973
 31
0.0
  0
LINE
  5
26DE
330
2E0
100
AcDbEntity
  8
1外形線
100
AcDbLine
 10
-61.13869838879328
 20
-115.8721757892443
 30
0.0
 11
-61.13869838879328
 21
-62.375600607455
 31
0.0
  0
LINE
  5
26DF
330
2E0
100
AcDbEntity
  8
1外形線
100
AcDbLine
 10
-19.13869838879327
 20
-115.5018641478389
 30
0.0
 11
11.86130161120672
 21
-115.5018641478389
 31
0.0
  0
LINE
  5
26E0
330
2E0
100
AcDbEntity
  8
1外形線
100
AcDbLine
 10
-19.13869838879327
 20
-120.78860060779
 30
0.0
 11
11.86130161120672
 21
-120.78860060779
 31
0.0
  0
LINE
  5
26E1
330
2E0
100
AcDbEntity
  8
1外形線
100
AcDbLine
 10
-19.13869838879327
 20
-92.12388819834973
 30
0.0
 11
8.861301611206727
 21
-92.12388819834973
 31
0.0
  0
LINE
  5
26E2
330
2E0
100
AcDbEntity
  8
1外形線
100
AcDbLine
 10
-19.13869838879327
 20
-122.6238881983497
 30
0.0
 11
11.86130161120672
 21
-122.6238881983497
 31
0.0
  0
LINE
  5
26E3
330
2E0
100
AcDbEntity
  8
1外形線
100
AcDbLine
 10
-57.26072243930412
 20
-115.5018641478351
 30
0.0
 11
-57.26072243930412
 21
-155.6238881983497
 31
0.0
  0
LINE
  5
26E4
330
2E0
100
AcDbEntity
  8
1外形線
100
AcDbLine
 10
-65.54356034033117
 20
-120.788600607788
 30
0.0
 11
-65.54356034033117
 21
-155.6238881983497
 31
0.0
  0
LINE
  5
26E5
330
2E0
100
AcDbEntity
  8
1外形線
100
AcDbLine
 10
-49.13869838879327
 20
-155.6238881983497
 30
0.0
 11
-49.13869838879327
 21
-96.62388819834973
 31
0.0
  0
ARC
  5
26E6
330
2E0
100
AcDbEntity
  8
1外形線
100
AcDbCircle
 10
-75.13869838879327
 20
-96.62388819834973
 30
0.0
 40
26.0
100
AcDbArc
 50
270.0
 51
0.0
  0
ARC
  5
26E7
330
2E0
100
AcDbEntity
  8
1外形線
100
AcDbCircle
 10
-75.13869838879327
 20
-97.62388819834974
 30
0.0
 40
23.0
100
AcDbArc
 50
270.0
 51
0.0
  0
ARC
  5
26E8
330
2E0
100
AcDbEntity
  8
1外形線
100
AcDbCircle
 10
-53.00080026701948
 20
-103.1078448970585
 30
0.0
 40
11.0
100
AcDbArc
 50
86.90514037112196
 51
139.8352146862179
  0
ARC
  5
26E9
330
2E0
100
AcDbEntity
  8
1外形線
100
AcDbCircle
 10
-53.00080026701948
 20
-102.4007381158719
 30
0.0
 40
11.0
100
AcDbArc
 50
86.90514037112196
 51
139.8352146862179
  0
LINE
  5
26EA
330
2E0
100
AcDbEntity
  8
1外形線
100
AcDbLine
 10
-50.63869838879305
 20
-86.12388819834984
 30
0.0
 11
-52.13869838879304
 21
-86.12388819834984
 31
0.0
  0
LINE
  5
26EB
330
2E0
100
AcDbEntity
  8
1外形線
100
AcDbLine
 10
-49.13869838879304
 20
-92.12388819834973
 30
0.0
 11
-50.63869838879305
 21
-92.12388819834973
 31
0.0
  0
LINE
  5
26EC
330
2E0
100
AcDbEntity
  8
1外形線
100
AcDbLine
 10
-50.63869838879305
 20
-92.12388819834973
 30
0.0
 11
-50.63869838879305
 21
-86.12388819834984
 31
0.0
  0
LINE
  5
26ED
330
2E0
100
AcDbEntity
  8
1外形線
100
AcDbLine
 10
13.86130161120673
 20
-155.6238881983496
 30
0.0
 11
13.86130161120673
 21
-124.6238881983497
 31
0.0
  0
LINE
  5
26EE
330
2E0
100
AcDbEntity
  8
1外形線
100
AcDbLine
 10
44.36130161120672
 20
-155.6238881983496
 30
0.0
 11
44.36130161120672
 21
-127.6238881983498
 31
0.0
  0
LINE
  5
26EF
330
2E0
100
AcDbEntity
  8
1外形線
100
AcDbLine
 10
20.98332566171757
 20
-155.6238881983496
 30
0.0
 11
20.98332566171757
 21
-124.6238881983496
 31
0.0
  0
LINE
  5
26F0
330
2E0
100
AcDbEntity
  8
1外形線
100
AcDbLine
 10
15.69658920176653
 20
-155.6238881983496
 30
0.0
 11
15.69658920176653
 21
-124.6238881983496
 31
0.0
  0
LWPOLYLINE
  5
26F1
330
2E0
100
AcDbEntity
  8
1外形線
100
AcDbPolyline
 90
        5
 70
     0
 43
0.0
 10
20.18898603830098
 20
-116.2962037712556
 42
0.1747045211890497
 10
21.6553961978475
 20
-116.9856302698705
 42
0.1042029417664594
 10
24.30294706897849
 20
-116.6822427405764
 42
0.0649481016501909
 10
26.89742024728685
 20
-115.4242795586162
 42
0.0510992989621213
 10
29.73492758431916
 20
-113.1142232559161
 42
0.0510992989621184
  0
LINE
  5
26F2
330
2E0
100
AcDbEntity
  8
1外形線
100
AcDbLine
 10
14.86130161120672
 20
-86.12388819834984
 30
0.0
 11
30.36130161120673
 21
-86.12388819834961
 31
0.0
  0
LWPOLYLINE
  5
26F3
330
2E0
100
AcDbEntity
  8
1外形線
100
AcDbPolyline
 90
        5
 70
     0
 43
0.0
 10
20.18898603830075
 20
-116.2962037712556
 42
-0.1747045211890497
 10
19.49955953968583
 20
-114.8297936117091
 42
-0.1042029417664594
 10
19.80294706898007
 20
-112.1822427405779
 42
-0.0649481016501909
 10
21.06091025094043
 20
-109.5877695622695
 42
-0.0510992989621213
 10
23.3709665536403
 20
-106.7502622252372
 42
-0.0510992989621184
  0
ARC
  5
26F4
330
2E0
100
AcDbEntity
  8
1外形線
100
AcDbCircle
 10
11.86130161120672
 20
-124.6238881983497
 30
0.0
 40
3.835287590559672
100
AcDbArc
 50
0.0
 51
45.00000000000806
  0
ARC
  5
26F5
330
2E0
100
AcDbEntity
  8
1外形線
100
AcDbCircle
 10
11.86130161120672
 20
-124.6238881983497
 30
0.0
 40
9.122024050510887
100
AcDbArc
 50
44.99999999999194
 51
90.0
  0
ARC
  5
26F6
330
2E0
100
AcDbEntity
  8
1外形線
100
AcDbCircle
 10
11.86130161120672
 20
-124.6238881983497
 30
0.0
 40
3.835287590559672
100
AcDbArc
 50
44.99999999999194
 51
90.0
  0
ARC
  5
26F7
330
2E0
100
AcDbEntity
  8
1外形線
100
AcDbCircle
 10
11.86130161120672
 20
-124.6238881983497
 30
0.0
 40
2.0
100
AcDbArc
 50
0.0
 51
45.00000000000806
  0
ARC
  5
26F8
330
2E0
100
AcDbEntity
  8
1外形線
100
AcDbCircle
 10
11.86130161120672
 20
-124.6238881983497
 30
0.0
 40
2.0
100
AcDbArc
 50
44.99999999999194
 51
90.0
  0
ARC
  5
26F9
330
2E0
100
AcDbEntity
  8
1外形線
100
AcDbCircle
 10
11.86130161120672
 20
-124.6238881983497
 30
0.0
 40
9.122024050510887
100
AcDbArc
 50
0.0
 51
45.00000000000806
  0
LINE
  5
26FA
330
2E0
100
AcDbEntity
  8
1外形線
100
AcDbLine
 10
8.861301611206727
 20
-92.12388819834973
 30
0.0
 11
14.86130161120672
 21
-86.12388819834984
 31
0.0
  0
LINE
  5
26FB
330
2E0
100
AcDbEntity
  8
1外形線
100
AcDbLine
 10
50.36130161120673
 20
-121.6238881983497
 30
0.0
 11
50.36130161120673
 21
-106.1238881983497
 31
0.0
  0
LINE
  5
26FC
330
2E0
100
AcDbEntity
  8
1外形線
100
AcDbLine
 10
44.36130161120672
 20
-127.6238881983498
 30
0.0
 11
50.36130161120673
 21
-121.6238881983497
 31
0.0
  0
ARC
  5
26FD
330
2E0
100
AcDbEntity
  8
1外形線
100
AcDbCircle
 10
30.36130161120673
 20
-106.1238881983496
 30
0.0
 40
20.0
100
AcDbArc
 50
45.00000000000806
 51
90.0
  0
LINE
  5
26FE
330
2E0
100
AcDbEntity
  8
1外形線
100
AcDbLine
 10
29.73492758431916
 20
-113.1142232559162
 30
0.0
 11
35.87602023696832
 21
-106.9731306032671
 31
0.0
  0
LINE
  5
26FF
330
2E0
100
AcDbEntity
  8
1外形線
100
AcDbLine
 10
32.69403972162877
 20
-103.7911500879277
 30
0.0
 11
29.51205920628922
 21
-100.6091695725882
 31
0.0
  0
LINE
  5
2700
330
2E0
100
AcDbEntity
  8
1外形線
100
AcDbLine
 10
23.37096655364007
 20
-106.7502622252372
 30
0.0
 11
29.51205920628922
 21
-100.6091695725881
 31
0.0
  0
LINE
  5
2701
330
2E0
100
AcDbEntity
  8
1外形線
100
AcDbLine
 10
32.69403972162877
 20
-103.7911500879277
 30
0.0
 11
35.87602023696809
 21
-106.9731306032671
 31
0.0
  0
ARC
  5
2702
330
2E0
100
AcDbEntity
  8
1外形線
100
AcDbCircle
 10
30.36130161120673
 20
-106.1238881983496
 30
0.0
 40
20.0
100
AcDbArc
 50
0.0
 51
45.00000000000806
  0
LINE
  5
2703
330
2E0
100
AcDbEntity
  8
1外形線
100
AcDbLine
 10
48.25038890773294
 20
-88.23480090182362
 30
0.0
 11
51.43236942307225
 21
-91.41678141716329
 31
0.0
  0
LINE
  5
2704
330
2E0
100
AcDbEntity
  8
1外形線
100
AcDbLine
 10
48.25038890773271
 20
-88.23480090182352
 30
0.0
 11
45.06840839239316
 21
-85.05282038648408
 31
0.0
  0
LINE
  5
2705
330
2E0
100
AcDbEntity
  8
1外形線
100
AcDbLine
 10
-11.13869838879327
 20
-70.82684910308796
 30
0.0
 11
55.65834070646838
 21
-70.82684910308796
 31
0.0
  0
ARC
  5
2706
330
2E0
100
AcDbEntity
  8
1外形線
100
AcDbCircle
 10
-11.63869838879327
 20
-55.12388819834973
 30
0.0
 40
0.5
100
AcDbArc
 50
0.0
 51
90.0
  0
ARC
  5
2707
330
2E0
100
AcDbEntity
  8
1外形線
100
AcDbCircle
 10
-75.13869838879327
 20
-80.62388819834973
 30
0.0
 40
26.0
100
AcDbArc
 50
0.0
 51
90.0
  0
ARC
  5
2708
330
2E0
100
AcDbEntity
  8
1外形線
100
AcDbCircle
 10
-75.13869838879327
 20
-80.62388819834973
 30
0.0
 40
23.0
100
AcDbArc
 50
0.0
 51
90.0
  0
LWPOLYLINE
  5
2709
330
2E0
100
AcDbEntity
  8
1外形線
100
AcDbPolyline
 90
        4
 70
     0
 43
0.0
 10
-75.13869838879327
 20
-57.62388819834973
 10
-75.13869838879327
 20
-57.62388819834973
 10
-75.13869838879327
 20
-57.62388819834973
 10
-75.13869838879327
 20
-57.62388819834973
  0
LINE
  5
270A
330
2E0
100
AcDbEntity
  8
1外形線
100
AcDbLine
 10
-11.13869838879327
 20
-55.12388819834973
 30
0.0
 11
-11.13869838879327
 21
-80.62388819834973
 31
0.0
  0
ARC
  5
270B
330
2E0
100
AcDbEntity
  8
1外形線
100
AcDbCircle
 10
-18.63869838879327
 20
-55.12388819834973
 30
0.0
 40
0.5
100
AcDbArc
 50
90.0
 51
180.0
  0
LINE
  5
270C
330
2E0
100
AcDbEntity
  8
1外形線
100
AcDbLine
 10
-18.63869838879327
 20
-54.62388819834973
 30
0.0
 11
-11.63869838879327
 21
-54.62388819834973
 31
0.0
  0
TEXT
  5
270D
330
2E0
100
AcDbEntity
  8
1外形線
100
AcDbText
 10
-130.2137431963207
 20
163.2640738263369
 30
0.0
 40
10.0
  1
SC-66
  7
KANJI
100
AcDbText
  0
LINE
  5
270E
330
2E0
100
AcDbEntity
  8
1外形線
100
AcDbLine
 10
80.86130161120673
 20
-75.62388819834973
 30
0.0
 11
80.86130161120673
 21
-147.6238881983496
 31
0.0
  0
LINE
  5
270F
330
2E0
100
AcDbEntity
  8
1外形線
100
AcDbLine
 10
79.02601402064693
 20
-147.6238881983496
 30
0.0
 11
79.02601402064693
 21
-75.62388819834973
 31
0.0
  0
LINE
  5
2710
330
2E0
100
AcDbEntity
  8
1外形線
100
AcDbLine
 10
65.65834070646861
 20
-147.6238881983496
 30
0.0
 11
65.65834070646838
 21
-80.82684910308797
 31
0.0
  0
LINE
  5
2711
330
2E0
100
AcDbEntity
  8
1外形線
100
AcDbLine
 10
73.73927756069566
 20
-147.6238881983497
 30
0.0
 11
73.73927756069566
 21
-77.74591224886069
 31
0.0
  0
ARC
  5
2712
330
2E0
100
AcDbEntity
  8
1外形線
100
AcDbCircle
 10
81.36130161120673
 20
-148.1238881983496
 30
0.0
 40
0.5
100
AcDbArc
 50
0.0
 51
90.0
  0
LINE
  5
2713
330
2E0
100
AcDbEntity
  8
1外形線
100
AcDbLine
 10
81.86130161120672
 20
-155.1238881983496
 30
0.0
 11
81.86130161120672
 21
-148.1238881983496
 31
0.0
  0
ARC
  5
2714
330
2E0
100
AcDbEntity
  8
1外形線
100
AcDbCircle
 10
81.36130161120673
 20
-155.1238881983496
 30
0.0
 40
0.5
100
AcDbArc
 50
270.0
 51
0.0
  0
ARC
  5
2715
330
2E0
100
AcDbEntity
  8
1外形線
100
AcDbCircle
 10
60.86130161120673
 20
-75.62388819834973
 30
0.0
 40
18.16471240944007
100
AcDbArc
 50
0.0
 51
45.00000000000806
  0
ARC
  5
2716
330
2E0
100
AcDbEntity
  8
1外形線
100
AcDbCircle
 10
60.86130161120673
 20
-75.62388819834962
 30
0.0
 40
20.0
100
AcDbArc
 50
45.00000000000806
 51
90.0
  0
LWPOLYLINE
  5
2717
330
2E0
100
AcDbEntity
  8
1外形線
100
AcDbPolyline
 90
        5
 70
     0
 43
0.0
 10
70.40724315722513
 20
-72.44190768301007
 42
0.0510992989621341
 10
72.71729945992524
 20
-69.60440034597787
 42
0.0649481016502022
 10
73.97526264188513
 20
-67.00992716766939
 42
0.1042029417664566
 10
74.2786501711796
 20
-64.36237629653851
 42
0.1747045211890639
 10
73.58922367256468
 20
-62.89596613699188
 42
0.1747045211890532
  0
ARC
  5
2718
330
2E0
100
AcDbEntity
  8
1外形線
100
AcDbCircle
 10
55.65834070646838
 20
-80.82684910308797
 30
0.0
 40
10.0
100
AcDbArc
 50
0.0
 51
18.25631604959616
  0
ARC
  5
2719
330
2E0
100
AcDbEntity
  8
1外形線
100
AcDbCircle
 10
58.73927756069566
 20
-77.74591224886069
 30
0.0
 40
15.0
100
AcDbArc
 50
0.0
 51
28.16323111704397
  0
ARC
  5
271A
330
2E0
100
AcDbEntity
  8
1外形線
100
AcDbCircle
 10
60.86130161120673
 20
-75.62388819834962
 30
0.0
 40
18.16471240944007
100
AcDbArc
 50
45.00000000000806
 51
90.0
  0
LWPOLYLINE
  5
271B
330
2E0
100
AcDbEntity
  8
1外形線
100
AcDbPolyline
 90
        5
 70
     0
 43
0.0
 10
64.04328212654627
 20
-66.07794665233109
 42
-0.0510992989621341
 10
66.88078946357859
 20
-63.76789034963121
 42
-0.0649481016502022
 10
69.47526264188718
 20
-62.50992716767121
 42
-0.1042029417664566
 10
72.12281351301794
 20
-62.20653963837708
 42
-0.1747045211890639
 10
73.58922367256468
 20
-62.89596613699188
 42
-0.1747045211890532
  0
ARC
  5
271C
330
2E0
100
AcDbEntity
  8
1外形線
100
AcDbCircle
 10
58.73927756069566
 20
-77.74591224886069
 30
0.0
 40
15.0
100
AcDbArc
 50
61.83676888295372
 51
90.0
  0
ARC
  5
271D
330
2E0
100
AcDbEntity
  8
1外形線
100
AcDbCircle
 10
60.86130161120673
 20
-75.62388819834973
 30
0.0
 40
20.0
100
AcDbArc
 50
0.0
 51
45.00000000000806
  0
LINE
  5
271E
330
2E0
100
AcDbEntity
  8
1外形線
100
AcDbLine
 10
-122.3092954358654
 20
79.70551475457807
 30
0.0
 11
-122.3092954358654
 21
36.87611180165038
 31
0.0
  0
LINE
  5
271F
330
2E0
100
AcDbEntity
  8
1外形線
100
AcDbLine
 10
-114.3511098878378
 20
74.63538301849325
 30
0.0
 11
-114.3511098878378
 21
36.87611180165038
 31
0.0
  0
LINE
  5
2720
330
2E0
100
AcDbEntity
  8
1外形線
100
AcDbLine
 10
-79.92628688974855
 20
74.63538301849325
 30
0.0
 11
-79.92628688974855
 21
36.87611180165038
 31
0.0
  0
LINE
  5
2721
330
2E0
100
AcDbEntity
  8
1外形線
100
AcDbLine
 10
-71.96810134172096
 20
79.70551475457785
 30
0.0
 11
-71.96810134172086
 21
36.87611180165038
 31
0.0
  0
LINE
  5
2722
330
2E0
100
AcDbEntity
  8
1外形線
100
AcDbLine
 10
-64.13869838879316
 20
97.37611180165039
 30
0.0
 11
-64.13869838879316
 21
36.87611180165038
 31
0.0
  0
LINE
  5
2723
330
2E0
100
AcDbEntity
  8
1外形線
100
AcDbLine
 10
-130.1386983887931
 20
97.37611180165039
 30
0.0
 11
-130.1386983887931
 21
36.87611180165038
 31
0.0
  0
LINE
  5
2724
330
2E0
100
AcDbEntity
  8
1外形線
100
AcDbLine
 10
-64.13869838879316
 20
36.87611180165038
 30
0.0
 11
-97.13869838879316
 21
36.87611180165038
 31
0.0
  0
LINE
  5
2725
330
2E0
100
AcDbEntity
  8
1外形線
100
AcDbLine
 10
-130.1386983887931
 20
36.87611180165038
 30
0.0
 11
-97.13869838879316
 21
36.87611180165038
 31
0.0
  0
ARC
  5
2726
330
2E0
100
AcDbEntity
  8
1外形線
100
AcDbCircle
 10
-88.71664472846326
 20
109.3021667098951
 30
0.0
 40
21.57807303987725
100
AcDbArc
 50
0.1963451489753922
 51
91.12074120615128
  0
ARC
  5
2727
330
2E0
100
AcDbEntity
  8
1外形線
100
AcDbCircle
 10
-88.71607848686334
 20
109.3022545587217
 30
0.0
 40
24.57749107165638
100
AcDbArc
 50
0.1721784645543426
 51
90.98527266665794
  0
ARC
  5
2728
330
2E0
100
AcDbEntity
  8
1外形線
100
AcDbCircle
 10
-88.71664472846321
 20
96.45005689340599
 30
0.0
 40
21.57807303987717
100
AcDbArc
 50
268.8792587938487
 51
359.8036548510246
  0
ARC
  5
2729
330
2E0
100
AcDbEntity
  8
1外形線
100
AcDbCircle
 10
-88.71607848686329
 20
97.44996904457913
 30
0.0
 40
24.57749107165637
100
AcDbArc
 50
269.0147273333404
 51
359.8278215354457
  0
LINE
  5
272A
330
2E0
100
AcDbEntity
  8
1外形線
100
AcDbLine
 10
-118.1386983887931
 20
79.12787245235154
 30
0.0
 11
-118.1386983887932
 21
126.6243511509492
 31
0.0
  0
LINE
  5
272B
330
2E0
100
AcDbEntity
  8
1外形線
100
AcDbLine
 10
-130.1386983887931
 20
97.37611180165039
 30
0.0
 11
-130.1386983887931
 21
109.3761118016504
 31
0.0
  0
LINE
  5
272C
330
2E0
100
AcDbEntity
  8
1外形線
100
AcDbLine
 10
-127.1386983887931
 20
96.37611180165061
 30
0.0
 11
-127.1386983887931
 21
109.3761118016504
 31
0.0
  0
ARC
  5
272D
330
2E0
100
AcDbEntity
  8
1外形線
100
AcDbCircle
 10
-105.561318290723
 20
97.44996904457913
 30
0.0
 40
24.57749107165632
100
AcDbArc
 50
180.1721784645543
 51
270.9852726666579
  0
ARC
  5
272E
330
2E0
100
AcDbEntity
  8
1外形線
100
AcDbCircle
 10
-105.5607520491231
 20
96.45005689340599
 30
0.0
 40
21.57807303987719
100
AcDbArc
 50
180.1963451489753
 51
271.1207412061512
  0
LINE
  5
272F
330
2E0
100
AcDbEntity
  8
1外形線
100
AcDbLine
 10
-97.13869838879316
 20
76.87611180165061
 30
0.0
 11
-114.3038497787049
 21
76.87611180165061
 31
0.0
  0
ARC
  5
2730
330
2E0
100
AcDbEntity
  8
1外形線
100
AcDbCircle
 10
-126.2765965105667
 20
88.89215510294162
 30
0.0
 40
11.0
100
AcDbArc
 50
42.28485895571206
 51
94.49504598037812
  0
ARC
  5
2731
330
2E0
100
AcDbEntity
  8
1外形線
100
AcDbCircle
 10
-126.2765965105669
 20
89.59926188412794
 30
0.0
 40
11.0
100
AcDbArc
 50
42.28485895570395
 51
94.49504598037812
  0
LINE
  5
2732
330
2E0
100
AcDbEntity
  8
1外形線
100
AcDbLine
 10
-128.6386983887932
 20
105.8761118016502
 30
0.0
 11
-127.1386983887933
 21
105.8761118016502
 31
0.0
  0
LINE
  5
2733
330
2E0
100
AcDbEntity
  8
1外形線
100
AcDbLine
 10
-130.1386983887933
 20
99.87611180165027
 30
0.0
 11
-128.6386983887932
 21
99.87611180165027
 31
0.0
  0
LINE
  5
2734
330
2E0
100
AcDbEntity
  8
1外形線
100
AcDbLine
 10
-128.6386983887932
 20
99.87611180165027
 30
0.0
 11
-128.6386983887932
 21
105.8761118016502
 31
0.0
  0
LINE
  5
2735
330
2E0
100
AcDbEntity
  8
1外形線
100
AcDbLine
 10
-97.13869838879316
 20
72.87611180165038
 30
0.0
 11
-89.13869838879316
 21
72.87611180165038
 31
0.0
  0
LINE
  5
2736
330
2E0
100
AcDbEntity
  8
1外形線
100
AcDbLine
 10
-97.13869838879316
 20
74.87611180165038
 30
0.0
 11
-89.13869838879316
 21
74.8761118016506
 31
0.0
  0
LINE
  5
2737
330
2E0
100
AcDbEntity
  8
1外形線
100
AcDbLine
 10
-97.13869838879316
 20
72.87611180165038
 30
0.0
 11
-105.1386983887931
 21
72.87611180165038
 31
0.0
  0
LINE
  5
2738
330
2E0
100
AcDbEntity
  8
1外形線
100
AcDbLine
 10
-97.13869838879316
 20
74.87611180165038
 30
0.0
 11
-105.1386983887931
 21
74.8761118016506
 31
0.0
  0
LINE
  5
2739
330
2E0
100
AcDbEntity
  8
1外形線
100
AcDbLine
 10
-97.13869838879316
 20
76.87611180165061
 30
0.0
 11
-79.97354699888126
 21
76.87611180165061
 31
0.0
  0
ARC
  5
273A
330
2E0
100
AcDbEntity
  8
1外形線
100
AcDbCircle
 10
-105.5613182907229
 20
109.3022545587217
 30
0.0
 40
24.57749107165636
100
AcDbArc
 50
89.01472733334207
 51
179.8278215354456
  0
ARC
  5
273B
330
2E0
100
AcDbEntity
  8
1外形線
100
AcDbCircle
 10
-105.5607520491229
 20
109.302166709895
 30
0.0
 40
21.57807303987728
100
AcDbArc
 50
88.87925879384871
 51
179.8036548510246
  0
LINE
  5
273C
330
2E0
100
AcDbEntity
  8
1外形線
100
AcDbLine
 10
-114.3038497787049
 20
128.8761118016505
 30
0.0
 11
-97.13869838879311
 21
128.8761118016505
 31
0.0
  0
LINE
  5
273D
330
2E0
100
AcDbEntity
  8
1外形線
100
AcDbLine
 10
-89.13869838879312
 20
133.8761118016505
 30
0.0
 11
-97.13869838879311
 21
133.8761118016505
 31
0.0
  0
LINE
  5
273E
330
2E0
100
AcDbEntity
  8
1外形線
100
AcDbLine
 10
-89.13869838879312
 20
130.8761118016503
 30
0.0
 11
-97.13869838879311
 21
130.8761118016503
 31
0.0
  0
LINE
  5
273F
330
2E0
100
AcDbEntity
  8
1外形線
100
AcDbLine
 10
-79.97354699888133
 20
128.8761118016505
 30
0.0
 11
-97.13869838879311
 21
128.8761118016505
 31
0.0
  0
LINE
  5
2740
330
2E0
100
AcDbEntity
  8
1外形線
100
AcDbLine
 10
-105.1386983887931
 20
133.8761118016505
 30
0.0
 11
-97.13869838879311
 21
133.8761118016505
 31
0.0
  0
LINE
  5
2741
330
2E0
100
AcDbEntity
  8
1外形線
100
AcDbLine
 10
-105.1386983887931
 20
130.8761118016503
 30
0.0
 11
-97.13869838879311
 21
130.8761118016503
 31
0.0
  0
LINE
  5
2742
330
2E0
100
AcDbEntity
  8
1外形線
100
AcDbLine
 10
-67.13869838879316
 20
96.37611180165061
 30
0.0
 11
-67.13869838879316
 21
109.3761118016504
 31
0.0
  0
LINE
  5
2743
330
2E0
100
AcDbEntity
  8
1外形線
100
AcDbLine
 10
-64.13869838879316
 20
97.37611180165039
 30
0.0
 11
-64.13869838879316
 21
109.3761118016504
 31
0.0
  0
LINE
  5
2744
330
2E0
100
AcDbEntity
  8
1外形線
100
AcDbLine
 10
-76.13869838879316
 20
79.12787245235154
 30
0.0
 11
-76.13869838879312
 21
126.6243511509492
 31
0.0
  0
ARC
  5
2745
330
2E0
100
AcDbEntity
  8
1外形線
100
AcDbCircle
 10
-68.00080026701937
 20
89.59926188412794
 30
0.0
 40
11.0
100
AcDbArc
 50
85.50495401962189
 51
137.715141044296
  0
ARC
  5
2746
330
2E0
100
AcDbEntity
  8
1外形線
100
AcDbCircle
 10
-68.0008002670196
 20
88.89215510294162
 30
0.0
 40
11.0
100
AcDbArc
 50
85.50495401962189
 51
137.7151410442879
  0
LINE
  5
2747
330
2E0
100
AcDbEntity
  8
1外形線
100
AcDbLine
 10
-65.63869838879316
 20
105.8761118016502
 30
0.0
 11
-67.13869838879316
 21
105.8761118016502
 31
0.0
  0
LINE
  5
2748
330
2E0
100
AcDbEntity
  8
1外形線
100
AcDbLine
 10
-64.13869838879316
 20
99.87611180165027
 30
0.0
 11
-65.63869838879316
 21
99.87611180165027
 31
0.0
  0
LINE
  5
2749
330
2E0
100
AcDbEntity
  8
1外形線
100
AcDbLine
 10
-65.63869838879316
 20
99.87611180165027
 30
0.0
 11
-65.63869838879316
 21
105.8761118016502
 31
0.0
  0
ARC
  5
274B
330
2E0
100
AcDbEntity
  8
1外形線
100
AcDbCircle
 10
42.36130161120661
 20
111.8761120104283
 30
0.0
 40
20.0
100
AcDbArc
 50
0.0
 51
45.0
  0
ARC
  5
274C
330
2E0
100
AcDbEntity
  8
1外形線
100
AcDbCircle
 10
42.36130161120661
 20
111.8761120104283
 30
0.0
 40
18.24072878315701
100
AcDbArc
 50
0.0
 51
45.0
  0
LINE
  5
274D
330
2E0
100
AcDbEntity
  8
1外形線
100
AcDbLine
 10
62.86130161120673
 20
43.37611201042818
 30
0.0
 11
38.36130161120662
 21
43.37611201042818
 31
0.0
  0
LINE
  5
274E
330
2E0
100
AcDbEntity
  8
1外形線
100
AcDbLine
 10
62.86130161120673
 20
35.3761120104283
 30
0.0
 11
2.361301611203771
 21
35.37611201042841
 31
0.0
  0
ARC
  5
274F
330
2E0
100
AcDbEntity
  8
1外形線
100
AcDbCircle
 10
42.36130161120661
 20
111.8761120104285
 30
0.0
 40
20.0
100
AcDbArc
 50
45.0
 51
90.0
  0
LINE
  5
2750
330
2E0
100
AcDbEntity
  8
1外形線
100
AcDbLine
 10
9.190704564132232
 20
35.37611201042841
 30
0.0
 11
9.190704564133511
 21
69.87611201042705
 31
0.0
  0
LINE
  5
2751
330
2E0
100
AcDbEntity
  8
1外形線
100
AcDbLine
 10
4.120572828047528
 20
35.37611201042841
 30
0.0
 11
4.120572828048807
 21
69.87611201042762
 31
0.0
  0
LINE
  5
2752
330
2E0
100
AcDbEntity
  8
1外形線
100
AcDbLine
 10
29.36130161120582
 20
35.37611201042841
 30
0.0
 11
29.36130161120593
 21
63.37611201042853
 31
0.0
  0
LINE
  5
2753
330
2E0
100
AcDbEntity
  8
1外形線
100
AcDbLine
 10
2.361301611203771
 20
35.37611201042841
 30
0.0
 11
2.361301611205135
 21
69.87611201042807
 31
0.0
  0
LINE
  5
2754
330
2E0
100
AcDbEntity
  8
1外形線
100
AcDbLine
 10
-34.13869838879327
 20
73.63538322727118
 30
0.0
 11
0.3613016112051355
 21
73.63538322727118
 31
0.0
  0
LINE
  5
2755
330
2E0
100
AcDbEntity
  8
1外形線
100
AcDbLine
 10
-34.13869838879327
 20
78.70551496335576
 30
0.0
 11
0.3613016112051355
 21
78.70551496335576
 31
0.0
  0
LINE
  5
2756
330
2E0
100
AcDbEntity
  8
1外形線
100
AcDbLine
 10
-34.13869838879327
 20
71.8761120104283
 30
0.0
 11
0.3613016112051355
 21
71.8761120104283
 31
0.0
  0
LINE
  5
2757
330
2E0
100
AcDbEntity
  8
1外形線
100
AcDbLine
 10
-26.1386983887933
 20
117.2902161633569
 30
0.0
 11
37.77540576413549
 21
117.2902161633569
 31
0.0
  0
LINE
  5
2758
330
2E0
100
AcDbEntity
  8
1外形線
100
AcDbLine
 10
-26.13869838879336
 20
125.0467090575005
 30
0.0
 11
40.53189865827881
 21
125.0467090575005
 31
0.0
  0
LINE
  5
2759
330
2E0
100
AcDbEntity
  8
1外形線
100
AcDbLine
 10
-26.13869838879339
 20
130.1168407935854
 30
0.0
 11
42.36130161120661
 21
130.1168407935854
 31
0.0
  0
LINE
  5
275A
330
2E0
100
AcDbEntity
  8
1外形線
100
AcDbLine
 10
42.36130161120661
 20
131.8761120104285
 30
0.0
 11
-26.13869838879339
 21
131.8761120104283
 31
0.0
  0
LINE
  5
275B
330
2E0
100
AcDbEntity
  8
1外形線
100
AcDbLine
 10
-34.13869838879327
 20
98.87611201042819
 30
0.0
 11
-6.138698388793386
 21
98.87611201042819
 31
0.0
  0
LINE
  5
275C
330
2E0
100
AcDbEntity
  8
1外形線
100
AcDbLine
 10
-34.13869838879339
 20
132.3761120104283
 30
0.0
 11
-34.13869838879327
 21
71.8761120104283
 31
0.0
  0
LINE
  5
275D
330
2E0
100
AcDbEntity
  8
1外形線
100
AcDbLine
 10
-33.63869838879339
 20
132.8761120104283
 30
0.0
 11
-26.63869838879339
 21
132.8761120104283
 31
0.0
  0
ARC
  5
275E
330
2E0
100
AcDbEntity
  8
1外形線
100
AcDbCircle
 10
-33.63869838879339
 20
132.3761120104283
 30
0.0
 40
0.5
100
AcDbArc
 50
90.0
 51
180.0
  0
LINE
  5
275F
330
2E0
100
AcDbEntity
  8
1外形線
100
AcDbLine
 10
-26.13869838879339
 20
132.3761120104283
 30
0.0
 11
-26.13869838879328
 21
107.8761120104283
 31
0.0
  0
ARC
  5
2760
330
2E0
100
AcDbEntity
  8
1外形線
100
AcDbCircle
 10
-26.63869838879339
 20
132.3761120104283
 30
0.0
 40
0.5
100
AcDbArc
 50
0.0
 51
90.0
  0
ARC
  5
2761
330
2E0
100
AcDbEntity
  8
1外形線
100
AcDbCircle
 10
15.36130161120661
 20
84.87611201042808
 30
0.0
 40
20.0
100
AcDbArc
 50
45.0
 51
90.0
  0
LINE
  5
2762
330
2E0
100
AcDbEntity
  8
1外形線
100
AcDbLine
 10
55.53189865827881
 20
43.37611201042818
 30
0.0
 11
55.53189865827881
 21
110.0467090575005
 31
0.0
  0
LINE
  5
2763
330
2E0
100
AcDbEntity
  8
1外形線
100
AcDbLine
 10
47.77540576413549
 20
43.37611201042818
 30
0.0
 11
47.77540576413525
 21
107.2902161633569
 31
0.0
  0
LINE
  5
2764
330
2E0
100
AcDbEntity
  8
1外形線
100
AcDbLine
 10
35.72095165620954
 20
98.87180102475225
 30
0.0
 11
51.90724315722502
 21
115.0580925257677
 31
0.0
  0
LINE
  5
2765
330
2E0
100
AcDbEntity
  8
1外形線
100
AcDbLine
 10
32.53897114087022
 20
102.053781540092
 30
0.0
 11
29.35699062553079
 21
105.2357620554312
 31
0.0
  0
ARC
  5
2766
330
2E0
100
AcDbEntity
  8
1外形線
100
AcDbCircle
 10
0.3613016112058176
 20
69.87611201042773
 30
0.0
 40
8.82940295292758
100
AcDbArc
 50
0.0
 51
34.12001194439451
  0
ARC
  5
2767
330
2E0
100
AcDbEntity
  8
1外形線
100
AcDbCircle
 10
0.3613016112058176
 20
69.87611201042773
 30
0.0
 40
3.759271216842876
100
AcDbArc
 50
0.0
 51
45.00000000000921
  0
ARC
  5
2768
330
2E0
100
AcDbEntity
  8
1外形線
100
AcDbCircle
 10
0.3613016112051355
 20
69.8761120104283
 30
0.0
 40
3.759271216842876
100
AcDbArc
 50
44.99999999999078
 51
90.0
  0
ARC
  5
2769
330
2E0
100
AcDbEntity
  8
1外形線
100
AcDbCircle
 10
0.3613016112051355
 20
69.8761120104283
 30
0.0
 40
2.0
100
AcDbArc
 50
359.9999999999935
 51
90.0
  0
LWPOLYLINE
  5
276A
330
2E0
100
AcDbEntity
  8
1外形線
100
AcDbPolyline
 90
        5
 70
     0
 43
0.0
 10
6.018155860698243
 20
75.53296625992004
 42
0.1747045211890497
 10
7.484566020244756
 20
74.84353976130489
 42
0.1042029417664594
 10
10.13211689137574
 20
75.14692729059925
 42
0.0649481016501909
 10
12.72659006968433
 20
76.40489047255925
 42
0.0510992989621213
 10
15.56409740671654
 20
78.71494677525925
 42
0.0510992989621184
  0
LINE
  5
276B
330
2E0
100
AcDbEntity
  8
1外形線
100
AcDbLine
 10
-0.1386983887933866
 20
104.8761120104282
 30
0.0
 11
15.36130161120661
 21
104.8761120104282
 31
0.0
  0
LWPOLYLINE
  5
276C
330
2E0
100
AcDbEntity
  8
1外形線
100
AcDbPolyline
 90
        5
 70
     0
 43
0.0
 10
6.018155860698243
 20
75.53296625992004
 42
-0.1747045211890497
 10
5.328729362083322
 20
76.99937641946644
 42
-0.1042029417664594
 10
5.632116891377563
 20
79.64692729059743
 42
-0.0649481016501909
 10
6.890080073337799
 20
82.24140046890614
 42
-0.0510992989621213
 10
9.200136376037789
 20
85.07890780593845
 42
-0.0510992989621184
  0
ARC
  5
276D
330
2E0
100
AcDbEntity
  8
1外形線
100
AcDbCircle
 10
0.3613016112051355
 20
69.8761120104283
 30
0.0
 40
8.82940295292758
100
AcDbArc
 50
55.87998805559644
 51
90.0
  0
LINE
  5
276E
330
2E0
100
AcDbEntity
  8
1外形線
100
AcDbLine
 10
-6.138698388793386
 20
98.87611201042819
 30
0.0
 11
-0.1386983887933866
 21
104.8761120104282
 31
0.0
  0
LINE
  5
276F
330
2E0
100
AcDbEntity
  8
1外形線
100
AcDbLine
 10
17.98262195476604
 20
87.49743235398772
 30
0.0
 11
14.80064143942672
 21
90.67941286932706
 31
0.0
  0
LINE
  5
2770
330
2E0
100
AcDbEntity
  8
1外形線
100
AcDbLine
 10
9.200136376037789
 20
85.07890780593845
 30
0.0
 11
14.80064143942672
 21
90.67941286932706
 31
0.0
  0
LINE
  5
2771
330
2E0
100
AcDbEntity
  8
1外形線
100
AcDbLine
 10
15.56409740671654
 20
78.71494677525925
 30
0.0
 11
21.16460247010548
 21
84.31545183864841
 31
0.0
  0
LINE
  5
2772
330
2E0
100
AcDbEntity
  8
1外形線
100
AcDbLine
 10
17.98262195476582
 20
87.49743235398819
 30
0.0
 11
21.16460247010548
 21
84.31545183864841
 31
0.0
  0
LINE
  5
2773
330
2E0
100
AcDbEntity
  8
1外形線
100
AcDbLine
 10
35.36130161120593
 20
69.37611201042853
 30
0.0
 11
35.36130161120616
 21
84.87611201042819
 31
0.0
  0
LINE
  5
2774
330
2E0
100
AcDbEntity
  8
1外形線
100
AcDbLine
 10
29.36130161120593
 20
63.37611201042853
 30
0.0
 11
35.36130161120593
 21
69.37611201042853
 31
0.0
  0
ARC
  5
2775
330
2E0
100
AcDbEntity
  8
1外形線
100
AcDbCircle
 10
15.36130161120616
 20
84.87611201042852
 30
0.0
 40
20.0
100
AcDbArc
 50
0.0
 51
45.0
  0
LINE
  5
2776
330
2E0
100
AcDbEntity
  8
1外形線
100
AcDbLine
 10
32.53897114087022
 20
102.0537815400917
 30
0.0
 11
35.72095165620954
 21
98.87180102475225
 31
0.0
  0
ARC
  5
2777
330
2E0
100
AcDbEntity
  8
1外形線
100
AcDbCircle
 10
37.77540576413549
 20
107.2902161633569
 30
0.0
 40
10.0
100
AcDbArc
 50
71.74368395040385
 51
90.0
  0
LINE
  5
2778
330
2E0
100
AcDbEntity
  8
1外形線
100
AcDbLine
 10
29.35699062553079
 20
105.2357620554312
 30
0.0
 11
45.54328212654581
 21
121.4220535564467
 31
0.0
  0
LWPOLYLINE
  5
2779
330
2E0
100
AcDbEntity
  8
1外形線
100
AcDbPolyline
 90
        5
 70
     0
 43
0.0
 10
51.90724315722502
 20
115.0580925257678
 42
0.0510992989621341
 10
54.21729945992502
 20
117.8955998628
 42
0.0649481016502022
 10
55.47526264188514
 20
120.4900730411087
 42
0.1042029417664566
 10
55.77865017117926
 20
123.1376239122395
 42
0.1747045211890639
 10
55.08922367256445
 20
124.604034071786
 42
0.1747045211890532
  0
ARC
  5
277A
330
2E0
100
AcDbEntity
  8
1外形線
100
AcDbCircle
 10
37.77540576413526
 20
107.2902161633569
 30
0.0
 40
10.0
100
AcDbArc
 50
0.0
 51
18.25631604959616
  0
ARC
  5
277B
330
2E0
100
AcDbEntity
  8
1外形線
100
AcDbCircle
 10
40.53189865827881
 20
110.0467090575001
 30
0.0
 40
15.0
100
AcDbArc
 50
0.0
 51
28.41312538766698
  0
ARC
  5
277C
330
2E0
100
AcDbEntity
  8
1外形線
100
AcDbCircle
 10
42.36130161120661
 20
111.8761120104285
 30
0.0
 40
18.24072878315701
100
AcDbArc
 50
45.0
 51
90.0
  0
LWPOLYLINE
  5
277D
330
2E0
100
AcDbEntity
  8
1外形線
100
AcDbPolyline
 90
        5
 70
     0
 43
0.0
 10
45.54328212654604
 20
121.4220535564467
 42
-0.0510992989621341
 10
48.38078946357848
 20
123.7321098591469
 42
-0.0649481016502022
 10
50.97526264188696
 20
124.9900730411069
 42
-0.1042029417664566
 10
53.62281351301771
 20
125.2934605704008
 42
-0.1747045211890639
 10
55.08922367256445
 20
124.604034071786
 42
-0.1747045211890532
  0
ARC
  5
277E
330
2E0
100
AcDbEntity
  8
1外形線
100
AcDbCircle
 10
40.53189865827881
 20
110.0467090575005
 30
0.0
 40
15.0
100
AcDbArc
 50
61.58687461233302
 51
90.0
  0
LINE
  5
277F
330
2E0
100
AcDbEntity
  8
1外形線
100
AcDbLine
 10
63.36130161120673
 20
35.8761120104283
 30
0.0
 11
63.36130161120673
 21
42.87611201042818
 31
0.0
  0
ARC
  5
2780
330
2E0
100
AcDbEntity
  8
1外形線
100
AcDbCircle
 10
62.86130161120673
 20
35.8761120104283
 30
0.0
 40
0.5
100
AcDbArc
 50
270.0
 51
0.0
  0
LINE
  5
2781
330
2E0
100
AcDbEntity
  8
1外形線
100
AcDbLine
 10
62.36130161120673
 20
111.8761120104283
 30
0.0
 11
62.36130161120673
 21
43.37611201042818
 31
0.0
  0
LINE
  5
2782
330
2E0
100
AcDbEntity
  8
1外形線
100
AcDbLine
 10
60.60203039436373
 20
43.37611201042818
 30
0.0
 11
60.60203039436373
 21
111.8761120104283
 31
0.0
  0
ARC
  5
2783
330
2E0
100
AcDbEntity
  8
1外形線
100
AcDbCircle
 10
62.86130161120673
 20
42.87611201042818
 30
0.0
 40
0.5
100
AcDbArc
 50
0.0
 51
90.0
  0
ENDSEC
  0
SECTION
  2
OBJECTS
  0
DICTIONARY
  5
2CE
330
0
100
AcDbDictionary
281
     1
  3
ACAD_CIP_PREVIOUS_PRODUCT_INFO
350
CA2
  3
ACAD_COLOR
350
C8A
  3
ACAD_GROUP
350
2CF
  3
ACAD_LAYOUT
350
2DB
  3
ACAD_MATERIAL
350
C58
  3
ACAD_MLEADERSTYLE
350
C9F
  3
ACAD_MLINESTYLE
350
2D8
  3
ACAD_PLOTSETTINGS
350
2DA
  3
ACAD_PLOTSTYLENAME
350
2D0
  3
ACAD_SCALELIST
350
C8D
  3
ACAD_TABLESTYLE
350
C8B
  3
ACAD_VISUALSTYLE
350
C71
  3
ACDB_RECOMPOSE_DATA
350
279A
  3
AcDbVariableDictionary
350
4E7
  0
DICTIONARY
  5
17D6
330
2CA
100
AcDbDictionary
280
     1
281
     1
  0
DICTIONARY
  5
13CB
330
2C4
100
AcDbDictionary
280
     1
281
     1
  3
ACAD_LAYERSTATES
360
13CC
  0
DICTIONARY
  5
CA3
330
2D2
100
AcDbDictionary
280
     1
281
     1
  3
ADSK_XREC_LAYER_RECONCILED
360
CA4
  0
DICTIONARY
  5
CA5
330
2E4
100
AcDbDictionary
280
     1
281
     1
  3
ADSK_XREC_LAYER_RECONCILED
360
CA6
  0
DICTIONARY
  5
CA7
330
2EA
100
AcDbDictionary
280
     1
281
     1
  3
ADSK_XREC_LAYER_RECONCILED
360
CA8
  0
DICTIONARY
  5
CA9
330
2F0
100
AcDbDictionary
280
     1
281
     1
  3
ADSK_XREC_LAYER_RECONCILED
360
CAA
  0
DICTIONARY
  5
194F
330
194E
100
AcDbDictionary
280
     1
281
     1
  0
DICTIONARY
  5
1CA1
330
1CA0
100
AcDbDictionary
280
     1
281
     1
  0
DICTIONARY
  5
12DF
330
2E0
100
AcDbDictionary
280
     1
281
     1
  3
ACAD_SORTENTS
360
12E0
  0
XRECORD
  5
CA2
102
{ACAD_REACTORS
330
2CE
102
}
330
2CE
100
AcDbXrecord
280
     1
300
ACDLT
300
2012
300
ACDLT_F_S
  0
DICTIONARY
  5
C8A
102
{ACAD_REACTORS
330
2CE
102
}
330
2CE
100
AcDbDictionary
281
     1
  0
DICTIONARY
  5
2CF
102
{ACAD_REACTORS
330
2CE
102
}
330
2CE
100
AcDbDictionary
281
     1
  0
DICTIONARY
  5
2DB
102
{ACAD_REACTORS
330
2CE
102
}
330
2CE
100
AcDbDictionary
281
     1
  3
Model
350
2E3
  3
ﾚｲｱｳﾄ1
350
2DF
  0
DICTIONARY
  5
C58
102
{ACAD_REACTORS
330
2CE
102
}
330
2CE
100
AcDbDictionary
281
     1
  3
ByBlock
350
C61
  3
ByLayer
350
C59
  3
Global
350
C69
  0
DICTIONARY
  5
C9F
102
{ACAD_REACTORS
330
2CE
102
}
330
2CE
100
AcDbDictionary
281
     1
  3
Standard
350
CA0
  0
DICTIONARY
  5
2D8
102
{ACAD_REACTORS
330
2CE
102
}
330
2CE
100
AcDbDictionary
281
     1
  3
Standard
350
2D9
  0
DICTIONARY
  5
2DA
102
{ACAD_REACTORS
330
2CE
102
}
330
2CE
100
AcDbDictionary
281
     1
  0
ACDBDICTIONARYWDFLT
  5
2D0
102
{ACAD_REACTORS
330
2CE
102
}
330
2CE
100
AcDbDictionary
281
     1
  3
Normal
350
2D1
100
AcDbDictionaryWithDefault
340
2D1
  0
DICTIONARY
  5
C8D
102
{ACAD_REACTORS
330
2CE
102
}
330
2CE
100
AcDbDictionary
281
     1
  3
A0
350
C8E
  3
A1
350
C8F
  3
A2
350
C90
  3
A3
350
C91
  3
A4
350
C92
  3
A5
350
C93
  3
A6
350
C94
  3
A7
350
C95
  3
A8
350
C96
  3
A9
350
C97
  3
B0
350
C98
  3
B1
350
C99
  3
B2
350
C9A
  3
B3
350
C9B
  3
B4
350
C9C
  3
B5
350
C9D
  3
B6
350
C9E
  0
DICTIONARY
  5
C8B
102
{ACAD_REACTORS
330
2CE
102
}
330
2CE
100
AcDbDictionary
281
     1
  3
Standard
350
C8C
  0
DICTIONARY
  5
C71
102
{ACAD_REACTORS
330
2CE
102
}
330
2CE
100
AcDbDictionary
281
     1
  3
2dWireframe
350
C77
  3
Basic
350
C76
  3
Brighten
350
C7D
  3
ColorChange
350
C81
  3
Conceptual
350
C7A
  3
Dim
350
C7C
  3
EdgeColorOff
350
C89
  3
Facepattern
350
C80
  3
Flat
350
C72
  3
FlatWithEdges
350
C73
  3
Gouraud
350
C74
  3
GouraudWithEdges
350
C75
  3
Hidden
350
C79
  3
JitterOff
350
C87
  3
Linepattern
350
C7F
  3
OverhangOff
350
C88
  3
Realistic
350
C7B
  3
Shaded
350
C86
  3
Shaded with edges
350
C85
  3
Shades of Gray
350
C82
  3
Sketchy
350
C83
  3
Thicken
350
C7E
  3
Wireframe
350
C78
  3
X-Ray
350
C84
  0
XRECORD
  5
279A
102
{ACAD_REACTORS
330
2CE
102
}
330
2CE
100
AcDbXrecord
280
     1
 90
        1
330
C8C
  0
DICTIONARY
  5
4E7
102
{ACAD_REACTORS
330
2CE
102
}
330
2CE
100
AcDbDictionary
281
     1
  3
CANNOSCALE
350
CAF
  3
CMLEADERSTYLE
350
CAD
  3
CTABLESTYLE
350
CAC
  3
DIMASSOC
350
4E8
  3
INDEXCTL
350
1819
  3
LAYEREVAL
350
CB1
  3
LAYERNOTIFY
350
CB2
  3
LIGHTINGUNITS
350
CB0
  3
MSLTSCALE
350
CAE
  3
SORTENTS
350
1818
  0
DICTIONARY
  5
13CC
102
{ACAD_REACTORS
330
13CB
102
}
330
13CB
100
AcDbDictionary
281
     1
  0
XRECORD
  5
CA4
102
{ACAD_REACTORS
330
CA3
102
}
330
CA3
100
AcDbXrecord
280
     1
290
     1
  0
XRECORD
  5
CA6
102
{ACAD_REACTORS
330
CA5
102
}
330
CA5
100
AcDbXrecord
280
     1
290
     1
  0
XRECORD
  5
CA8
102
{ACAD_REACTORS
330
CA7
102
}
330
CA7
100
AcDbXrecord
280
     1
290
     1
  0
XRECORD
  5
CAA
102
{ACAD_REACTORS
330
CA9
102
}
330
CA9
100
AcDbXrecord
280
     1
290
     1
  0
SORTENTSTABLE
  5
12E0
102
{ACAD_REACTORS
330
12DF
102
}
330
12DF
100
AcDbSortentsTable
330
2E0
  0
LAYOUT
  5
2E3
102
{ACAD_XDICTIONARY
360
13D1
102
}
102
{ACAD_REACTORS
330
2DB
102
}
330
2DB
100
AcDbPlotSettings
  1

  2
RICOH IPSiO SP 6310 RPCS
  4
A4
  6

 40
5.873749732971191
 41
5.873748779296875
 42
5.873733520507812
 43
5.873748779296875
 44
209.9733276367187
 45
296.9259948730469
 46
0.0
 47
2.941516901982566
 48
490.9840648694898
 49
-870.3934561482833
140
1343.544294824796
141
330.8434730566378
142
1.0
143
4.30095395788558
 70
 11956
 72
     1
 73
     0
 74
     4
  7
INABA-CAD-Canon.ctb
 75
     0
147
0.2325065577990089
 76
     0
 77
     2
 78
   300
148
-490.9840648694898
149
870.3934561482833
100
AcDbLayout
  1
Model
 70
     1
 71
     0
 10
0.0
 20
0.0
 11
12.0
 21
9.0
 12
0.0
 22
0.0
 32
0.0
 14
0.0
 24
0.0
 34
0.0
 15
0.0
 25
0.0
 35
0.0
146
0.0
 13
0.0
 23
0.0
 33
0.0
 16
1.0
 26
0.0
 36
0.0
 17
0.0
 27
1.0
 37
0.0
 76
     0
330
2E0
331
C53
1001
ACAD_PSEXT
1000
RICOH IPSiO SP 6310 RPCS
1000
RICOH IPSiO SP 6310 RPCS
1000
IP_192.168.210.201
1000
RPCS Driver (Windows XP/2003/2008/Vista/7 64-bit)
1070
     0
  0
LAYOUT
  5
2DF
102
{ACAD_REACTORS
330
2DB
102
}
330
2DB
100
AcDbPlotSettings
  1

  2
Canon LASER SHOT LBP-1710
  4

  6

 40
0.0
 41
0.0
 42
0.0
 43
0.0
 44
0.0
 45
0.0
 46
0.0
 47
0.0
 48
0.0
 49
0.0
140
0.0
141
0.0
142
1.0
143
1.0
 70
   688
 72
     0
 73
     0
 74
     5
  7
INABA-CAD-Canon.ctb
 75
    16
147
1.0
 76
     0
 77
     2
 78
   300
148
0.0
149
0.0
100
AcDbLayout
  1
ﾚｲｱｳﾄ1
 70
     1
 71
     1
 10
0.0
 20
0.0
 11
420.0
 21
297.0
 12
0.0
 22
0.0
 32
0.0
 14
1.000000000000000E+20
 24
1.000000000000000E+20
 34
1.000000000000000E+20
 15
-1.000000000000000E+20
 25
-1.000000000000000E+20
 35
-1.000000000000000E+20
146
0.0
 13
0.0
 23
0.0
 33
0.0
 16
1.0
 26
0.0
 36
0.0
 17
0.0
 27
1.0
 37
0.0
 76
     0
330
2DC
  0
MATERIAL
  5
C61
102
{ACAD_XDICTIONARY
360
C62
102
}
102
{ACAD_REACTORS
330
C58
102
}
330
C58
100
AcDbMaterial
  1
ByBlock
 72
     0
 43
0.0208333333333333
 43
0.0
 43
0.0
 43
0.0
 43
0.0
 43
0.0208333333333333
 43
0.0
 43
0.0
 43
0.0
 43
0.0
 43
1.0
 43
0.0
 43
0.0
 43
0.0
 43
0.0
 43
1.0
 77
     0
 47
0.0208333333333333
 47
0.0
 47
0.0
 47
0.0
 47
0.0
 47
0.0208333333333333
 47
0.0
 47
0.0
 47
0.0
 47
0.0
 47
1.0
 47
0.0
 47
0.0
 47
0.0
 47
0.0
 47
1.0
171
     0
 49
0.0208333333333333
 49
0.0
 49
0.0
 49
0.0
 49
0.0
 49
0.0208333333333333
 49
0.0
 49
0.0
 49
0.0
 49
0.0
 49
1.0
 49
0.0
 49
0.0
 49
0.0
 49
0.0
 49
1.0
175
     0
142
0.0208333333333333
142
0.0
142
0.0
142
0.0
142
0.0
142
0.0208333333333333
142
0.0
142
0.0
142
0.0
142
0.0
142
1.0
142
0.0
142
0.0
142
0.0
142
0.0
142
1.0
179
     0
144
0.0208333333333333
144
0.0
144
0.0
144
0.0
144
0.0
144
0.0208333333333333
144
0.0
144
0.0
144
0.0
144
0.0
144
1.0
144
0.0
144
0.0
144
0.0
144
0.0
144
1.0
147
0.0208333333333333
147
0.0
147
0.0
147
0.0
147
0.0
147
0.0208333333333333
147
0.0
147
0.0
147
0.0
147
0.0
147
1.0
147
0.0
147
0.0
147
0.0
147
0.0
147
1.0
  0
MATERIAL
  5
C59
102
{ACAD_XDICTIONARY
360
C5A
102
}
102
{ACAD_REACTORS
330
C58
102
}
330
C58
100
AcDbMaterial
  1
ByLayer
 72
     0
 43
0.0208333333333333
 43
0.0
 43
0.0
 43
0.0
 43
0.0
 43
0.0208333333333333
 43
0.0
 43
0.0
 43
0.0
 43
0.0
 43
1.0
 43
0.0
 43
0.0
 43
0.0
 43
0.0
 43
1.0
 77
     0
 47
0.0208333333333333
 47
0.0
 47
0.0
 47
0.0
 47
0.0
 47
0.0208333333333333
 47
0.0
 47
0.0
 47
0.0
 47
0.0
 47
1.0
 47
0.0
 47
0.0
 47
0.0
 47
0.0
 47
1.0
171
     0
 49
0.0208333333333333
 49
0.0
 49
0.0
 49
0.0
 49
0.0
 49
0.0208333333333333
 49
0.0
 49
0.0
 49
0.0
 49
0.0
 49
1.0
 49
0.0
 49
0.0
 49
0.0
 49
0.0
 49
1.0
175
     0
142
0.0208333333333333
142
0.0
142
0.0
142
0.0
142
0.0
142
0.0208333333333333
142
0.0
142
0.0
142
0.0
142
0.0
142
1.0
142
0.0
142
0.0
142
0.0
142
0.0
142
1.0
179
     0
144
0.0208333333333333
144
0.0
144
0.0
144
0.0
144
0.0
144
0.0208333333333333
144
0.0
144
0.0
144
0.0
144
0.0
144
1.0
144
0.0
144
0.0
144
0.0
144
0.0
144
1.0
147
0.0208333333333333
147
0.0
147
0.0
147
0.0
147
0.0
147
0.0208333333333333
147
0.0
147
0.0
147
0.0
147
0.0
147
1.0
147
0.0
147
0.0
147
0.0
147
0.0
147
1.0
  0
MATERIAL
  5
C69
102
{ACAD_XDICTIONARY
360
C6A
102
}
102
{ACAD_REACTORS
330
C58
102
}
330
C58
100
AcDbMaterial
  1
Global
 72
     0
 43
0.0208333333333333
 43
0.0
 43
0.0
 43
0.0
 43
0.0
 43
0.0208333333333333
 43
0.0
 43
0.0
 43
0.0
 43
0.0
 43
1.0
 43
0.0
 43
0.0
 43
0.0
 43
0.0
 43
1.0
 77
     0
 47
0.0208333333333333
 47
0.0
 47
0.0
 47
0.0
 47
0.0
 47
0.0208333333333333
 47
0.0
 47
0.0
 47
0.0
 47
0.0
 47
1.0
 47
0.0
 47
0.0
 47
0.0
 47
0.0
 47
1.0
171
     0
 49
0.0208333333333333
 49
0.0
 49
0.0
 49
0.0
 49
0.0
 49
0.0208333333333333
 49
0.0
 49
0.0
 49
0.0
 49
0.0
 49
1.0
 49
0.0
 49
0.0
 49
0.0
 49
0.0
 49
1.0
175
     0
142
0.0208333333333333
142
0.0
142
0.0
142
0.0
142
0.0
142
0.0208333333333333
142
0.0
142
0.0
142
0.0
142
0.0
142
1.0
142
0.0
142
0.0
142
0.0
142
0.0
142
1.0
179
     0
144
0.0208333333333333
144
0.0
144
0.0
144
0.0
144
0.0
144
0.0208333333333333
144
0.0
144
0.0
144
0.0
144
0.0
144
1.0
144
0.0
144
0.0
144
0.0
144
0.0
144
1.0
147
0.0208333333333333
147
0.0
147
0.0
147
0.0
147
0.0
147
0.0208333333333333
147
0.0
147
0.0
147
0.0
147
0.0
147
1.0
147
0.0
147
0.0
147
0.0
147
0.0
147
1.0
  0
MLEADERSTYLE
  5
CA0
102
{ACAD_REACTORS
330
C9F
102
}
330
C9F
100
AcDbMLeaderStyle
179
     2
170
     2
171
     1
172
     0
 90
        2
 40
0.0
 41
0.0
173
     1
 91
-1056964608
340
2D5
 92
       -2
290
     1
 42
0.09
291
     1
 43
0.36
  3
Standard
 44
0.18
300

342
2D3
174
     1
178
     6
175
     1
176
     0
 93
-1056964608
 45
0.18
292
     0
297
     0
 46
0.18
 94
-1056964608
 47
1.0
 49
1.0
140
1.0
293
     1
141
0.0
294
     1
177
     0
142
1.0
295
     0
296
     0
143
0.125
271
     0
272
     9
273
     9
  0
MLINESTYLE
  5
2D9
102
{ACAD_REACTORS
330
2D8
102
}
330
2D8
100
AcDbMlineStyle
  2
STANDARD
 70
     0
  3

 62
   256
 51
90.0
 52
90.0
 71
     2
 49
0.5
 62
   256
  6
BYLAYER
 49
-0.5
 62
   256
  6
BYLAYER
  0
ACDBPLACEHOLDER
  5
2D1
102
{ACAD_REACTORS
330
2D0
102
}
330
2D0
  0
SCALE
  5
C8E
102
{ACAD_REACTORS
330
C8D
102
}
330
C8D
100
AcDbScale
 70
     0
300
1:1
140
1.0
141
1.0
290
     1
  0
SCALE
  5
C8F
102
{ACAD_REACTORS
330
C8D
102
}
330
C8D
100
AcDbScale
 70
     0
300
1/128" = 1'-0"
140
0.0078125
141
12.0
290
     0
  0
SCALE
  5
C90
102
{ACAD_REACTORS
330
C8D
102
}
330
C8D
100
AcDbScale
 70
     0
300
1/64" = 1'-0"
140
0.015625
141
12.0
290
     0
  0
SCALE
  5
C91
102
{ACAD_REACTORS
330
C8D
102
}
330
C8D
100
AcDbScale
 70
     0
300
1/32" = 1'-0"
140
0.03125
141
12.0
290
     0
  0
SCALE
  5
C92
102
{ACAD_REACTORS
330
C8D
102
}
330
C8D
100
AcDbScale
 70
     0
300
1/16" = 1'-0"
140
0.0625
141
12.0
290
     0
  0
SCALE
  5
C93
102
{ACAD_REACTORS
330
C8D
102
}
330
C8D
100
AcDbScale
 70
     0
300
3/32" = 1'-0"
140
0.09375
141
12.0
290
     0
  0
SCALE
  5
C94
102
{ACAD_REACTORS
330
C8D
102
}
330
C8D
100
AcDbScale
 70
     0
300
1/8" = 1'-0"
140
0.125
141
12.0
290
     0
  0
SCALE
  5
C95
102
{ACAD_REACTORS
330
C8D
102
}
330
C8D
100
AcDbScale
 70
     0
300
3/16" = 1'-0"
140
0.1875
141
12.0
290
     0
  0
SCALE
  5
C96
102
{ACAD_REACTORS
330
C8D
102
}
330
C8D
100
AcDbScale
 70
     0
300
1/4" = 1'-0"
140
0.25
141
12.0
290
     0
  0
SCALE
  5
C97
102
{ACAD_REACTORS
330
C8D
102
}
330
C8D
100
AcDbScale
 70
     0
300
3/8" = 1'-0"
140
0.375
141
12.0
290
     0
  0
SCALE
  5
C98
102
{ACAD_REACTORS
330
C8D
102
}
330
C8D
100
AcDbScale
 70
     0
300
1/2" = 1'-0"
140
0.5
141
12.0
290
     0
  0
SCALE
  5
C99
102
{ACAD_REACTORS
330
C8D
102
}
330
C8D
100
AcDbScale
 70
     0
300
3/4" = 1'-0"
140
0.75
141
12.0
290
     0
  0
SCALE
  5
C9A
102
{ACAD_REACTORS
330
C8D
102
}
330
C8D
100
AcDbScale
 70
     0
300
1" = 1'-0"
140
1.0
141
12.0
290
     0
  0
SCALE
  5
C9B
102
{ACAD_REACTORS
330
C8D
102
}
330
C8D
100
AcDbScale
 70
     0
300
1-1/2" = 1'-0"
140
1.5
141
12.0
290
     0
  0
SCALE
  5
C9C
102
{ACAD_REACTORS
330
C8D
102
}
330
C8D
100
AcDbScale
 70
     0
300
3" = 1'-0"
140
3.0
141
12.0
290
     0
  0
SCALE
  5
C9D
102
{ACAD_REACTORS
330
C8D
102
}
330
C8D
100
AcDbScale
 70
     0
300
6" = 1'-0"
140
6.0
141
12.0
290
     0
  0
SCALE
  5
C9E
102
{ACAD_REACTORS
330
C8D
102
}
330
C8D
100
AcDbScale
 70
     0
300
1'-0" = 1'-0"
140
12.0
141
12.0
290
     0
  0
TABLESTYLE
  5
C8C
102
{ACAD_XDICTIONARY
360
17D2
102
}
102
{ACAD_REACTORS
330
C8B
102
}
330
C8B
100
AcDbTableStyle
280
     0
  3
Standard
 70
     0
 71
     0
 40
0.06
 41
0.06
280
     0
281
     0
  7
STANDARD
140
0.18
170
     2
 62
     0
 63
     7
283
     0
 90
      512
 91
        0
  1

274
    -2
284
     1
 64
     0
275
    -2
285
     1
 65
     0
276
    -2
286
     1
 66
     0
277
    -2
287
     1
 67
     0
278
    -2
288
     1
 68
     0
279
    -2
289
     1
 69
     0
  7
STANDARD
140
0.25
170
     5
 62
     0
 63
     7
283
     0
 90
      512
 91
        0
  1

274
    -2
284
     1
 64
     0
275
    -2
285
     1
 65
     0
276
    -2
286
     1
 66
     0
277
    -2
287
     1
 67
     0
278
    -2
288
     1
 68
     0
279
    -2
289
     1
 69
     0
  7
STANDARD
140
0.18
170
     5
 62
     0
 63
     7
283
     0
 90
      512
 91
        0
  1

274
    -2
284
     1
 64
     0
275
    -2
285
     1
 65
     0
276
    -2
286
     1
 66
     0
277
    -2
287
     1
 67
     0
278
    -2
288
     1
 68
     0
279
    -2
289
     1
 69
     0
  0
VISUALSTYLE
  5
C77
102
{ACAD_REACTORS
330
C71
102
}
330
C71
100
AcDbVisualStyle
  2
2dWireframe
 70
     4
177
     2
291
     0
 71
     0
176
     1
 72
     2
176
     1
 73
     0
176
     1
 90
        0
176
     1
 40
0.6
176
     1
 41
30.0
176
     1
 63
     7
176
     1
 74
     1
176
     1
 91
        4
176
     1
 64
     7
176
     1
 65
   257
176
     1
 75
     1
176
     1
175
     1
176
     1
 42
1.0
176
     1
 92
        0
176
     1
 66
   257
176
     1
 43
1.0
176
     1
 76
     1
176
     1
 77
     6
176
     1
 78
     2
176
     1
 67
     7
176
     1
 79
     5
176
     1
170
     0
176
     1
171
     0
176
     1
290
     0
176
     1
 93
        1
176
     1
 44
0.0
176
     1
173
     0
176
     1
  0
VISUALSTYLE
  5
C76
102
{ACAD_REACTORS
330
C71
102
}
330
C71
100
AcDbVisualStyle
  2
Basic
 70
     7
177
     2
291
     1
 71
     1
176
     1
 72
     0
176
     1
 73
     1
176
     1
 90
        0
176
     1
 40
0.6
176
     1
 41
30.0
176
     1
 63
     7
176
     1
 74
     0
176
     1
 91
        4
176
     1
 64
     7
176
     1
 65
   257
176
     1
 75
     1
176
     1
175
     1
176
     1
 42
1.0
176
     1
 92
        8
176
     1
 66
     7
176
     1
 43
1.0
176
     1
 76
     1
176
     1
 77
     6
176
     1
 78
     2
176
     1
 67
     7
176
     1
 79
     5
176
     1
170
     0
176
     1
171
     0
176
     1
290
     0
176
     1
 93
        1
176
     1
 44
0.0
176
     1
173
     0
176
     1
  0
VISUALSTYLE
  5
C7D
102
{ACAD_REACTORS
330
C71
102
}
330
C71
100
AcDbVisualStyle
  2
Brighten
 70
    12
177
     2
291
     1
 71
     2
176
     1
 72
     2
176
     1
 73
     0
176
     1
 90
        0
176
     1
 40
0.6
176
     1
 41
30.0
176
     1
 63
     7
176
     1
 74
     1
176
     1
 91
        4
176
     1
 64
     7
176
     1
 65
   257
176
     1
 75
     1
176
     1
175
     1
176
     1
 42
1.0
176
     1
 92
        8
176
     1
 66
     7
176
     1
 43
1.0
176
     1
 76
     1
176
     1
 77
     6
176
     1
 78
     2
176
     1
 67
     7
176
     1
 79
     5
176
     1
170
     0
176
     1
171
     0
176
     1
290
     0
176
     1
 93
        1
176
     1
 44
50.0
176
     1
173
     0
176
     1
  0
VISUALSTYLE
  5
C81
102
{ACAD_REACTORS
330
C71
102
}
330
C71
100
AcDbVisualStyle
  2
ColorChange
 70
    16
177
     2
291
     1
 71
     2
176
     1
 72
     2
176
     1
 73
     3
176
     1
 90
        0
176
     1
 40
0.6
176
     1
 41
30.0
176
     1
 63
     8
176
     1
 74
     1
176
     1
 91
        4
176
     1
 64
     7
176
     1
 65
   257
176
     1
 75
     1
176
     1
175
     1
176
     1
 42
1.0
176
     1
 92
        8
176
     1
 66
     8
176
     1
 43
1.0
176
     1
 76
     1
176
     1
 77
     6
176
     1
 78
     2
176
     1
 67
     7
176
     1
 79
     5
176
     1
170
     0
176
     1
171
     0
176
     1
290
     0
176
     1
 93
        1
176
     1
 44
0.0
176
     1
173
     0
176
     1
  0
VISUALSTYLE
  5
C7A
102
{ACAD_REACTORS
330
C71
102
}
330
C71
100
AcDbVisualStyle
  2
Conceptual
 70
     9
177
     2
291
     0
 71
     3
176
     1
 72
     2
176
     1
 73
     0
176
     1
 90
        0
176
     1
 40
0.6
176
     1
 41
30.0
176
     1
 63
     7
176
     1
 74
     2
176
     1
 91
        2
176
     1
 64
     7
176
     1
 65
   257
176
     1
 75
     1
176
     1
175
     1
176
     1
 42
179.0
176
     1
 92
        8
176
     1
 66
     7
176
     1
 43
1.0
176
     1
 76
     1
176
     1
 77
     6
176
     1
 78
     2
176
     1
 67
     7
176
     1
 79
     3
176
     1
170
     0
176
     1
171
     0
176
     1
290
     0
176
     1
 93
        1
176
     1
 44
0.0
176
     1
173
     0
176
     1
  0
VISUALSTYLE
  5
C7C
102
{ACAD_REACTORS
330
C71
102
}
330
C71
100
AcDbVisualStyle
  2
Dim
 70
    11
177
     2
291
     1
 71
     2
176
     1
 72
     2
176
     1
 73
     0
176
     1
 90
        0
176
     1
 40
0.6
176
     1
 41
30.0
176
     1
 63
     7
176
     1
 74
     1
176
     1
 91
        4
176
     1
 64
     7
176
     1
 65
   257
176
     1
 75
     1
176
     1
175
     1
176
     1
 42
1.0
176
     1
 92
        8
176
     1
 66
     7
176
     1
 43
1.0
176
     1
 76
     1
176
     1
 77
     6
176
     1
 78
     2
176
     1
 67
     7
176
     1
 79
     5
176
     1
170
     0
176
     1
171
     0
176
     1
290
     0
176
     1
 93
        1
176
     1
 44
-50.0
176
     1
173
     0
176
     1
  0
VISUALSTYLE
  5
C89
102
{ACAD_REACTORS
330
C71
102
}
330
C71
100
AcDbVisualStyle
  2
EdgeColorOff
 70
    22
177
     2
291
     1
 71
     2
176
     0
 72
     2
176
     0
 73
     0
176
     0
 90
        0
176
     0
 40
0.6
176
     0
 41
30.0
176
     0
 63
     7
176
     0
 74
     1
176
     0
 91
        4
176
     0
 64
     7
176
     0
 65
   257
176
     0
 75
     1
176
     0
175
     1
176
     0
 42
1.0
176
     0
 92
        8
176
     2
 66
     7
176
     0
 43
1.0
176
     0
 76
     1
176
     0
 77
     6
176
     0
 78
     2
176
     0
 67
     7
176
     0
 79
     5
176
     0
170
     0
176
     0
171
     0
176
     0
290
     0
176
     0
 93
        1
176
     0
 44
0.0
176
     0
173
     0
176
     0
  0
VISUALSTYLE
  5
C80
102
{ACAD_REACTORS
330
C71
102
}
330
C71
100
AcDbVisualStyle
  2
Facepattern
 70
    15
177
     2
291
     1
 71
     2
176
     1
 72
     2
176
     1
 73
     0
176
     1
 90
        0
176
     1
 40
0.6
176
     1
 41
30.0
176
     1
 63
     7
176
     1
 74
     1
176
     1
 91
        4
176
     1
 64
     7
176
     1
 65
   257
176
     1
 75
     1
176
     1
175
     1
176
     1
 42
1.0
176
     1
 92
        8
176
     1
 66
     7
176
     1
 43
1.0
176
     1
 76
     1
176
     1
 77
     6
176
     1
 78
     2
176
     1
 67
     7
176
     1
 79
     5
176
     1
170
     0
176
     1
171
     0
176
     1
290
     0
176
     1
 93
        1
176
     1
 44
0.0
176
     1
173
     0
176
     1
  0
VISUALSTYLE
  5
C72
102
{ACAD_REACTORS
330
C71
102
}
330
C71
100
AcDbVisualStyle
  2
Flat
 70
     0
177
     2
291
     1
 71
     2
176
     1
 72
     1
176
     1
 73
     1
176
     1
 90
        2
176
     1
 40
0.6
176
     1
 41
30.0
176
     1
 63
     7
176
     1
 74
     0
176
     1
 91
        0
176
     1
 64
     7
176
     1
 65
   257
176
     1
 75
     1
176
     1
175
     1
176
     1
 42
1.0
176
     1
 92
        8
176
     1
 66
     7
176
     1
 43
1.0
176
     1
 76
     1
176
     1
 77
     6
176
     1
 78
     2
176
     1
 67
     7
176
     1
 79
     5
176
     1
170
     0
176
     1
171
     0
176
     1
290
     0
176
     1
 93
       13
176
     1
 44
0.0
176
     1
173
     0
176
     1
  0
VISUALSTYLE
  5
C73
102
{ACAD_REACTORS
330
C71
102
}
330
C71
100
AcDbVisualStyle
  2
FlatWithEdges
 70
     1
177
     2
291
     1
 71
     2
176
     1
 72
     1
176
     1
 73
     1
176
     1
 90
        2
176
     1
 40
0.6
176
     1
 41
30.0
176
     1
 63
     7
176
     1
 74
     1
176
     1
 91
        0
176
     1
 64
     7
176
     1
 65
   257
176
     1
 75
     1
176
     1
175
     1
176
     1
 42
1.0
176
     1
 92
        0
176
     1
 66
   257
176
     1
 43
1.0
176
     1
 76
     1
176
     1
 77
     6
176
     1
 78
     2
176
     1
 67
     7
176
     1
 79
     5
176
     1
170
     0
176
     1
171
     0
176
     1
290
     0
176
     1
 93
       13
176
     1
 44
0.0
176
     1
173
     0
176
     1
  0
VISUALSTYLE
  5
C74
102
{ACAD_REACTORS
330
C71
102
}
330
C71
100
AcDbVisualStyle
  2
Gouraud
 70
     2
177
     2
291
     1
 71
     2
176
     1
 72
     2
176
     1
 73
     1
176
     1
 90
        2
176
     1
 40
0.6
176
     1
 41
30.0
176
     1
 63
     7
176
     1
 74
     0
176
     1
 91
        0
176
     1
 64
     7
176
     1
 65
   257
176
     1
 75
     1
176
     1
175
     1
176
     1
 42
1.0
176
     1
 92
        0
176
     1
 66
     7
176
     1
 43
1.0
176
     1
 76
     1
176
     1
 77
     6
176
     1
 78
     2
176
     1
 67
     7
176
     1
 79
     5
176
     1
170
     0
176
     1
171
     0
176
     1
290
     0
176
     1
 93
       13
176
     1
 44
0.0
176
     1
173
     0
176
     1
  0
VISUALSTYLE
  5
C75
102
{ACAD_REACTORS
330
C71
102
}
330
C71
100
AcDbVisualStyle
  2
GouraudWithEdges
 70
     3
177
     2
291
     1
 71
     2
176
     1
 72
     2
176
     1
 73
     1
176
     1
 90
        2
176
     1
 40
0.6
176
     1
 41
30.0
176
     1
 63
     7
176
     1
 74
     1
176
     1
 91
        0
176
     1
 64
     7
176
     1
 65
   257
176
     1
 75
     1
176
     1
175
     1
176
     1
 42
1.0
176
     1
 92
        0
176
     1
 66
   257
176
     1
 43
1.0
176
     1
 76
     1
176
     1
 77
     6
176
     1
 78
     2
176
     1
 67
     7
176
     1
 79
     5
176
     1
170
     0
176
     1
171
     0
176
     1
290
     0
176
     1
 93
       13
176
     1
 44
0.0
176
     1
173
     0
176
     1
  0
VISUALSTYLE
  5
C79
102
{ACAD_REACTORS
330
C71
102
}
330
C71
100
AcDbVisualStyle
  2
Hidden
 70
     6
177
     2
291
     0
 71
     1
176
     1
 72
     2
176
     1
 73
     2
176
     1
 90
        0
176
     1
 40
0.6
176
     1
 41
30.0
176
     1
 63
     7
176
     1
 74
     2
176
     1
 91
        2
176
     1
 64
     7
176
     1
 65
   257
176
     1
 75
     2
176
     1
175
     1
176
     1
 42
40.0
176
     1
 92
        0
176
     1
 66
   257
176
     1
 43
1.0
176
     1
 76
     1
176
     1
 77
     6
176
     1
 78
     2
176
     1
 67
     7
176
     1
 79
     3
176
     1
170
     0
176
     1
171
     0
176
     1
290
     0
176
     1
 93
        1
176
     1
 44
0.0
176
     1
173
     0
176
     1
  0
VISUALSTYLE
  5
C87
102
{ACAD_REACTORS
330
C71
102
}
330
C71
100
AcDbVisualStyle
  2
JitterOff
 70
    20
177
     2
291
     1
 71
     2
176
     0
 72
     2
176
     0
 73
     0
176
     0
 90
        0
176
     0
 40
0.6
176
     0
 41
30.0
176
     0
 63
     7
176
     0
 74
     1
176
     0
 91
        4
176
     0
 64
     7
176
     0
 65
   257
176
     0
 75
     1
176
     0
175
     1
176
     0
 42
1.0
176
     0
 92
       10
176
     2
 66
     7
176
     0
 43
1.0
176
     0
 76
     1
176
     0
 77
     6
176
     0
 78
     2
176
     0
 67
     7
176
     0
 79
     5
176
     0
170
     0
176
     0
171
     0
176
     0
290
     0
176
     0
 93
        1
176
     0
 44
0.0
176
     0
173
     0
176
     0
  0
VISUALSTYLE
  5
C7F
102
{ACAD_REACTORS
330
C71
102
}
330
C71
100
AcDbVisualStyle
  2
Linepattern
 70
    14
177
     2
291
     1
 71
     2
176
     1
 72
     2
176
     1
 73
     0
176
     1
 90
        0
176
     1
 40
0.6
176
     1
 41
30.0
176
     1
 63
     7
176
     1
 74
     1
176
     1
 91
        4
176
     1
 64
     7
176
     1
 65
   257
176
     1
 75
     7
176
     1
175
     7
176
     1
 42
1.0
176
     1
 92
        8
176
     1
 66
     7
176
     1
 43
1.0
176
     1
 76
     1
176
     1
 77
     6
176
     1
 78
     2
176
     1
 67
     7
176
     1
 79
     5
176
     1
170
     0
176
     1
171
     0
176
     1
290
     0
176
     1
 93
        1
176
     1
 44
0.0
176
     1
173
     0
176
     1
  0
VISUALSTYLE
  5
C88
102
{ACAD_REACTORS
330
C71
102
}
330
C71
100
AcDbVisualStyle
  2
OverhangOff
 70
    21
177
     2
291
     1
 71
     2
176
     0
 72
     2
176
     0
 73
     0
176
     0
 90
        0
176
     0
 40
0.6
176
     0
 41
30.0
176
     0
 63
     7
176
     0
 74
     1
176
     0
 91
        4
176
     0
 64
     7
176
     0
 65
   257
176
     0
 75
     1
176
     0
175
     1
176
     0
 42
1.0
176
     0
 92
        9
176
     2
 66
     7
176
     0
 43
1.0
176
     0
 76
     1
176
     0
 77
     6
176
     0
 78
     2
176
     0
 67
     7
176
     0
 79
     5
176
     0
170
     0
176
     0
171
     0
176
     0
290
     0
176
     0
 93
        1
176
     0
 44
0.0
176
     0
173
     0
176
     0
  0
VISUALSTYLE
  5
C7B
102
{ACAD_REACTORS
330
C71
102
}
330
C71
100
AcDbVisualStyle
  2
Realistic
 70
     8
177
     2
291
     0
 71
     2
176
     1
 72
     2
176
     1
 73
     0
176
     1
 90
        2
176
     1
 40
0.6
176
     1
 41
30.0
176
     1
 63
     7
176
     1
 74
     0
176
     1
 91
        0
176
     1
 64
     7
176
     1
 65
   257
176
     1
 75
     1
176
     1
175
     1
176
     1
 42
1.0
176
     1
 92
        8
176
     1
 66
   257
176
     1
 43
1.0
176
     1
 76
     1
176
     1
 77
     6
176
     1
 78
     2
176
     1
 67
     7
176
     1
 79
     3
176
     1
170
     0
176
     1
171
     0
176
     1
290
     0
176
     1
 93
       13
176
     1
 44
0.0
176
     1
173
     0
176
     1
  0
VISUALSTYLE
  5
C86
102
{ACAD_REACTORS
330
C71
102
}
330
C71
100
AcDbVisualStyle
  2
Shaded
 70
    27
177
     2
291
     0
 71
     2
176
     1
 72
     2
176
     1
 73
     1
176
     1
 90
        2
176
     1
 40
0.6
176
     1
 41
30.0
176
     1
 63
     7
176
     1
 74
     0
176
     1
 91
        4
176
     1
 64
     7
176
     1
 65
   257
176
     1
 75
     1
176
     1
175
     1
176
     1
 42
1.0
176
     1
 92
        8
176
     1
 66
   257
176
     1
 43
1.0
176
     1
 76
     1
176
     1
 77
     6
176
     1
 78
     2
176
     1
 67
     8
176
     1
 79
     3
176
     1
170
     0
176
     1
171
     0
176
     1
290
     0
176
     1
 93
        5
176
     1
 44
0.0
176
     1
173
     0
176
     1
  0
VISUALSTYLE
  5
C85
102
{ACAD_REACTORS
330
C71
102
}
330
C71
100
AcDbVisualStyle
  2
Shaded with edges
 70
    26
177
     2
291
     0
 71
     2
176
     1
 72
     2
176
     1
 73
     1
176
     1
 90
        2
176
     1
 40
0.6
176
     1
 41
30.0
176
     1
 63
     7
176
     1
 74
     1
176
     1
 91
       10
176
     1
 64
     7
176
     1
 65
   257
176
     1
 75
     2
176
     1
175
     1
176
     1
 42
1.0
176
     1
 92
        8
176
     1
 66
   257
176
     1
 43
1.0
176
     1
 76
     1
176
     1
 77
     6
176
     1
 78
     2
176
     1
 67
     7
176
     1
 79
     3
176
     1
170
     0
176
     1
171
     0
176
     1
290
     0
176
     1
 93
        5
176
     1
 44
0.0
176
     1
173
     0
176
     1
  0
VISUALSTYLE
  5
C82
102
{ACAD_REACTORS
330
C71
102
}
330
C71
100
AcDbVisualStyle
  2
Shades of Gray
 70
    23
177
     2
291
     0
 71
     2
176
     1
 72
     2
176
     1
 73
     3
176
     1
 90
        0
176
     1
 40
0.6
176
     1
 41
30.0
176
     1
 63
     7
176
     1
 74
     2
176
     1
 91
        2
176
     1
 64
     7
176
     1
 65
     7
176
     1
 75
     1
176
     1
175
     1
176
     1
 42
40.0
176
     1
 92
        8
176
     1
 66
     7
176
     1
 43
1.0
176
     1
 76
     1
176
     1
 77
     6
176
     1
 78
     2
176
     1
 67
     7
176
     1
 79
     3
176
     1
170
     0
176
     1
171
     0
176
     1
290
     0
176
     1
 93
        1
176
     1
 44
0.0
176
     1
173
     0
176
     1
  0
VISUALSTYLE
  5
C83
102
{ACAD_REACTORS
330
C71
102
}
330
C71
100
AcDbVisualStyle
  2
Sketchy
 70
    24
177
     2
291
     0
 71
     1
176
     1
 72
     2
176
     1
 73
     2
176
     1
 90
        0
176
     1
 40
0.6
176
     1
 41
30.0
176
     1
 63
     7
176
     1
 74
     2
176
     1
 91
        2
176
     1
 64
     7
176
     1
 65
     7
176
     1
 75
     1
176
     1
175
     1
176
     1
 42
40.0
176
     1
 92
       11
176
     1
 66
     7
176
     1
 43
1.0
176
     1
 76
     1
176
     1
 77
     6
176
     1
 78
     2
176
     1
 67
     7
176
     1
 79
     6
176
     1
170
     0
176
     1
171
     0
176
     1
290
     0
176
     1
 93
        1
176
     1
 44
0.0
176
     1
173
     0
176
     1
  0
VISUALSTYLE
  5
C7E
102
{ACAD_REACTORS
330
C71
102
}
330
C71
100
AcDbVisualStyle
  2
Thicken
 70
    13
177
     2
291
     1
 71
     2
176
     1
 72
     2
176
     1
 73
     0
176
     1
 90
        0
176
     1
 40
0.6
176
     1
 41
30.0
176
     1
 63
     7
176
     1
 74
     1
176
     1
 91
        4
176
     1
 64
     7
176
     1
 65
   257
176
     1
 75
     1
176
     1
175
     1
176
     1
 42
1.0
176
     1
 92
       12
176
     1
 66
     7
176
     1
 43
1.0
176
     1
 76
     1
176
     1
 77
     6
176
     1
 78
     2
176
     1
 67
     7
176
     1
 79
     5
176
     1
170
     0
176
     1
171
     0
176
     1
290
     0
176
     1
 93
        1
176
     1
 44
0.0
176
     1
173
     0
176
     1
  0
VISUALSTYLE
  5
C78
102
{ACAD_REACTORS
330
C71
102
}
330
C71
100
AcDbVisualStyle
  2
Wireframe
 70
     5
177
     2
291
     0
 71
     0
176
     1
 72
     2
176
     1
 73
     0
176
     1
 90
        0
176
     1
 40
0.6
176
     1
 41
30.0
176
     1
 63
     7
176
     1
 74
     1
176
     1
 91
        4
176
     1
 64
     7
176
     1
 65
   257
176
     1
 75
     1
176
     1
175
     1
176
     1
 42
1.0
176
     1
 92
        0
176
     1
 66
   257
176
     1
 43
1.0
176
     1
 76
     1
176
     1
 77
     6
176
     1
 78
     2
176
     1
 67
     7
176
     1
 79
     3
176
     1
170
     0
176
     1
171
     0
176
     1
290
     0
176
     1
 93
        1
176
     1
 44
0.0
176
     1
173
     0
176
     1
  0
VISUALSTYLE
  5
C84
102
{ACAD_REACTORS
330
C71
102
}
330
C71
100
AcDbVisualStyle
  2
X-Ray
 70
    25
177
     2
291
     0
 71
     2
176
     1
 72
     2
176
     1
 73
     1
176
     1
 90
        1
176
     1
 40
0.5
176
     1
 41
30.0
176
     1
 63
     7
176
     1
 74
     1
176
     1
 91
        0
176
     1
 64
     7
176
     1
 65
   257
176
     1
 75
     1
176
     1
175
     1
176
     1
 42
1.0
176
     1
 92
        8
176
     1
 66
     7
176
     1
 43
1.0
176
     1
 76
     1
176
     1
 77
     6
176
     1
 78
     2
176
     1
 67
     7
176
     1
 79
     3
176
     1
170
     0
176
     1
171
     0
176
     1
290
     0
176
     1
 93
       13
176
     1
 44
0.0
176
     1
173
     0
176
     1
  0
DICTIONARYVAR
  5
CAF
102
{ACAD_REACTORS
330
4E7
102
}
330
4E7
100
DictionaryVariables
280
     0
  1
1:1
  0
DICTIONARYVAR
  5
CAD
102
{ACAD_REACTORS
330
4E7
102
}
330
4E7
100
DictionaryVariables
280
     0
  1
STANDARD
  0
DICTIONARYVAR
  5
CAC
102
{ACAD_REACTORS
330
4E7
102
}
330
4E7
100
DictionaryVariables
280
     0
  1
STANDARD
  0
DICTIONARYVAR
  5
4E8
102
{ACAD_REACTORS
330
4E7
102
}
330
4E7
100
DictionaryVariables
280
     0
  1
1
  0
DICTIONARYVAR
  5
1819
102
{ACAD_REACTORS
330
4E7
102
}
330
4E7
100
DictionaryVariables
280
     0
  1
0
  0
DICTIONARYVAR
  5
CB1
102
{ACAD_REACTORS
330
4E7
102
}
330
4E7
100
DictionaryVariables
280
     0
  1
1
  0
DICTIONARYVAR
  5
CB2
102
{ACAD_REACTORS
330
4E7
102
}
330
4E7
100
DictionaryVariables
280
     0
  1
15
  0
DICTIONARYVAR
  5
CB0
102
{ACAD_REACTORS
330
4E7
102
}
330
4E7
100
DictionaryVariables
280
     0
  1
0
  0
DICTIONARYVAR
  5
CAE
102
{ACAD_REACTORS
330
4E7
102
}
330
4E7
100
DictionaryVariables
280
     0
  1
0
  0
DICTIONARYVAR
  5
1818
102
{ACAD_REACTORS
330
4E7
102
}
330
4E7
100
DictionaryVariables
280
     0
  1
127
  0
DICTIONARY
  5
13D1
330
2E3
100
AcDbDictionary
280
     1
281
     1
  3
ADSK_XREC_LAYOUTTHUMBNAIL
360
13D2
  0
DICTIONARY
  5
C62
330
C61
100
AcDbDictionary
280
     1
281
     1
  3
BUMPTILE
360
C64
  3
DIFFUSETILE
360
C63
  3
OPACITYTILE
360
C67
  3
REFLECTIONTILE
360
C66
  3
REFRACTIONTILE
360
C68
  3
SPECULARTILE
360
C65
  0
DICTIONARY
  5
C5A
330
C59
100
AcDbDictionary
280
     1
281
     1
  3
BUMPTILE
360
C5C
  3
DIFFUSETILE
360
C5B
  3
OPACITYTILE
360
C5F
  3
REFLECTIONTILE
360
C5E
  3
REFRACTIONTILE
360
C60
  3
SPECULARTILE
360
C5D
  0
DICTIONARY
  5
C6A
330
C69
100
AcDbDictionary
280
     1
281
     1
  3
BUMPTILE
360
C6C
  3
DIFFUSETILE
360
C6B
  3
OPACITYTILE
360
C6F
  3
REFLECTIONTILE
360
C6E
  3
REFRACTIONTILE
360
C70
  3
SPECULARTILE
360
C6D
  0
DICTIONARY
  5
17D2
330
C8C
100
AcDbDictionary
280
     1
281
     1
  3
ACAD_ROUNDTRIP_2008_TABLESTYLE_CELLSTYLEMAP
360
2799
  0
XRECORD
  5
13D2
102
{ACAD_REACTORS
330
13D1
102
}
330
13D1
100
AcDbXrecord
280
     1
310
280000000001000063000000010008000000000000630000000000000000000000010000000000003028210000000000C8C8C8000000000000000000000000000000000000000000000000000000000000000000330000006600000099000000CC000000FF00000000330000333300006633000099330000CC330000FF3300
310
0000660000336600006666000099660000CC660000FF66000000990000339900006699000099990000CC990000FF99000000CC000033CC000066CC000099CC0000CCCC0000FFCC000000FF000033FF000066FF000099FF0000CCFF0000FFFF000000003300330033006600330099003300CC003300FF003300003333003333
310
33006633330099333300CC333300FF33330000663300336633006666330099663300CC663300FF66330000993300339933006699330099993300CC993300FF99330000CC330033CC330066CC330099CC3300CCCC3300FFCC330000FF330033FF330066FF330099FF3300CCFF3300FFFF330000006600330066006600660099
310
006600CC006600FF00660000336600333366006633660099336600CC336600FF33660000666600336666006666660099666600CC666600FF66660000996600339966006699660099996600CC996600FF99660000CC660033CC660066CC660099CC6600CCCC6600FFCC660000FF660033FF660066FF660099FF6600CCFF6600
310
FFFF660000009900330099006600990099009900CC009900FF00990000339900333399006633990099339900CC339900FF33990000669900336699006666990099669900CC669900FF66990000999900339999006699990099999900CC999900FF99990000CC990033CC990066CC990099CC9900CCCC9900FFCC990000FF99
310
0033FF990066FF990099FF9900CCFF9900FFFF99000000CC003300CC006600CC009900CC00CC00CC00FF00CC000033CC003333CC006633CC009933CC00CC33CC00FF33CC000066CC003366CC006666CC009966CC00CC66CC00FF66CC000099CC003399CC006699CC009999CC00CC99CC00FF99CC0000CCCC0033CCCC0066CC
310
CC0099CCCC00CCCCCC00FFCCCC0000FFCC0033FFCC0066FFCC0099FFCC00CCFFCC00FFFFCC000000FF003300FF006600FF009900FF00CC00FF00FF00FF000033FF003333FF006633FF009933FF00CC33FF00FF33FF000066FF003366FF006666FF009966FF00CC66FF00FF66FF000099FF003399FF006699FF009999FF00CC
310
99FF00FF99FF0000CCFF0033CCFF0066CCFF0099CCFF00CCCCFF00FFCCFF0000FFFF0033FFFF0066FFFF0099FFFF00CCFFFF00FFFFFF00000000000D0D0D001A1A1A00282828003535350043434300505050005D5D5D006B6B6B00787878008686860093939300A1A1A100AEAEAE00BBBBBB00C9C9C900D6D6D600E4E4E400
310
F1F1F100FFFFFF000000000000000000000000000000000000000000000000000000000000000000000000000000000000000000000000000000000000000000000000000000000000000000000000000000000000000000000000000000000000000000000000000000000000000000000000000000000000000000000000
310
00000000000000000000000000000000000000000000000000000000000000002800000000000000000000000028280000000000000000000000000000000000280000000000000000000000000000000000000000000000000000000000000000000000000000000000280000000000000000280000000000000000000000
310
00280000000000000000000000000000000000282800000000000000000000000000000000000000000000000000000000000000000000000000000000000000000000000000000000000000000000000000000000000000000000000000000000000000000000000000000000000000000000000000000000000000000000
310
00000000000000000000000000000000000000000000000000000000000000000000280000000000000000000000002828000000000000000000000000000000000028000000000000000000000000000000000000000000000000000000000000000000000000000000000028000000000000000028000000000000000000
310
00000028000000000000000000000000000000000028280000000000000000000000000000000000000000000000000000000000000000000000000000000000000000000000000000000000000000000000000000000000000000000000000000000000000000000000000000000000000000000000000000000000000000
310
00000000000000000000000000000000000000000000000000000000000000000000000028000000000000000000000000282800000000000000000000000000000000002800000000000000000000000000000000000000000000000000000000000000000000000000000000002800000000000000002800000000000000
310
00000000002800000000000000000000000000000000002828000000000000000000000000000000000000000000000000000000000000000000000000000000000000000000000000000000000000000000000000000000000000000000000000000000000000000000000000000000000000000000000000000000000000
310
00000000000000000000000000000000000000000000000000000000000000000000000000002800000000000000000000000028280000000000000000000000000000000000280000000000000000000000000000000000000000000000000000000000000000000000000000000000280000000000000000280000000000
310
00000000000000280000000000000000000000000000000000282800000000000000000000000000000000000000000000000000000000000000000000000000000000000000000000000000000000000000000000000000000000000000000000000000000000000000000000000000000000000000000000000000000000
310
00000000000000000000000000000000000000000000000000000000000000000000000000000000280000000000000000000000002828000000000000000000000000000000000028000000000000000000000000000000000000000000000000000000000000000000000000000000000028000000000000000028000000
310
00000000000000000028000000000000000000000000000000000028280000000000000000000000000000000000000000000000000000000000000000000000000000000000000000000000000000000000000000000000000000000000000000000000000000000000000000000000000000000000000000000000000000
310
00000000000000000000000000000000000000000000000000000000000000000000000000000000000028000000000000000000000000282800000000000000000000000000000000002800000000000000000000000000000000000000000000000000000000000000000000000000000000002800000000000000002800
310
00000000000000000000002800000000000000000000000000000000002828000000000000000000000000000000000000000000000000000000000000000000000000000000000000000000000000000000000000000000000000000000000000000000000000000000000000000000000000000000000000000000000000
310
00000000000000000000000000000000000000000000000000000000000000000000000000000000000000002800000000000000000000000028280000000000000000000000000000000000280000000000000000000000000000000000000000000000000000000000000000000000000000000000280000000000000000
310
28000000000000000000000000280000000000000000000000000000000000282800000000000000000000000000000000000000000000000000000000000000000000000000000000000000000000000000000000000000000000000000000000000000000000000000000000000000000000000000000000000000000000
310
00000000000000000000000000000000000000000000000000000000000000000000000000000000000000000000280000000000000000000000002828000000000000000000000000000000000028000000000000000000000000000000000000000000000000000000000000000000000000000000000028000000000000
310
00002800000000000000000000000028000000000000000000000000000000000028280000000000000000000000000000000000000000000000000000000000000000000000000000000000000000000000000000000000000000000000000000000000000000000000000000000000000000000000000000000000000000
310
00000000000000000000000000000000000000000000000000000000000000000000000000000000000000000000000028000000000000000000000000282800000000000000000000000000000000002800000000000000000000000000000000000000000000000000000000000000000000000000000000002800000000
310
00000000280000000000000000000000002800000000000000000000000000000000002828000000000000000000000000000000000000000000000000000000000000000000000000000000000000000000000000000000000000000000000000000000000000000000000000000000000000000000000000000000000000
310
00000000000000000000000000000000000000000000000000000000000000000000000000000000000000000000000000002800000000000000000000000028280000000000000000000000000000000000280000000000000000000000000000000000000000000000000000000000000000000000000000000000280000
310
00000000000028000000000000000000000000282800000000000000000000000000000000282800000000000000000000000000000000000000000000000000000000000000000000000000000000000000000000000000000000000000000000000000000000000000000000000000000000000000000000000000000000
310
00000000000000000000000000000000000000000000000000000000000000000000000000000000000000000000000000000000280000000000000000000000000028280000000000000000000000000000002828000000000000000000000000000000000000000000000000000000000000000000000000000000000028
310
00000000000000002800000000000000000000000028282800000000000000000000000000002828280000000000000000000000000000000000000000000000000000000000000000000000000000000000000000000000000000000000000000000000000000000000000000000000000000000000000000000000000000
310
00000000000000000000000000000000000000000000000000000000000000000000000000000000000000000000000000000000000028000000000000000000000000002828280000000000000000000000000028002800000000000000000000000000000000000000000000000000000000000000000000000000000000
310
00280000000000000000280000000000000000000000002800280000000000000000000000000000282800000000000000000000000000000000000000000000000000000000000000000000000000000000000000000000000000000000000000000000000000000000000000000000000000000000000000000000000000
310
00000000000000000000000000000000000000000000000000000000000000000000000000000000000000000000000000000000000000002800000000000000000000000000002828282828282828282828282828282828000000000000000000000000000000000000000000000000000000000000000000000000000000
310
00000028000000000000000028000000000000000000000000002828282828282828282828282828282828000000000000000000000000000000000000000000000000000000000000000000000000000000000000000000000000000000000000000000000000000000000000000000000000000000000000000000000000
310
00000000000000000000000000000000000000000000000000000000000000000000000000000000000000000000000000000000000000000000280000000000000000000000000000000000000028282828282828000000000000000000000000000000000000000000000000000000000000000000000000000000000000
310
00000000002800000000000000002800000000000000000000000000000000000028282828282828000000000000000000000000000000000000000000000000000000000000000000000000000000000000000000000000000000000000000000000000000000000000000000000000000000000000000000000000000000
310
00000000000000000000000000000000000000000000000000000000000000000000000000000000000000000000000000000000000000000000000028000000000000000000000000000000000000000000000000000000000000000000000000000000000000000000000000000000000000000000000000000000000000
310
00000000000000280000000000000000280000000000000000000000000000000000000000000000000000000000000000000000000000000000000000000000000000000000000000000000000000000000000000000000000000000000000000000000000000000000000000000000000000000000000000000000000000
310
00000000000000000000000000000000000000000000000000000000000000000000000000000000000000000000000000000000000000000000000000002800000000000000000000000000000000000000000000000000000000000000000000000000000000000000000000000000000000000000000000000000000000
310
00000000000000000028000000000000000028000000000000000000000000000000000000000000000000000000000000000000000000000000000000000000000000000000000000000000000000000000000000000000000000000000000000000000000000000000000000000000000000000000000000000000000000
310
00000000000000000000000000000000000000000000000000000000000000000000000000000000000000000000000000000000000000000000000000000000280000000000000000000000000000000000000000000000000000000000000000000000000000000000000000000000000000000000000000000000000000
310
00000000000000000000002800000000000000002800000000000000000000000000000000000000000000000000000000000000000000000000000000000000000000000000000000000000000000000000000000000000000000000000000000000000000000000000000000000000000000000000000000000000000000
310
00000000000000000000000000000000000000000000000000000000000000000000000000000000000000000000000000000000000000000000000000000000000028000000000000000000000000000000000000000000000000000000000000000000000000000000000000000000000000000000000000000000000000
310
00000000000000000000000000280000000000000000280000000000000000000000000000000000000000000000000000000000000000000000000000000000000000000000000000000000000000000000000000000000000000000000000000000000000000000000000000000000000000000000000000000000000000
310
00000000000000000000000000000000000000000000000000000000000000000000000000000000000000000000000000000000000000000000000000000000000000002800000000DCDCDCDCDCDCDCDCDCDCDCDCDCDCDCDCDCDCDCDCDCDCDCDCDCDCDCDCDCDCDCDCDCDCDCDCDCDCDC000000000000000000000000000000
310
00000000000000000000000000000028000000000000000028000000000000000000000000000000000000000000000000000000000000000000000000000000000000000000000000000000000000000000000000000000000000000000000000000000000000000000000000000000000000000000000000000000000000
310
000000000000000000000000000000000000000000000000000000000000000000000000000000000000000000000000000000000000000000000000000000000000000000002800000000DC000000000000002828282828282828282828282828282828282828000000000000000000DC0000002828282828282828282828
310
282828282828000000000000000000000028000000000000000028000000000000000000000000282828282828282828DCDCDCDCDCDCDCDCDCDCDCDCDCDCDCDCDCDCDCDCDC00002828282828282828282828282828282828000000000000000000000000000000000000000000000000000000000000000000000000000000
310
0000000000000000000000000000000000000000000000000000000000000000000000000000000000000000000000000000000000000000000000000000000000000000000000002800000000DC000000000000002800002800000000000000000000000028000028000000000000000000DC000028282828282828282828
310
28282828282828280000000000000000000000280000000000000000280000000000000000000000002828282828282828282828282828282828282828000000000000000000DC0000282828282828282828282828282828282800000000000000000000000000000000000000000000000000000000000000000000000000
310
00000000000000000000000000000000000000000000000000000000000000000000000000000000000000000000000000000000000000000000000000000000000000000000000000002800000000DC000000000000002800002800000000000000000000000028000028000000000000000000DC00002800000028000000
310
000000000000000000280000000000000000000000280000000000000000280000000000000000000000002800002800000000000000000000000028000028000000000000000000DC000028000000280000000000000000000000280000000000000000000000000000000000000000000000000000000000000000000000
310
000000000000000000000000000000000000000000000000000000000000000000000000000000000000000000000000000000000000000000000000000000000000000000000000000000002800000000DC000000000000002800002800000000000000000000000028000028000000000000000000DC0000280000002800
310
0000000000000000000000280000000000000000000000280000000000000000280000000000000000000000002800002800000000000000000000000028000028000000000000000000DC00002800000028000000000000000000000028000000000000000000000000000000000000000000000000000000000000000000
310
0000000000000000000000000000000000000000000000000000000000000000000000000000000000000000000000000000000000000000000000000000000000000000000000000000000000002800000000DC000000000000002800002800000000000000000000000028000028000000000000000000DC000028000000
310
28000000000000000000000000280000000000000000000000280000000000000000280000000000000000000000002800002800000000000000000000000028000028000000000000000000DC0000280000002800000000000000000000002800000000000000000000000000000000000000000000000000000000000000
310
00000000000000000000000000000000000000000000000000000000000000000000000000000000000000000000000000000000000000000000000000000000000000000000000000000000000000002800000000DC000000000000002800002800000000000000000000000028000028000000000000000000DC00002800
310
000028000000000000000000000000280000000000000000000000280000000000000000280000000000000000000000002800002800000000000000000000000028000028000000000000000000DC000028000000280000000000000000000000280000000000000000000000000000000000000000000000000000000000
310
00000000000000000000000000000000000000000000000000000000000000000000000000000000000000000000000000000000000000000000000000000000000000000000000000000000000000000000280000DCDCDC000000000000002800002800000000000000000000000028000028000000000000000000DC0000
310
2800000028000000000000000000000000280000000000000000000000280000000000000000280000000000000000000000002800002800000000000000000000000028000028000000000000000000DC00002800000028000000000000000000000028000000000000000000000000000000000000000000000000000000
310
000000000000000000000000000000000000000000000000000000000000000000000000000000000000000000000000000000000000000000000000000000000000000000000000000000000000000000000000280000DCDCDC000000000000002800002800000000000000000000000028000028000000000000000000DC
310
00002800000028000000000000000000000000280000000000000000000000280000000000000000280000000000000000000000002800002800000000000000000000000028000028000000000000000000DC0000280000002800000000000000000000002800000000000000000000000000000000000000000000000000
310
0000000000000000000000000000000000000000000000000000000000000000000000000000000000000000000000000000000000000000000000000000000000000000000000000000000000000000000000000000280000DCDCDC0000000000002828000028000000000000000000000000280000282800000000000000
310
00DC00002800000028000000000000000000000000280000000000000000000000280000000000000000280000000000000000000000002800002800000000000000000000000028000028000000000000000000DC000028000000280000000000000000000000280000000000000000000000000000000000000000000000
310
00000000000000000000000000000000000000000000000000000000000000000000000000000000000000000000000000000000000000000000000000000000000000000000000000000000000000000000000000000000280000DCDCDC000000000000282800002800000000000000000000000028000028002800000000
310
000000DC00002800000028000000000000000000282828280000000000000000000000280000000000000000280000000000000000000000002800002800000000000000000000000028000028000000000000000000DC00002800000028000000000000000000282828000000000000000000000000000000000000000000
310
00000000000000000000000000000000000000000000000000000000000000000000000000000000000000000000000000000000000000000000000000000000000000000000000000000000000000000000000000000000000028000000DCDC00000000002800280000280000000000000000000000002800002800280000
310
0000000000DC00002800000028000000000000000000280000280000000000000000000000280000000000000000280000000000000000000000282800002800000000000000000000000028000028280000000000000000DC0000280000002800000000000000000028002800000000000000000000000000000000000000
310
0000000000000000000000000000000000000000000000000000000000000000000000000000000000000000000000000000000000000000000000000000000000000000000000000000000000000000000000000000000000000000280000DCDCDC0000000028000028000028000000282828282828000000280000280000
310
28000000000000DC00002828000028000000000000000000280000280000000000000000000000280000000000000000280000000000000000000028002800002800000000000000000000000028000028002800000000000000DC000028000000280000000000000000002800280000000000000000000000000000000000
310
00000000000000000000000000000000000000000000000000000000000000000000000000000000000000000000000000000000000000000000000000000000000000000000000000000000000000000000000000000000000000000000280000DCDCDC000000002800002800002800282800000000000028280028000028
310
000000280000000000DC00002800282828000000000000000000280000280000000000000000000000280000000000000000280000000000000000002800002800002800000028282828282800000028000028000028000000000000DC00002800000028000000000000000000280028000000000000000000000000000000
310
0000000000000000000000000000000000000000000000000000000000000000000000000000000000000000000000000000000000000000000000000000000000000000000000000000000000000000000000000000000000000000000000002800000000DC00000028000000280000282800000000000000000000282800
310
0028000000002800000000DC00002800000028000000000000000000280000280000000000000000000000280000000000000000280000000000000000280000002800002800282800000000000028280028000028000000280000000000DC0000282828002800000000000000002800002800000000000000000000000000
310
00000000000000000000000000000000000000000000000000000000000000000000000000000000000000000000000000000000000000000000000000000000000000000000000000000000000000000000000000000000000000000000000000002800000000DC0000002800000028000000000000000000000000000000
310
00000028000000002800000000DC00002800000000000000000000000000280000280000000000000000000000280000000000000000280000000000000000280000002800002828000000000000000000002828000028000000280000000000DC000028000028280000000000000000280000280000000000000000000000
310
000000000000000000000000000000000000000000000000000000000000000000000000000000000000000000000000000000000000000000000000000000000000000000000000000000000000000000000000000000000000000000000000000000002800000000DC000028000000002800000000000000000000000000
310
000000000028000000002800000000DC00002800000000000000000000000000280000280000000000000000000000280000000000000000280000000000000028000000002800000000000000000000000000000000000028000000002800000000DC00002800000028000000000000000028000028000000000000000000
310
0000000000000000000000000000000000000000000000000000000000000000000000000000000000000000000000000000000000000000000000000000000000000000000000000000000000000000000000000000000000000000000000000000000000002800000000DC00002800000000280000000000000000000000
310
00000000000000280000000028000000DCDC00002800000000000000000000000000280000280000000000000000000000280000000000000000280000000000000028000000002800000000000000000000000000000000000028000000002800000000DC0000280000000000000000000000002800002800000000000000
310
00000000000000000000000000000000000000000000000000000000000000000000000000000000000000000000000000000000000000000000000000000000000000000000000000000000000000000000000000000000000000000000000000000000000000002800000000DC0000280000000028000000000000000000
310
000000000000000000280000000000280000DCDC0000280000000000000000000000000028000028000000000000000000000028000000000000000028000000000000002800000000280000000000000000000000000000000000002800000000280000DCDCDC000028000000000000000000000000280000280000000000
310
000000000000000000000000000000000000000000000000000000000000000000000000000000000000000000000000000000000000000000000000000000000000000000000000000000000000000000000000000000000000000000000000000000000000000000002800000000DC000028000000002800000000000000
310
0000000000000000000000280000000000280000DCDC0000280000000000000000000000000028000028000000000000000000000028000000000000000028000000000000280000000000280000000000000000000000000000000000002800000000002800DC00DC00002800000000000000000000000028000028000000
310
0000000000000000000000000000000000000000000000000000000000000000000000000000000000000000000000000000000000000000000000000000000000000000000000000000000000000000000000000000000000000000000000000000000000000000000000002800000000DC00280000000000280000000000
310
00000000000000000000000000280000000000280000DCDC0000280000000000000000000000000028000028000000000000000000000028000000000000000028000000000000280000000000280000000000000000000000000000000000002800000000002800DCDCDC0000280000000000000000000000002800002800
310
00000000000000000000000000000000000000000000000000000000000000000000000000000000000000000000000000000000000000000000000000000000000000000000000000000000000000000000000000000000000000000000000000000000000000000000000000002800000000DC0028000000000028000000
310
000000000000000000000000000000DCDCDCDCDC00DCDCDCDCDC0000280000000000000000000000000028000028000000000000000000000028000000000000000028000000000000280000000000280000000000000000000000000000000000002800000000002800DCDCDC000028000000000000000000000000280000
310
280000000000000000000000000000000000000000000000000000000000000000000000000000000000000000000000000000000000000000000000000000000000000000000000000000000000000000000000000000000000000000000000000000000000000000000000000000002800000000DCDCDCDCDCDCDCDCDCDC
310
DCDCDCDCDCDCDCDCDC0000000000000000DCDCDCDCDC00DCDCDC00DC00002800000000000000000000000000280000280000000000000000000000280000000000000000280000000000002800000000002800000000000000000000000000000000000028000000000028000000DC00002800000000000000000000000028
310
00002800000000000000000000000000000000000000000000000000000000000000000000000000000000000000000000000000000000000000000000000000000000000000000000000000000000000000000000000000000000000000000000000000000000000000000000000000000028000000000000280000000000
310
28000000000000000000000000000000000000280000DC00002800DC00DC00002800000000000000000000000000280000280000000000000000000000280000000000000000280000000000002800000000002800000000000000000000000000000000000028000000000028000000DC0000280000000000000000000000
310
00280000280000000000000000000000000000000000000000000000000000000000000000000000000000000000000000000000000000000000000000000000000000000000000000000000000000000000000000000000000000000000000000000000000000000000000000000000000000002800000000000028000000
310
0000280000000000000000000000000000000000002800DCDC00002800DC00DC00002800000000000000000000000000280000280000000000000000000000280000000000000000280000000000002800000000002800000000000000000000000000000000000028000000000028000000DC000028000000000000000000
310
00000028000028000000000000000000000000000000000000000000000000000000000000000000000000000000000000000000000000000000000000000000000000000000000000000000000000000000000000000000000000000000000000000000000000000000000000000000000000000000280000000000002800
310
00000000002800000000000000000000000000000000280000DCDC000028DCDC00DC00002800000000000000000000000000280000280000000000000000000000280000000000000000280000000000002800000000000028000000000000000000000000000000002800000000000028000000DC00002800000000000000
310
00000000002800002800000000000000000000000000000000000000000000000000000000000000000000000000000000000000000000000000000000000000000000000000000000000000000000000000000000000000000000000000000000000000000000000000000000000000000000000000000028000000000000
310
00280000000000280000000000000000000000000000000028000000DC0028DCDCDC00DC00002800000000000000000000000000280000280000000000000000000000280000000000000000280000000000002800000000000028000000000000000000000000000000002800000000000028000000DC0000280000000000
310
00000000000000280000280000000000000000000000000000000000000000000000000000000000000000000000000000000000000000000000000000000000000000000000000000000000000000000000000000000000000000000000000000000000000000000000000000000000000000000000000000002800000000
310
00000028000000000028000000000000000000000000000000002800000000002800000000DC00002800000000000000000000000000280000280000000000000000000000280000000000000000280000000000000028000000000028000000000000000000000000000000002800000000002800000000DC000028000000
310
00000000000000000028000028000000000000000000000000000000000000000000000000000000000000000000000000000000000000000000000000000000000000000000000000000000000000000000000000000000000000000000000000000000000000000000000000000000000000000000000000000000280000
310
000000000028000000000000282800000000000000000000000000280000000000002800000000DC00000028000000000000000000000000280000280000000000000000000000280000000000000000280000000000000028000000000000282800000000000000000000000000280000000000002800000000DC00000028
310
00000000000000000000002800002800000000000000000000000000000000000000000000000000000000000000000000000000000000000000000000000000000000000000000000000000000000000000000000000000000000000000000000000000000000000000000000000000000000000000000000000000000028
310
0000000000000000280000000000000028000000000000000000000028000000000000280000000000DC00000028000000000000000000000000280000280000000000000000000000280000000000000000280000000000000000280000000000000028000000000000000000002828000000000000280000000000DC0000
310
00280000000000000000000000280000280000000000000000000000000000000000000000000000000000000000000000000000000000000000000000000000000000000000000000000000000000000000000000000000000000000000000000000000000000000000000000000000000000000000000000000000000000
310
00280000000000000000002800000000000000282828000000000028282800000000000000280000000000DC00000000280000000000000000000000280000280000000000000000000000280000000000000000280000000000000000280000000000000000282800000000002828280000000000000000280000000000DC
310
00000000280000000000000000000028000028000000000000000000000000000000000000000000000000000000000000000000000000000000000000000000000000000000000000000000000000000000000000000000000000000000000000000000000000000000000000000000000000000000000000000000000000
310
000000280000000000000000002800000000000000000000282828282800000000000000000028000000000000DC000000000028282828282828282828282800002800000000000000000000002800000000000000002800000000000000000028000000000000000000282828282800000000000000000000280000000000
310
00DC0000000000282828282828282828282800002800000000000000000000000000000000000000000000000000000000000000000000000000000000000000000000000000000000000000000000000000000000000000000000000000000000000000000000000000000000000000000000000000000000000000000000
310
0000000000280000000000000000000028000000000000000000000000000000000000000000000028000000000000DC00000000000000000000000000000000280000280000000000000000000000280000000000000000280000000000000000000028000000000000000000000000000000000000000000002800000000
310
000000DC000000000000000000000000000000280000280000000000000000000000000000000000000000000000000000000000000000000000000000000000000000000000000000000000000000000000000000000000000000000000000000000000000000000000000000000000000000000000000000000000000000
310
00000000000000280000000000000000000000280000000000000000000000000000000000000000002800000000000000DC0000000000000000000000000000000028000028000000000000000000000028000000000000000028000000000000000000000028000000000000000000000000000000000000000028000000
310
0000000000DC00000000000000000000000000000028000028000000000000000000000000000000000000000000000000000000000000000000000000000000000000000000000000000000000000000000000000000000000000000000000000000000000000000000000000000000000000000000000000000000000000
310
000000000000000000280000000000000000000000002828000000000000000000000000000000000028280000000000000000DC000000000000000000000000000000002800002800000000000000000000002800000000000000002800000000000000000000000028000000000000000000000000000000000000280000
310
00000000000000DC0000000000000000000000000000000028002800000000000000000000000000000000000000000000000000000000000000000000000000000000000000000000000000000000000000000000000000000000000000000000000000000000000000000000000000000000000000000000000000000000
310
0000000000000000000000280000000000000000000000000000282800000000002828280000000000282800000000000000000000DC00000000000000000000000000000000280000280000000000000000000000280000000000000000280000000000000000000000000028280000000000002828000000000000282800
310
000000000000000000DC000000000000000000000000000000002800280000000000000000000000000000000000000000000000000000000000000000000000000000000000000000000000000000000000000000000000000000000000000000000000000000000000000000000000000000000000000000000000000000
310
00000000000000000000000000280000000000000000000000000000000028282800002800280000282828000000000000000000000000DC0000000000000000000000000000000028000028000000000000000000000028000000000000000028000000000000000000000000000000282800000028000028000028282800
310
0000000000000000000000DC00000000000000000000000000000000280028000000000000000000000000000000000000000000000000000000000000000000000000000000000000000000000000000000000000000000000000000000000000000000000000000000000000000000000000000000000000000000000000
310
000000000000000000000000000000280000000000000000000000000000000000000028282828282828DCDCDCDCDCDCDCDCDCDCDCDCDCDCDCDCDC00000000000000000000000000000028282828000000000000000000000028000000000000000028000000000000000000000000000000000028282828DCDCDCDCDCDCDC
310
DCDCDCDCDCDCDCDCDCDCDCDCDCDC0000000000000000000000000000000028282800000000000000000000000000000000000000000000000000000000000000000000000000000000000000000000000000000000000000000000000000000000000000000000000000000000000000000000000000000000000000000000
310
00000000000000000000000000000000002800000000000000000000000000000000000000000000000000000000000000000000000000000000000000000000000000000000000000000000000000000000000000000000000000280000000000000000280000000000000000000000000000000000000000000000000000
310
00000000000000000000000000000000000000000000000000000000000000000000000000000000000000000000000000000000000000000000000000000000000000000000000000000000000000000000000000000000000000000000000000000000000000000000000000000000000000000000000000000000000000
310
00000000000000000000000000000000000000280000000000000000000000000000000000000000000000000000000000000000000000000000000000000000000000000000000000000000000000000000000000000000000000000028000000000000000028000000000000000000000000000000000000000000000000
310
00000000000000000000000000000000000000000000000000000000000000000000000000000000000000000000000000000000000000000000000000000000000000000000000000000000000000000000000000000000000000000000000000000000000000000000000000000000000000000000000000000000000000
310
00000000000000000000000000000000000000000028000000000000000000000000000000000000000000000000000000000000000000000000000000000000000000000000000000000000000000000000000000000000000000000000002800000000000000002800000000000000000000000000000000000000000000
310
00000000000000000000000000000000000000000000000000000000000000000000000000000000000000000000000000000000000000000000000000000000000000000000000000000000000000000000000000000000000000000000000000000000000000000000000000000000000000000000000000000000000000
310
00000000000000000000000000000000000000000000002800000000000000000000000000000000000000000000000000000000000000000000000000000000000000000000000000000000000000000000000000000000000000000000000000280000000000000000280000000000000000000000000000000000000000
310
00000000000000000000000000000000000000000000000000000000000000000000000000000000000000000000000000000000000000000000000000000000000000000000000000000000000000000000000000000000000000000000000000000000000000000000000000000000000000000000000000000000000000
310
00000000000000000000000000000000000000000000000000280000000000000000000000000000000000000000000000000000000000000000000000000000000000000000000000000000000000000000000000000000000000000000000000000028000000000000000028000000000000000000000000000000000000
310
00000000000000000000000000000000000000000000000000000000000000000000000000000000000000000000000000000000000000000000000000000000000000000000000000000000000000000000000000000000000000000000000000000000000000000000000000000000000000000000000000000000000000
310
00000000000000000000000000000000000000000000000000000028000000000028282828282828280000002828282800000000000000000000000000000000000000000000000000000000000000000000000000000000000000000000000000000000002800000000000000002800000000002828282828282828000028
310
28282800000000000000000000000000000000000000000000000000000000000000000000000000000000000000000000000000000000000000000000000000000000000000000000000000000000000000000000000000000000000000000000000000000000000000000000000000000000000000000000000000000000
310
00000000000000000000000000000000000000000000000000000000002800000000002828282828282828282828282828280000000000000000000000000000000000000000000000000000000000000000000000000000000000000000000000000000000000280000000000000000280000000000282828282828282828
310
28282828282800000000000000000000000000000000000000000000000000000000000000000000000000000000000000000000000000000000000000000000000000000000000000000000000000000000000000000000000000000000000000000000000000000000000000000000000000000000000000000000000000
310
00000000000000000000000000000000000000000000000000000000000000280000000000280028282828002800000028282828000000000000000000000000000000000000000000000000000000000000000000000000000000000000000000000000000000000028000000000000000028000000000028002828282800
310
28000028282828000000000000000000000000000000000000000000000000000000000000000000000000000000000000000000000000000000000000000000000000000000000000000000000000000000000000000000000000000000000000000000000000000000000000000000000000000000000000000000000000
310
00000000000000000000000000000000000000000000000000000000000000000028000000000000000000000000000000000000000000000000000000000000000000000000000000000000000000000000000000000000000000000000000000000000000000000000002800000000000000002800000000000000000000
310
00000000000000000000000000000000000000000000000000000000000000000000000000000000000000000000000000000000000000000000000000000000000000000000000000000000000000000000000000000000000000000000000000000000000000000000000000000000000000000000000000000000000000
310
00000000000000000000000000000000000000000000000000000000000000000000002800000000000000000000000000000000000000000000000000000000000000000000000000000000000000000000000000000000000000000000000000000000000000000000000000280000000000000000280000000000000000
310
00000000000000000000000000000000000000000000000000000000000000000000000000000000000000000000000000000000000000000000000000000000000000000000000000000000000000000000000000000000000000000000000000000000000000000000000000000000000000000000000000000000000000
310
00000000000000000000000000000000000000000000000000000000000000000000000000280000000000000000000000000000000000000000000000000000000000000000000000000000000000000000000000000000000000000000000000000000000000000000000000000028000000000000000028000000000000
310
00000000000000000000000000000000000000000000000000000000000000000000000000000000000000000000000000000000000000000000000000000000000000000000000000000000000000000000000000000000000000000000000000000000000000000000000000000000000000000000000000000000000000
310
00000000000000000000000000000000000000000000000000000000000000000000000000000028000000000000000000000000000000000000000000000000000000000000000000000000000000000000000000000000000000000000000000000000000000000000000000000000002800000000000000002800000000
310
00000000000000000000000000000000000000000000000000000000000000000000000000000000000000000000000000000000000000000000000000000000000000000000000000000000000000000000000000000000000000000000000000000000000000000000000000000000000000000000000000000000000000
310
00000000000000000000000000000000000000000000000000000000000000000000000000000000002828282828282828282828282828282828282828282828282828282828282828282828282828282828282828282828282828282828282828282828282828282828282828282828282828280000000000000000282828
310
28282828282828282828282828282828282828282828282828282828282828282828282828282828282828282828282828282828282828282828280000000000000000000000000000000000000000000000000000000000000000000000000000000000000000000000000000000000000000000000000000000000000000
310
00000000000000000000000000000000000000000000000000000000000000000000000000000000000000280000000000000000000000000000000000000000000000000000000000000000000000000000000000000000000000000000000000000000000000000000000000000000000000000028000000000000000028
310
00000000000000000000000000000000000000000000000000000000000000000000000000000000000000000000000000000000000000000000000000000000000000000000000000000000000000000000000000000000000000000000000000000000000000000000000000000000000000000000000000000000000000
310
00000000000000000000000000000000000000000000000000000000000000000000000000000000000000000028000000000000000000000000000000000000000000000000000000000000000000000000000000000000000000000000000000000000000000000000000000000000000000000000002800000000000000
310
00280000000000000000000000000000000000000000000000000000000000000000000000000000000000000000000000000000000000000000000000000000000000000000000000000000000000000000000000000000000000000000000000000000000000000000000000000000000000000000000000000000000000
310
00000000000000000000000000000000000000000000000000000000000000000000000000000000000000000000002800000000000000000000000000000000000000000000000000000000000000000000000000000000000000000000000000000000000000000000000000000000000000000000000000280000000000
310
00000028000000000000000000000000000000000000000000000000000000000000000000000000000000000000000000000000000000000000000000000000000000000000000000000000000000000000000000000000000000000000000000000000000000000000000000000000000000000000000000000000000000
310
00000000000000000000000000000000000000000000000000000000000000000000000000000000000000000000000000280000000000000000000000000000000000000000000000000000000000000000000000000000000000000000000000000000000000000000000000000000000000000000000000000028000000
310
00000000002800000000000000000000000000000000000000000000000000000000000000000000000000000000000000000000000000000000000000000000000000000000000000000000000000000000000000000000000000000000000000000000000000000000000000000000000000000000000000000000000000
310
00000000000000000000000000000000000000000000000000000000000000000000000000000000000000000000000000000028000000000000282828282828282828282828282828282828282828282828282828282828282828000000000000000000000000000000000000000000000000000000000000000000002800
310
00000000000000280000000000002828282828282828282828282828282828282828282828282828282828282828000000000000000000000000000000000000000000000000000000000000000000000000000000000000000000000000000000000000000000000000000000000000000000000000000000000000000000
310
00000000000000000000000000000000000000000000000000000000000000000000000000000000000000000000000000000000002800000000000028000000000000282800000000000000000000000000000028000000000000002800000000000000000000000000000000000000000000000000000000000000000000
310
28000000000000000028000000000000280000000000002828000000000000000000000000000000280000000000002800000000000000000000000000000000000000000000000000000000000000000000000000000000000000000000000000000000000000000000000000000000000000000000000000000000000000
310
00000000000000000000000000000000000000000000000000000000000000000000000000000000000000000000000000000000000000280000000000002828282800000028280000000000000000000000000000002800000028282828000000000000000000000000000000000000000000000000000000000000000000
310
00002800000000000000002800000000000028282828000000282800000000000000000000000000000028000000282828280000000000000000000000000000000000000000000000000000000000000000000000000000000000000000000000000000000000000000000000000000000000000000000000000000000000
310
00000000000000000000000000000000000000000000000000000000000000000000000000000000000000000000000000000000000000000028000000000000000000002828282828000000000000000000000000000000282828280000000000000000000000000000000000000000000000000000000000000000000000
310
00000000280000000000000000280000000000000000000028282828280000000000000000000000000000002828282800000000000000000000000000000000000000000000000000000000000000000000000000000000000000000000000000000000000000000000000000000000000000000000000000000000000000
310
00000000000000000000000000000000000000000000000000000000000000000000000000000000000000000000000000000000000000000000002800000000000000000000000000282800000000000000000000000000000028000000000000000000000000000000000000000000000000000000000000000000000000
310
00000000000028000000000000000028000000000000000000000000002828000000000000000000000000000000280000000000000000000000000000000000000000000000000000000000000000000000000000000000000000000000000000000000000000000000000000000000000000000000000000000000000000
310
00000000000000000000000000000000000000000000000000000000000000000000000000000000000000000000000000000000000000000000000000280000000000000000000000000028280000000000000000000000000000002800000000000000000000000000000000000000000000000000000000000000000000
310
00000000000000002800000000000000002800000000000000000000000000282800000000000000000000000000000028000000000000000000000000000000000000000000000000000000000000000000000000000000000000000000000000000000000000000000000000000000000000000000000000000000000000
310
00000000000000000000000000000000000000000000000000000000000000000000000000000000000000000000000000000000000000000000000000000028000000000000000000000000002828000000000000000000000000000000280000000000000000000000000000000000000000000000000000000000000000
310
00000000000000000000280000000000000000280000000000000000000000000028280000000000000000000000000000002800000000000000000000000000000000000000000000000000000000000000000000000000000000000000000000000000000000000000000000000000000000000000000000000000000000
310
00000000000000000000000000000000000000000000000000000000000000000000000000000000000000000000000000000000000000000000000000000000002800000000000000000000000000282800000000000000000000000000000028000000000000000000000000000000000000000000000000000000000000
310
00000000000000000000000028000000000000000028000000000000000000000000002828000000000000000000000000000000280000000000000000000000000000000000000000000000000000000000000000000000000000000000000000000000000000000000000000000000000000000000000000000000000000
310
00000000000000000000000000000000000000000000000000000000000000000000000000000000000000000000000000000000000000000000000000000000000000280000000000000000000000000028280000000000000000000000000000002800000000000000000000000000000000000000000000000000000000
310
00000000000000000000000000002800000000000000002800000000000000000000000000282800000000000000000000000000000028000000000000000000000000000000000000000000000000000000000000000000000000000000000000000000000000000000000000000000000000000000000000000000000000
310
00000000000000000000000000000000000000000000000000000000000000000000000000000000000000000000000000000000000000000000000000000000000000000028000000000000000000000000002828000000000000000000000000000000280000000000000000000000000000000000000000000000000000
310
00000000000000000000000000000000280000000000000000280000000000000000000000000028280000000000000000000000000000002800000000000000000000000000000000000000000000000000000000000000000000000000000000000000000000000000000000000000000000000000000000000000000000
310
00000000000000000000000000000000000000000000000000000000000000000000000000000000000000000000000000000000000000000000000000000000000000000000002800000000000000000000000000282800000000000000000000000000000028000000000000000000000000000000000000000000000000
310
00000000000000000000000000000000000028000000000000000028000000000000000000000000002828000000000000000000000000000000280000000000000000000000000000000000000000000000000000000000000000000000000000000000000000000000000000000000000000000000000000000000000000
310
00000000000000000000000000000000000000000000000000000000000000000000000000000000000000000000000000000000000000000000000000000000000000000000000000280000000000000000000000000028280000000000000000000000000000002800000000000000000000000000000000000000000000
310
00000000000000000000000000000000000000002800000000000000002800000000000000000000000000282800000000000000000000000000000028000000000000000000000000000000000000000000000000000000000000000000000000000000000000000000000000000000000000000000000000000000000000
310
00000000000000000000000000000000000000000000000000000000000000000000000000000000000000000000000000000000000000000000000000000000000000000000000000000028000000000000000000000000002828000000000000000000000000000000280000000000000000000000000000000000000000
310
00000000000000000000000000000000000000000000280000000000000000280000000000000000000000000028280000000000000000000000000000282800000000000000000000000000000000000000000000000000000000000000000000000000000000000000000000000000000000000000000000000000000000
310
00000000000000000000000000000000000000000000000000000000000000000000000000000000000000000000000000000000000000000000000000000000000000000000000000000000002800000000000000000000000000002828000000000000000000000000002828000000000000000000000000000000000000
310
00000000000000000000000000000000000000000000000028000000000000000028000000000000000000000000000028280000000000000000000000000028280000000000000000000000000000000000000000000000000000000000000000000000000000000000000000000000000000000000000000000000000000
310
00000000000000000000000000000000000000000000000000000000000000000000000000000000000000000000000000000000000000000000000000000000000000000000000000000000000000280000000000000000000000000000282828282828282828282828282828282800000000000000000000000000000000
310
00000000000000000000000000000000000000000000000000002800000000000000002800000000000000000000000000002828282828282828282828282828282800000000000000000000000000000000000000000000000000000000000000000000000000000000000000000000000000000000000000000000000000
310
00000000000000000000000000000000000000000000000000000000000000000000000000000000000000000000000000000000000000000000000000000000000000000000000000000000000000000028000000000000000000000000000000282828282828282828282828282828000000000000000000000000000000
310
00000000000000000000000000000000000000000000000000000000280000000000000000280000000000000000000000000000002828282828282828282828282828000000000000000000000000000000000000000000000000000000000000000000000000000000000000000000000000000000000000000000000000
310
00000000000000000000000000000000000000000000000000000000000000000000000000000000000000000000000000000000000000000000000000000000000000000000000000000000000000000000002800000000000000000000000000000000000000000000000000000000000000000000000000000000000000
310
00000000000000000000000000000000000000000000000000000000000028000000000000000028000000000000000000000000000000000000000000000000000000000000000000000000000000000000000000000000000000000000000000000000000000000000000000000000000000000000000000000000000000
310
00000000000000000000000000000000000000000000000000000000000000000000000000000000000000000000000000000000000000000000000000000000000000000000000000000000000000000000000000280000000000000000000000000000000000000000000000000000000000000000000000000000000000
310
00000000000000000000000000000000000000000000000000000000000000002800000000000000002800000000000000000000000000000000000000000000000000000000000000000000000000000000000000000000000000000000000000000000000000000000000000000000000000000000000000000000000000
310
00000000000000000000000000000000000000000000000000000000000000000000000000000000000000000000000000000000000000000000000000000000000000000000000000000000000000000000000000000028000000000000000000000000000000000000000000000000000000000000000000000000000000
310
00000000000000000000000000000000000000000000000000000000000000000000280000000000000000280000000000000000000000000000000000000000000000000000000000000000000000000000000000000000000000000000000000000000000000000000000000000000000000000000000000000000000000
310
00000000000000000000000000000000000000000000000000000000000000000000000000000000000000000000000000000000000000000000000000000000000000000000000000000000000000000000000000000000002800000000000000000000000000000000000000000000000000000000000000000000000000
310
00000000000000000000000000000000000000000000000000000000000000000000000028000000000000000028000000000000000000000000000000000000000000000000000000000000000000000000000000000000000000000000000000000000000000000000000000000000000000000000000000000000000000
310
00000000000000000000000000000000000000000000000000000000000000000000000000000000000000000000000000000000000000000000000000000000000000000000000000000000000000000000000000000000000000280000000000000000000000000000000000000000000000000000000000000000000000
310
00000000000000000000000000000000000000000000000000000000000000000000000000002800000000000000002800000000000000000000000000000000000000000000000000000000000000000000000000000000000000000000000000000000000000000000000000000000000000000000000000000000000000
310
000000000000000000000000000000000000000000000000000000000000000000000000000000000000000000000000000000000000000000000000000000000000000000000000000000000000000000000000000000000000000000280000DCDCDCDCDCDCDCDCDCDCDCDC28282828282828282828282828282828DCDCDC
310
DCDCDCDCDCDCDCDCDCDCDC0000002828282828282828282828282828282800000000000000000000280000000000000000280000000000000000000000000000000000000000000000000000000000000000000000000000000000000000000000000000000000000000000000000000000000000000000000000000000000
310
0000000000000000000000000000000000000000000000000000000000000000000000000000000000000000000000000000000000000000000000000000000000000000000000000000000000000000000000000000000000000000000000280000DC00000000000000000000282828282828282828282828282828282828
310
000000000000000000000000DC0000002828282828282828282828282828282800000000000000000000280000000000000000280000DCDCDCDCDCDCDCDCDCDCDCDCDCDCDCDCDCDCDCDCDCDCDCDCDCDCDCDCDCDCDCDCDCDCDCDCDCDCDCDCDCDC00000028282828282828282828282828280000000000000000000000000000
310
00000000000000000000000000000000000000000000000000000000000000000000000000000000000000000000000000000000000000000000000000000000000000000000000000000000000000000000000000000000000000000000000000280000DC0000000000000000000028000028000000000000000000000028
310
0028000000000000000000000000DC0000002800280000000000000000000000002800000000000000000000280000000000000000280000DC00000000000000000000282828282828282828282828282828282828000000000000000000000000DC0000282828282828282828282828282828000000000000000000000000
310
000000000000000000000000000000000000000000000000000000000000000000000000000000000000000000000000000000000000000000000000000000000000000000000000000000000000000000000000000000000000000000000000000000280000DC000000000000000000002800002800000000000000000000
310
00280028000000000000000000000000DC0000002800280000000000000000000000002800000000000000000000280000000000000000280000DC00000000000000000000280000280000000000000000000028000028000000000000000000000000DC000028000028000000000000000000000000000000000000000000
310
0000000000000000000000000000000000000000000000000000000000000000000000000000000000000000000000000000000000000000000000000000000000000000000000000000000000000000000000000000000000000000000000000000000000280000DC00000000000000000000280000280000000000000000
310
000000280028000000000000000000000000DC0000002800280000000000000000000000002800000000000000000000280000000000000000280000DC00000000000000000000280000280000000000000000000028000028000000000000000000000000DC0000280000280000000000000000000000
  0
XRECORD
  5
C64
102
{ACAD_REACTORS
330
C62
102
}
330
C62
100
AcDbXrecord
280
     1
270
     1
271
     1
  0
XRECORD
  5
C63
102
{ACAD_REACTORS
330
C62
102
}
330
C62
100
AcDbXrecord
280
     1
270
     1
271
     1
  0
XRECORD
  5
C67
102
{ACAD_REACTORS
330
C62
102
}
330
C62
100
AcDbXrecord
280
     1
270
     1
271
     1
  0
XRECORD
  5
C66
102
{ACAD_REACTORS
330
C62
102
}
330
C62
100
AcDbXrecord
280
     1
270
     1
271
     1
  0
XRECORD
  5
C68
102
{ACAD_REACTORS
330
C62
102
}
330
C62
100
AcDbXrecord
280
     1
270
     1
271
     1
  0
XRECORD
  5
C65
102
{ACAD_REACTORS
330
C62
102
}
330
C62
100
AcDbXrecord
280
     1
270
     1
271
     1
  0
XRECORD
  5
C5C
102
{ACAD_REACTORS
330
C5A
102
}
330
C5A
100
AcDbXrecord
280
     1
270
     1
271
     1
  0
XRECORD
  5
C5B
102
{ACAD_REACTORS
330
C5A
102
}
330
C5A
100
AcDbXrecord
280
     1
270
     1
271
     1
  0
XRECORD
  5
C5F
102
{ACAD_REACTORS
330
C5A
102
}
330
C5A
100
AcDbXrecord
280
     1
270
     1
271
     1
  0
XRECORD
  5
C5E
102
{ACAD_REACTORS
330
C5A
102
}
330
C5A
100
AcDbXrecord
280
     1
270
     1
271
     1
  0
XRECORD
  5
C60
102
{ACAD_REACTORS
330
C5A
102
}
330
C5A
100
AcDbXrecord
280
     1
270
     1
271
     1
  0
XRECORD
  5
C5D
102
{ACAD_REACTORS
330
C5A
102
}
330
C5A
100
AcDbXrecord
280
     1
270
     1
271
     1
  0
XRECORD
  5
C6C
102
{ACAD_REACTORS
330
C6A
102
}
330
C6A
100
AcDbXrecord
280
     1
270
     1
271
     1
  0
XRECORD
  5
C6B
102
{ACAD_REACTORS
330
C6A
102
}
330
C6A
100
AcDbXrecord
280
     1
270
     1
271
     1
  0
XRECORD
  5
C6F
102
{ACAD_REACTORS
330
C6A
102
}
330
C6A
100
AcDbXrecord
280
     1
270
     1
271
     1
  0
XRECORD
  5
C6E
102
{ACAD_REACTORS
330
C6A
102
}
330
C6A
100
AcDbXrecord
280
     1
270
     1
271
     1
  0
XRECORD
  5
C70
102
{ACAD_REACTORS
330
C6A
102
}
330
C6A
100
AcDbXrecord
280
     1
270
     1
271
     1
  0
XRECORD
  5
C6D
102
{ACAD_REACTORS
330
C6A
102
}
330
C6A
100
AcDbXrecord
280
     1
270
     1
271
     1
  0
CELLSTYLEMAP
  5
2799
102
{ACAD_REACTORS
330
17D2
102
}
330
17D2
100
AcDbCellStyleMap
 90
        3
300
CELLSTYLE
  1
TABLEFORMAT_BEGIN
 90
        5
170
     1
 91
        0
 92
    32768
 62
   257
 93
        1
300
CONTENTFORMAT
  1
CONTENTFORMAT_BEGIN
 90
        0
 91
        0
 92
      512
 93
        0
300

 40
0.0
140
1.0
 94
        5
 62
     0
340
2D3
144
0.25
309
CONTENTFORMAT_END
171
     0
 94
        0
309
TABLEFORMAT_END
  1
CELLSTYLE_BEGIN
 90
        1
 91
        1
300
_TITLE
309
CELLSTYLE_END
300
CELLSTYLE
  1
TABLEFORMAT_BEGIN
 90
        5
170
     1
 91
        0
 92
        0
 62
   257
 93
        1
300
CONTENTFORMAT
  1
CONTENTFORMAT_BEGIN
 90
        0
 91
        0
 92
      512
 93
        0
300

 40
0.0
140
1.0
 94
        5
 62
     0
340
2D3
144
0.18
309
CONTENTFORMAT_END
171
     0
 94
        0
309
TABLEFORMAT_END
  1
CELLSTYLE_BEGIN
 90
        2
 91
        1
300
_HEADER
309
CELLSTYLE_END
300
CELLSTYLE
  1
TABLEFORMAT_BEGIN
 90
        5
170
     1
 91
        0
 92
        0
 62
   257
 93
        1
300
CONTENTFORMAT
  1
CONTENTFORMAT_BEGIN
 90
        0
 91
        0
 92
      512
 93
        0
300

 40
0.0
140
1.0
 94
        2
 62
     0
340
2D3
144
0.18
309
CONTENTFORMAT_END
171
     0
 94
        0
309
TABLEFORMAT_END
  1
CELLSTYLE_BEGIN
 90
        3
 91
        2
300
_DATA
309
CELLSTYLE_END
  0
ENDSEC
  0
EOF
