  0
SECTION
  2
HEADER
  9
$ACADVER
  1
AC1009
  9
$INSBASE
 10
0.0
 20
0.0
 30
0.0
  9
$EXTMIN
 10
23.381693136101092
 20
26.888165665697208
 30
0.0
  9
$EXTMAX
 10
412.74596410624468
 20
768.33028457348655
 30
0.0
  9
$LIMMIN
 10
0.0
 20
0.0
  9
$LIMMAX
 10
420.0
 20
297.0
  9
$ORTHOMODE
 70
     0
  9
$REGENMODE
 70
     1
  9
$FILLMODE
 70
     1
  9
$QTEXTMODE
 70
     0
  9
$MIRRTEXT
 70
     1
  9
$DRAGMODE
 70
     2
  9
$LTSCALE
 40
1.0
  9
$OSMODE
 70
    37
  9
$ATTMODE
 70
     1
  9
$TEXTSIZE
 40
2.5
  9
$TRACEWID
 40
1.0
  9
$TEXTSTYLE
  7
STANDARD
  9
$CLAYER
  8
0
  9
$CELTYPE
  6
BYLAYER
  9
$CECOLOR
 62
   256
  9
$DIMSCALE
 40
1.0
  9
$DIMASZ
 40
2.5
  9
$DIMEXO
 40
0.625
  9
$DIMDLI
 40
3.75
  9
$DIMRND
 40
0.0
  9
$DIMDLE
 40
0.0
  9
$DIMEXE
 40
1.25
  9
$DIMTP
 40
0.0
  9
$DIMTM
 40
0.0
  9
$DIMTXT
 40
2.5
  9
$DIMCEN
 40
2.5
  9
$DIMTSZ
 40
0.0
  9
$DIMTOL
 70
     0
  9
$DIMLIM
 70
     0
  9
$DIMTIH
 70
     0
  9
$DIMTOH
 70
     0
  9
$DIMSE1
 70
     0
  9
$DIMSE2
 70
     0
  9
$DIMTAD
 70
     1
  9
$DIMZIN
 70
     8
  9
$DIMBLK
  1

  9
$DIMASO
 70
     1
  9
$DIMSHO
 70
     1
  9
$DIMPOST
  1

  9
$DIMAPOST
  1

  9
$DIMALT
 70
     0
  9
$DIMALTD
 70
     3
  9
$DIMALTF
 40
0.03937007874016
  9
$DIMLFAC
 40
1.0
  9
$DIMTOFL
 70
     1
  9
$DIMTVP
 40
0.0
  9
$DIMTIX
 70
     0
  9
$DIMSOXD
 70
     0
  9
$DIMSAH
 70
     0
  9
$DIMBLK1
  1

  9
$DIMBLK2
  1

  9
$DIMSTYLE
  2
ISO-25
  9
$DIMCLRD
 70
     0
  9
$DIMCLRE
 70
     0
  9
$DIMCLRT
 70
     0
  9
$DIMTFAC
 40
1.0
  9
$DIMGAP
 40
0.625
  9
$LUNITS
 70
     2
  9
$LUPREC
 70
     4
  9
$SKETCHINC
 40
1.0
  9
$FILLETRAD
 40
10.0
  9
$AUNITS
 70
     0
  9
$AUPREC
 70
     0
  9
$MENU
  1
.
  9
$ELEVATION
 40
0.0
  9
$PELEVATION
 40
0.0
  9
$THICKNESS
 40
0.0
  9
$LIMCHECK
 70
     0
  9
$BLIPMODE
 70
     0
  9
$CHAMFERA
 40
10.0
  9
$CHAMFERB
 40
10.0
  9
$SKPOLY
 70
     0
  9
$TDCREATE
 40
2452216.48471419
  9
$TDUPDATE
 40
2452216.4848955902
  9
$TDINDWG
 40
0.0001820949
  9
$TDUSRTIMER
 40
0.0001819792
  9
$USRTIMER
 70
     1
  9
$ANGBASE
 50
0.0
  9
$ANGDIR
 70
     0
  9
$PDMODE
 70
     0
  9
$PDSIZE
 40
0.0
  9
$PLINEWID
 40
0.0
  9
$COORDS
 70
     1
  9
$SPLFRAME
 70
     0
  9
$SPLINETYPE
 70
     6
  9
$SPLINESEGS
 70
     8
  9
$ATTDIA
 70
     0
  9
$ATTREQ
 70
     1
  9
$HANDLING
 70
-16383
  9
$HANDSEED
  5
98C
  9
$SURFTAB1
 70
     6
  9
$SURFTAB2
 70
     6
  9
$SURFTYPE
 70
     6
  9
$SURFU
 70
     6
  9
$SURFV
 70
     6
  9
$UCSNAME
  2

  9
$UCSORG
 10
0.0
 20
0.0
 30
0.0
  9
$UCSXDIR
 10
1.0
 20
0.0
 30
0.0
  9
$UCSYDIR
 10
0.0
 20
1.0
 30
0.0
  9
$PUCSNAME
  2

  9
$PUCSORG
 10
0.0
 20
0.0
 30
0.0
  9
$PUCSXDIR
 10
1.0
 20
0.0
 30
0.0
  9
$PUCSYDIR
 10
0.0
 20
1.0
 30
0.0
  9
$USERI1
 70
     0
  9
$USERI2
 70
     0
  9
$USERI3
 70
     0
  9
$USERI4
 70
     0
  9
$USERI5
 70
     0
  9
$USERR1
 40
0.0
  9
$USERR2
 40
0.0
  9
$USERR3
 40
0.0
  9
$USERR4
 40
0.0
  9
$USERR5
 40
0.0
  9
$WORLDVIEW
 70
     1
  9
$SHADEDGE
 70
     3
  9
$SHADEDIF
 70
    70
  9
$TILEMODE
 70
     1
  9
$MAXACTVP
 70
    64
  9
$PLIMCHECK
 70
     0
  9
$PEXTMIN
 10
1.0000000000000000E+020
 20
1.0000000000000000E+020
 30
1.0000000000000000E+020
  9
$PEXTMAX
 10
-1.0000000000000000E+020
 20
-1.0000000000000000E+020
 30
-1.0000000000000000E+020
  9
$PLIMMIN
 10
0.0
 20
0.0
  9
$PLIMMAX
 10
420.0
 20
297.0
  9
$UNITMODE
 70
     0
  9
$VISRETAIN
 70
     1
  9
$PLINEGEN
 70
     0
  9
$PSLTSCALE
 70
     1
  0
ENDSEC
  0
SECTION
  2
TABLES
  0
TABLE
  2
VPORT
 70
     3
  0
VPORT
  2
*ACTIVE
 70
     0
 10
0.0
 20
0.0
 11
1.0
 21
1.0
 12
212.36907582938389
 22
148.5
 13
0.0
 23
0.0
 14
10.0
 24
10.0
 15
10.0
 25
10.0
 16
0.0
 26
0.0
 36
1.0
 17
0.0
 27
0.0
 37
0.0
 40
297.0
 41
1.430094786729857
 42
50.0
 43
0.0
 44
0.0
 50
0.0
 51
0.0
 71
     0
 72
   100
 73
     1
 74
     3
 75
     0
 76
     0
 77
     0
 78
     0
  0
ENDTAB
  0
TABLE
  2
LTYPE
 70
     1
  0
LTYPE
  2
CONTINUOUS
 70
     0
  3
Solid line
 72
    65
 73
     0
 40
0.0
  0
ENDTAB
  0
TABLE
  2
LAYER
 70
     2
  0
LAYER
  2
0
 70
     0
 62
     7
  6
CONTINUOUS
  0
LAYER
  2
1外形線
 70
     0
 62
     3
  6
CONTINUOUS
  0
ENDTAB
  0
TABLE
  2
STYLE
 70
     2
  0
STYLE
  2
STANDARD
 70
     0
 40
0.0
 41
1.0
 50
0.0
 71
     0
 42
2.5
  3
txt
  4

  0
STYLE
  2
KANJI
 70
     0
 40
0.0
 41
1.0
 50
0.0
 71
     0
 42
2.5
  3
simplex.shx
  4
extfont.shx
  0
ENDTAB
  0
TABLE
  2
VIEW
 70
     0
  0
ENDTAB
  0
TABLE
  2
UCS
 70
     0
  0
ENDTAB
  0
TABLE
  2
APPID
 70
     1
  0
APPID
  2
ACAD
 70
     0
  0
ENDTAB
  0
TABLE
  2
DIMSTYLE
 70
     2
  0
DIMSTYLE
  2
ISO-25
 70
     0
  3

  4

  5

  6

  7

 40
1.0
 41
2.5
 42
0.625
 43
3.75
 44
1.25
 45
0.0
 46
0.0
 47
0.0
 48
0.0
140
2.5
141
2.5
142
0.0
143
0.03937007874016
144
1.0
145
0.0
146
1.0
147
0.625
 71
     0
 72
     0
 73
     0
 74
     0
 75
     0
 76
     0
 77
     1
 78
     8
170
     0
171
     3
172
     1
173
     0
174
     0
175
     0
176
     0
177
     0
178
     0
  0
DIMSTYLE
  2
STANDARD
 70
     0
  3

  4

  5

  6

  7

 40
1.0
 41
0.18
 42
0.0625
 43
0.38
 44
0.18
 45
0.0
 46
0.0
 47
0.0
 48
0.0
140
0.18
141
0.09
142
0.0
143
25.399999999999999
144
1.0
145
0.0
146
1.0
147
0.09
 71
     0
 72
     0
 73
     1
 74
     1
 75
     0
 76
     0
 77
     0
 78
     0
170
     0
171
     2
172
     0
173
     0
174
     0
175
     0
176
     0
177
     0
178
     0
  0
ENDTAB
  0
ENDSEC
  0
SECTION
  2
BLOCKS
  0
BLOCK
  8
0
  2
$MODEL_SPACE
 70
     0
 10
0.0
 20
0.0
 30
0.0
  3
$MODEL_SPACE
  1

  0
ENDBLK
  5
21
  8
0
  0
BLOCK
 67
     1
  8
0
  2
$PAPER_SPACE
 70
     0
 10
0.0
 20
0.0
 30
0.0
  3
$PAPER_SPACE
  1

  0
ENDBLK
  5
1D
 67
     1
  8
0
  0
BLOCK
  8
0
  2
2
 70
     0
 10
0.0
 20
0.0
 30
0.0
  3
2
  1

  0
INSERT
  5
2C
  8
0
  6
CONTINUOUS
  2
*U3
 10
0.0
 20
0.0
 30
0.0
1001
ACAD
1002
{
1000
R14_HATCH_DATA
1000
2C
1011
1.0
1021
1.4783829800161048E+166
1031
1.1549867015286449E+164
1021
0.0
1031
0.0
1011
0.0
1021
1.4783829800161048E+166
1031
1.1549867015286449E+164
1021
1.0
1031
0.0
1011
0.0
1021
1.4783829800161048E+166
1031
1.1549867015286449E+164
1021
0.0
1031
1.0
1040
0.0
1010
0.0
1020
0.0
1030
1.0
1000
SOLID
1070
     1
1070
     1
1071
        1
1071
        7
1070
     0
1070
     1
1071
        3
1040
0.0000000000000284
1040
0.0
1040
-0.899999999998343
1040
0.2411542731875897
1040
-0.8999999999983572
1040
-0.2411542731875613
1071
        3
1005
2F
1005
2D
1005
30
1070
     0
1070
     1
1040
0.0028941747346077
1071
        1
1040
-0.5303136156475148
1040
-0.0796654556697263
1040
0.0
1002
}
  0
LINE
  5
2D
  8
0
 10
-0.8999999999983572
 20
0.2411542731879876
 30
0.0
 11
-0.8999999999983572
 21
-0.2411542731880445
 31
0.0
  0
LINE
  5
2E
  8
0
 10
-0.9999999999983515
 20
0.0
 30
0.0
 11
0.0
 21
0.0
 31
0.0
  0
LINE
  5
2F
  8
0
 10
-0.8999999999984424
 20
0.2411542731875897
 30
0.0
 11
0.0
 21
0.0
 31
0.0
  0
LINE
  5
30
  8
0
 10
-0.8999999999984424
 20
-0.2411542731875897
 30
0.0
 11
0.0
 21
0.0
 31
0.0
  0
ENDBLK
  5
32
  8
0
  0
BLOCK
  8
0
  2
*U3
 70
     1
 10
0.0
 20
0.0
 30
0.0
  3
*U3
  1

  0
SOLID
  5
577
  8
0
  6
CONTINUOUS
 10
-0.5999999999988905
 20
0.0000000000000095
 30
0.0
 11
0.0000000000000284
 21
0.0
 31
0.0
 12
-0.899999999998343
 22
0.2411542731875897
 32
0.0
 13
-0.899999999998343
 23
0.2411542731875897
 33
0.0
210
0.0
220
0.0
230
1.0
  0
SOLID
  5
578
  8
0
  6
CONTINUOUS
 10
-0.5999999999988905
 20
0.0000000000000095
 30
0.0
 11
-0.899999999998343
 21
0.2411542731875897
 31
0.0
 12
-0.8999999999983572
 22
-0.2411542731875613
 32
0.0
 13
-0.8999999999983572
 23
-0.2411542731875613
 33
0.0
  0
SOLID
  5
579
  8
0
  6
CONTINUOUS
 10
-0.5999999999988905
 20
0.0000000000000095
 30
0.0
 11
-0.8999999999983572
 21
-0.2411542731875613
 31
0.0
 12
0.0000000000000284
 22
0.0
 32
0.0
 13
0.0000000000000284
 23
0.0
 33
0.0
210
0.0
220
0.0
230
1.0
  0
ENDBLK
  5
57B
  8
0
  0
ENDSEC
  0
SECTION
  2
ENTITIES
  0
LINE
  5
2D5
  8
1外形線
 10
228.38882496677249
 20
708.83028456563864
 30
0.0
 11
236.38882496677249
 21
708.83028456563852
 31
0.0
  0
LINE
  5
2D6
  8
1外形線
 10
236.38882496677249
 20
706.33028456563852
 30
0.0
 11
228.3888249667726
 21
706.33028456563852
 31
0.0
  0
LINE
  5
2D7
  8
1外形線
 10
227.38882496677249
 20
646.83028456563852
 30
0.0
 11
236.38882496677249
 21
646.83028456563852
 31
0.0
  0
LINE
  5
2D8
  8
1外形線
 10
236.38882496677249
 20
647.33028456563852
 30
0.0
 11
228.38882496677249
 21
647.33028456563852
 31
0.0
  0
LINE
  5
2D9
  8
1外形線
 10
236.38882496677249
 20
649.33028456563852
 30
0.0
 11
228.38882496677229
 21
649.33028456563852
 31
0.0
  0
LINE
  5
2DA
  8
1外形線
 10
236.38882496677249
 20
635.61274837117946
 30
0.0
 11
226.38882496677229
 21
635.61274837117946
 31
0.0
  0
LINE
  5
2DB
  8
1外形線
 10
236.38882496677249
 20
637.0269619335528
 30
0.0
 11
226.38882496677229
 21
637.0269619335528
 31
0.0
  0
LINE
  5
2DC
  8
1外形線
 10
236.38882496677249
 20
632.78432124643325
 30
0.0
 11
226.38882496677229
 21
632.78432124643325
 31
0.0
  0
LINE
  5
2DD
  8
1外形線
 10
236.38882496677249
 20
634.19853480880647
 30
0.0
 11
226.38882496677229
 21
634.19853480880647
 31
0.0
  0
ARC
  5
2DE
  8
1外形線
 10
234.50332342004631
 20
508.27246057384519
 30
0.0
 40
23.0
 50
89.999999999999588
 51
180.0
  0
LINE
  5
2DF
  8
1外形線
 10
236.38882496677249
 20
625.54022752681135
 30
0.0
 11
202.88882496677249
 21
625.54022752681146
 31
0.0
  0
LINE
  5
2E0
  8
1外形線
 10
202.88882496677249
 20
623.77246057384502
 30
0.0
 11
236.38882496677249
 21
623.77246057384491
 31
0.0
  0
LINE
  5
2E1
  8
1外形線
 10
232.50332342004609
 20
466.34949778021371
 30
0.0
 11
233.50278117933399
 21
465.77246057384508
 31
0.0
  0
LINE
  5
2E2
  8
1外形線
 10
249.00332342004609
 20
454.55492437938608
 30
0.0
 11
232.50332342004609
 21
454.55492437938608
 31
0.0
  0
LINE
  5
2E3
  8
1外形線
 10
249.00332342004609
 20
455.9691379417593
 30
0.0
 11
232.50332342004609
 21
455.96913794175941
 31
0.0
  0
LINE
  5
2E4
  8
1外形線
 10
249.00332342004609
 20
451.72649725463981
 30
0.0
 11
232.50332342004609
 21
451.72649725463981
 31
0.0
  0
LINE
  5
2E5
  8
1外形線
 10
249.00332342004609
 20
453.14071081701292
 30
0.0
 11
232.50332342004609
 21
453.14071081701309
 31
0.0
  0
LINE
  5
2E6
  8
1外形線
 10
208.00332342004609
 20
442.35350127026987
 30
0.0
 11
249.00332342004609
 21
442.35350127026959
 31
0.0
  0
LINE
  5
2E7
  8
1外形線
 10
249.00332342004609
 20
444.1212682232362
 30
0.0
 11
208.00332342004609
 21
444.12126822323631
 31
0.0
  0
ARC
  5
2E8
  8
1外形線
 10
234.50332342004631
 20
491.27246057384508
 30
0.0
 40
23.0
 50
180.0
 51
270.0
  0
ARC
  5
2E9
  8
1外形線
 10
234.50332342004609
 20
492.27246057384508
 30
0.0
 40
26.0
 50
180.0
 51
270.0
  0
LINE
  5
2EA
  8
1外形線
 10
213.12464376320241
 20
253.86347415499591
 30
0.0
 11
266.62464376320241
 21
253.86347415499549
 31
0.0
  0
LINE
  5
2EB
  8
1外形線
 10
266.62464376320241
 20
255.6312411079621
 30
0.0
 11
213.12464376320241
 21
255.63124110796221
 31
0.0
  0
ARC
  5
2EC
  8
1外形線
 10
241.62464376320241
 20
324.85350127026959
 30
0.0
 40
25.0
 50
90.0
 51
180.0
  0
ARC
  5
2ED
  8
1外形線
 10
241.6246437632027
 20
304.85350127026959
 30
0.0
 40
25.0
 50
180.0
 51
270.0
  0
ARC
  5
2EE
  8
1外形線
 10
241.62464376320241
 20
305.85350127026959
 30
0.0
 40
28.0
 50
180.0
 51
270.0
  0
ARC
  5
2EF
  8
1外形線
 10
241.62464376320241
 20
323.85350127026942
 30
0.0
 40
28.5
 50
90.000000000000398
 51
180.0
  0
ARC
  5
2F0
  8
1外形線
 10
246.7459641062442
 20
136.3634741549956
 30
0.0
 40
25.0
 50
90.0
 51
180.0000000000004
  0
ARC
  5
2F1
  8
1外形線
 10
246.74596410624429
 20
107.3634741549956
 30
0.0
 40
25.0
 50
180.0000000000004
 51
270.0
  0
ARC
  5
2F2
  8
1外形線
 10
246.74596410624429
 20
135.36347415499509
 30
0.0
 40
28.5
 50
90.000000000000398
 51
180.0
  0
ARC
  5
2F3
  8
1外形線
 10
246.7459641062442
 20
108.3634741549956
 30
0.0
 40
28.0
 50
180.0000000000002
 51
270.0
  0
LINE
  5
2F4
  8
1外形線
 10
218.2459641062442
 20
56.888165665697443
 30
0.0
 11
290.7459641062444
 21
56.888165665696981
 31
0.0
  0
LINE
  5
2F5
  8
1外形線
 10
290.7459641062444
 20
58.655932618663648
 30
0.0
 11
218.2459641062442
 21
58.655932618663883
 31
0.0
  0
ARC
  5
2F6
  8
1外形線
 10
234.50332342004609
 20
507.27246057384502
 30
0.0
 40
26.5
 50
90.000000000000185
 51
180.0
  0
LINE
  5
2F7
  8
1外形線
 10
412.74596410624468
 20
768.33028457348655
 30
0.0
 11
23.381693136101092
 21
768.33028457348655
 31
0.0
  0
LINE
  5
2F8
  8
1外形線
 10
412.74596410624468
 20
593.77246057384502
 30
0.0
 11
23.381693136101092
 21
593.77246057384502
 31
0.0
  0
LINE
  5
2F9
  8
1外形線
 10
412.74596410624468
 20
412.35350127026959
 30
0.0
 11
23.381693136101092
 21
412.35350127026959
 31
0.0
  0
LINE
  5
2FA
  8
1外形線
 10
412.74596410624468
 20
26.888165665697208
 30
0.0
 11
23.381693136101092
 21
26.888165665697208
 31
0.0
  0
LINE
  5
2FB
  8
1外形線
 10
412.74596410624468
 20
223.86347415499549
 30
0.0
 11
23.381693136101092
 21
223.86347415499549
 31
0.0
  0
LINE
  5
2FC
  8
1外形線
 10
23.381693136101092
 20
768.33028457348655
 30
0.0
 11
23.381693136101092
 21
26.888165665697208
 31
0.0
  0
TEXT
  5
2FD
  8
1外形線
 10
73.605277284495799
 20
193.80422006760381
 30
0.0
 40
10.0
  1
SCF-140
  7
KANJI
  0
TEXT
  5
2FE
  8
1外形線
 10
73.605277284495799
 20
382.29424718287783
 30
0.0
 40
10.0
  1
SCF-100
  7
KANJI
  0
LINE
  5
2FF
  8
1外形線
 10
99.89819743059634
 20
280.37997845118741
 30
0.0
 11
133.6394872026446
 21
314.1212682232358
 31
0.0
  0
LINE
  5
300
  8
1外形線
 10
86.772276755052815
 20
296.33432625147719
 30
0.0
 11
122.7928393529114
 21
332.35488884933579
 31
0.0
  0
LINE
  5
301
  8
1外形線
 10
80.599361569418917
 20
302.5072414371113
 30
0.0
 11
119.2554705617048
 21
341.16335042939738
 31
0.0
  0
LINE
  5
302
  8
1外形線
 10
76.554723551395853
 20
306.5518794551345
 30
0.0
 11
119.13676967236469
 21
349.13392557610359
 31
0.0
  0
LINE
  5
303
  8
1外形線
 10
118.31358539080129
 20
351.12126823179977
 30
0.0
 11
75.220527902935316
 21
308.0282107269918
 31
0.0
  0
LINE
  5
304
  8
1外形線
 10
73.381693136100864
 20
306.89648274568287
 30
0.0
 11
126.41470172678839
 21
253.86347415499549
 31
0.0
  0
LINE
  5
305
  8
1外形線
 10
76.554723551396194
 20
115.9405319965153
 30
0.0
 11
121.2580900157101
 21
160.6438984608294
 31
0.0
  0
LINE
  5
306
  8
1外形線
 10
80.599361569419216
 20
111.895893978492
 30
0.0
 11
121.37679090493791
 21
152.67332331401079
 31
0.0
  0
LINE
  5
307
  8
1外形線
 10
120.4349057338431
 20
162.6312411172587
 30
0.0
 11
75.149460091150047
 21
117.34579545676161
 31
0.0
  0
LINE
  5
308
  8
1外形線
 10
98.483983868223405
 20
91.182844554941454
 30
0.0
 11
134.93238042124361
 21
127.6312411079618
 31
0.0
  0
LINE
  5
309
  8
1外形線
 10
86.772276755053056
 20
105.7229787928579
 30
0.0
 11
124.9141596962567
 21
143.86486173406169
 31
0.0
  0
LINE
  5
30A
  8
1外形線
 10
73.381693136101092
 20
116.2851352870636
 30
0.0
 11
132.77866275746749
 21
56.888165665697443
 31
0.0
  0
LINE
  5
30B
  8
1外形線
 10
75.149460089067873
 20
117.3457954588438
 30
0.0
 11
99.898197430596213
 21
92.597058117314205
 31
0.0
  0
LINE
  5
30C
  8
1外形線
 10
86.341546957261414
 20
129.24498910822351
 30
0.0
 11
85.311133965338627
 21
128.214576116301
 31
0.0
  0
LINE
  5
30D
  8
1外形線
 10
74.442353307880865
 20
117.3457954588434
 30
0.0
 11
73.381693136101092
 21
116.2851352870636
 31
0.0
  0
ARC
  5
30E
  8
1外形線
 10
74.795906698474198
 20
116.99224206825011
 30
0.0
 40
0.5
 50
44.999999999998707
 51
134.99999999999861
  0
LINE
  5
30F
  8
1外形線
 10
85.376498652750115
 20
127.5728340225259
 30
0.0
 11
85.246102139941172
 21
127.8876390522355
 31
0.0
  0
ARC
  5
310
  8
1外形線
 10
85.523265999694559
 20
128.0024440819449
 30
0.0
 40
0.3
 50
134.99999999999491
 51
202.50000000000011
  0
LINE
  5
311
  8
1外形線
 10
83.280079498340285
 20
126.1835216493029
 30
0.0
 11
82.249666506696755
 21
125.1531086576594
 31
0.0
  0
LINE
  5
312
  8
1外形線
 10
83.845764923662443
 20
126.04210029269279
 30
0.0
 11
83.704343567052305
 21
126.1835216493031
 31
0.0
  0
ARC
  5
313
  8
1外形線
 10
83.492211532696373
 20
125.9713896149471
 30
0.0
 40
0.3
 50
45.0
 51
135.0000000000056
  0
LINE
  5
314
  8
1外形線
 10
82.315031194503035
 20
124.5113665629316
 30
0.0
 11
82.184634681299485
 21
124.8261715935939
 31
0.0
  0
ARC
  5
315
  8
1外形線
 10
82.461798541052815
 20
124.9409766233034
 30
0.0
 40
0.3
 50
135.0000000000062
 51
202.50000000000011
  0
LINE
  5
316
  8
1外形線
 10
86.907232381981359
 20
129.10356775221541
 30
0.0
 11
86.765811025973278
 21
129.24498910822351
 31
0.0
  0
ARC
  5
317
  8
1外形線
 10
86.553678991617289
 20
129.0328570738674
 30
0.0
 40
0.3
 50
45.0
 51
134.9999999999946
  0
LINE
  5
318
  8
1外形線
 10
75.149460089067531
 20
307.95714291746282
 30
0.0
 11
101.31241099296911
 21
281.79419201356018
 31
0.0
  0
LINE
  5
319
  8
1外形線
 10
74.442353307880751
 20
307.95714291746259
 30
0.0
 11
73.381693136100864
 21
306.89648274568287
 31
0.0
  0
ARC
  5
31A
  8
1外形線
 10
74.795906698474028
 20
307.60358952686931
 30
0.0
 40
0.5
 50
44.999999999998707
 51
134.99999999999861
  0
ARC
  5
31B
  8
1外形線
 10
82.976517167028575
 20
316.06704270789862
 30
0.0
 40
0.3
 50
135.0000000000062
 51
202.50000000000011
  0
LINE
  5
31C
  8
1外形線
 10
82.829749820478867
 20
315.63743264752679
 30
0.0
 11
82.699353307275246
 21
315.95223767818902
 31
0.0
  0
ARC
  5
31D
  8
1外形線
 10
84.006930158672176
 20
317.09745569954242
 30
0.0
 40
0.3
 50
45.000000000000149
 51
135.00000000000571
  0
LINE
  5
31E
  8
1外形線
 10
84.360483549638275
 20
317.168166377288
 30
0.0
 11
84.219062193028094
 21
317.30958773389818
 31
0.0
  0
LINE
  5
31F
  8
1外形線
 10
83.79479812431606
 20
317.3095877338983
 30
0.0
 11
82.764385132672544
 21
316.2791747422545
 31
0.0
  0
ARC
  5
320
  8
1外形線
 10
87.068397617593121
 20
320.1589231584627
 30
0.0
 40
0.3
 50
45.000000000000149
 51
134.9999999999946
  0
LINE
  5
321
  8
1外形線
 10
87.421951007957148
 20
320.22963383681059
 30
0.0
 11
87.280529651949053
 21
320.37105519281857
 31
0.0
  0
ARC
  5
322
  8
1外形線
 10
86.037984625670276
 20
319.1285101665402
 30
0.0
 40
0.3
 50
134.99999999999491
 51
202.50000000000011
  0
LINE
  5
323
  8
1外形線
 10
85.891217278725946
 20
318.69890010712118
 30
0.0
 11
85.760820765917003
 21
319.01370513683071
 31
0.0
  0
LINE
  5
324
  8
1外形線
 10
86.856265583237175
 20
320.37105519281857
 30
0.0
 11
85.825852591314344
 21
319.34064220089601
 31
0.0
  0
LINE
  5
325
  8
1外形線
 10
156.5863638835657
 20
80.363474154995615
 30
0.0
 11
188.24596410624429
 21
80.363474154995615
 31
0.0
  0
LINE
  5
326
  8
1外形線
 10
122.2026726876483
 20
163.36347416463991
 30
0.0
 11
186.24596410624369
 21
163.3634741520506
 31
0.0
  0
LINE
  5
327
  8
1外形線
 10
188.2459641062442
 20
128.3634741549956
 30
0.0
 11
136.7001473742101
 21
128.3634741549956
 31
0.0
  0
LINE
  5
328
  8
1外形線
 10
188.24596410624429
 20
96.800619117008637
 30
0.0
 11
153.06794489339711
 21
96.800619117008637
 31
0.0
  0
LINE
  5
329
  8
1外形線
 10
188.24596410624429
 20
88.070798742106035
 30
0.0
 11
156.48354984466391
 21
88.070798742106035
 31
0.0
  0
LINE
  5
32A
  8
1外形線
 10
188.24596410624429
 20
82.350816802127838
 30
0.0
 11
155.75921409059401
 21
82.350816802127611
 31
0.0
  0
LINE
  5
32B
  8
1外形線
 10
186.2459641062438
 20
161.37613150786291
 30
0.0
 11
123.02585696867639
 21
161.37613150786299
 31
0.0
  0
LINE
  5
32C
  8
1外形線
 10
186.245964106244
 20
155.6561495678848
 30
0.0
 11
128.5779705012429
 21
155.6561495678848
 31
0.0
  0
LINE
  5
32D
  8
1外形線
 10
186.24596410624429
 20
146.92632919298251
 30
0.0
 11
132.30519595634689
 21
146.92632919298251
 31
0.0
  0
ARC
  5
32E
  8
1外形線
 10
134.5761576848883
 20
140.13717962343139
 30
0.0
 40
0.5
 50
292.50000000000011
 51
22.500000000000099
  0
LINE
  5
32F
  8
1外形線
 10
135.0380974511439
 20
140.32852133961379
 30
0.0
 11
128.9892112285641
 21
154.93182449541831
 31
0.0
  0
ARC
  5
330
  8
1外形線
 10
136.70014737420999
 20
125.8634741549954
 30
0.0
 40
2.5
 50
112.50000000000109
 51
135.00000000000011
  0
LINE
  5
331
  8
1外形線
 10
131.01984590284931
 20
58.646982520315532
 30
0.0
 11
153.9914471376278
 21
81.618583755094051
 31
0.0
  0
LINE
  5
332
  8
1外形線
 10
120.80229269919199
 20
68.864535723972722
 30
0.0
 11
145.67690863330679
 21
93.739151658087621
 31
0.0
  0
LINE
  5
333
  8
1外形線
 10
126.97520788482601
 20
62.691620538338839
 30
0.0
 11
149.4346263960457
 21
85.151039049558676
 31
0.0
  0
LINE
  5
334
  8
1外形線
 10
154.8118273722888
 20
79.628437065098296
 30
0.0
 11
132.42510936517769
 21
57.241719057987211
 31
0.0
  0
LINE
  5
335
  8
1外形線
 10
134.03509942925351
 20
58.581111069514918
 30
0.0
 11
133.95584309463791
 21
58.772452787447492
 31
0.0
  0
ARC
  5
336
  8
1外形線
 10
133.5731596629978
 20
58.38976935333244
 30
0.0
 40
0.5
 50
315.00000002290869
 51
22.500000000000099
  0
LINE
  5
337
  8
1外形線
 10
133.92671305373241
 20
58.036215962880313
 30
0.0
 11
132.77866275746749
 21
56.888165665697443
 31
0.0
  0
ARC
  5
338
  8
1外形線
 10
128.10900095730929
 20
137.4583955968755
 30
0.0
 40
0.5
 50
202.50000000000011
 51
292.50000000000011
  0
ARC
  5
339
  8
1外形線
 10
120.9498502709633
 20
150.8463249225278
 30
0.0
 40
9.0179061520224817
 50
26.93909018793968
 51
74.003742618891025
  0
LINE
  5
33A
  8
1外形線
 10
127.64706119105369
 20
137.267053880693
 30
0.0
 11
121.5981749684735
 21
151.87035703649741
 31
0.0
  0
ARC
  5
33B
  8
1外形線
 10
123.1593812680694
 20
158.5537753333617
 30
0.0
 40
1.0
 50
112.5000000000001
 51
150.99625738110839
  0
ARC
  5
33C
  8
1外形線
 10
123.02585696867639
 20
158.87613150786299
 30
0.0
 40
2.5
 50
90.0
 51
112.49999999999871
  0
ARC
  5
33D
  8
1外形線
 10
122.20267268715691
 20
160.86347416463991
 30
0.0
 40
2.5
 50
89.999999988737073
 51
112.49999999999871
  0
ARC
  5
33E
  8
1外形線
 10
130.1717460705251
 20
154.66615923349769
 30
0.0
 40
9.0179061520224817
 50
150.9962573811091
 51
198.06090981206049
  0
ARC
  5
33F
  8
1外形線
 10
122.20267268715691
 20
160.86347416463971
 30
0.0
 40
2.5
 50
112.50000000000109
 51
135.00000001126281
  0
ARC
  5
340
  8
1外形線
 10
123.02585696867639
 20
158.87613150786299
 30
0.0
 40
2.5
 50
112.50000000000109
 51
135.00000000000011
  0
ARC
  5
341
  8
1外形線
 10
123.15938126806969
 20
158.5537753333619
 30
0.0
 40
1.0
 50
74.003742618891664
 51
112.5000000000001
  0
LINE
  5
342
  8
1外形線
 10
128.3003426734918
 20
136.99645583062011
 30
0.0
 11
131.5339210372812
 21
138.33584784389791
 31
0.0
  0
LINE
  5
343
  8
1外形線
 10
134.76749940107081
 20
139.67523985717571
 30
0.0
 11
131.5339210372814
 21
138.33584784389791
 31
0.0
  0
LINE
  5
344
  8
1外形線
 10
156.07920342281989
 20
89.530797935464307
 30
0.0
 11
143.83981639554111
 21
119.0792920918543
 31
0.0
  0
LINE
  5
345
  8
1外形線
 10
148.68816716272971
 20
86.469330476543519
 30
0.0
 11
136.44878013545059
 21
116.0178246329335
 31
0.0
  0
POLYLINE
  5
346
  8
1外形線
 10
154.29710245460078
 20
83.380666543446438
 30
0.0
 66
     1
 70
     8
  0
VERTEX
  8
1
  5
57C
 10
154.297
 20
83.3807
 30
0.000000
  70
    32
  0
VERTEX
  8
1
  5
57D
 10
154.252
 20
83.3622
 30
0.000000
  70
    32
  0
VERTEX
  8
1
  5
57E
 10
154.206
 20
83.3445
 30
0.000000
  70
    32
  0
VERTEX
  8
1
  5
57F
 10
154.160
 20
83.3275
 30
0.000000
  70
    32
  0
VERTEX
  8
1
  5
580
 10
154.113
 20
83.3111
 30
0.000000
  70
    32
  0
VERTEX
  8
1
  5
581
 10
154.067
 20
83.2955
 30
0.000000
  70
    32
  0
VERTEX
  8
1
  5
582
 10
154.020
 20
83.2806
 30
0.000000
  70
    32
  0
VERTEX
  8
1
  5
583
 10
153.973
 20
83.2664
 30
0.000000
  70
    32
  0
VERTEX
  8
1
  5
584
 10
153.926
 20
83.2529
 30
0.000000
  70
    32
  0
VERTEX
  8
1
  5
585
 10
153.878
 20
83.2401
 30
0.000000
  70
    32
  0
VERTEX
  8
1
  5
586
 10
153.830
 20
83.2280
 30
0.000000
  70
    32
  0
VERTEX
  8
1
  5
587
 10
153.782
 20
83.2167
 30
0.000000
  70
    32
  0
VERTEX
  8
1
  5
588
 10
153.734
 20
83.2061
 30
0.000000
  70
    32
  0
VERTEX
  8
1
  5
589
 10
153.686
 20
83.1962
 30
0.000000
  70
    32
  0
VERTEX
  8
1
  5
58A
 10
153.637
 20
83.1870
 30
0.000000
  70
    32
  0
VERTEX
  8
1
  5
58B
 10
153.588
 20
83.1785
 30
0.000000
  70
    32
  0
VERTEX
  8
1
  5
58C
 10
153.539
 20
83.1708
 30
0.000000
  70
    32
  0
VERTEX
  8
1
  5
58D
 10
153.490
 20
83.1638
 30
0.000000
  70
    32
  0
VERTEX
  8
1
  5
58E
 10
153.441
 20
83.1575
 30
0.000000
  70
    32
  0
VERTEX
  8
1
  5
58F
 10
153.391
 20
83.1520
 30
0.000000
  70
    32
  0
VERTEX
  8
1
  5
590
 10
153.342
 20
83.1472
 30
0.000000
  70
    32
  0
VERTEX
  8
1
  5
591
 10
153.292
 20
83.1431
 30
0.000000
  70
    32
  0
VERTEX
  8
1
  5
592
 10
153.242
 20
83.1397
 30
0.000000
  70
    32
  0
VERTEX
  8
1
  5
593
 10
153.192
 20
83.1371
 30
0.000000
  70
    32
  0
VERTEX
  8
1
  5
594
 10
153.142
 20
83.1352
 30
0.000000
  70
    32
  0
VERTEX
  8
1
  5
595
 10
153.092
 20
83.1341
 30
0.000000
  70
    32
  0
VERTEX
  8
1
  5
596
 10
153.041
 20
83.1337
 30
0.000000
  70
    32
  0
VERTEX
  8
1
  5
597
 10
152.991
 20
83.1340
 30
0.000000
  70
    32
  0
VERTEX
  8
1
  5
598
 10
152.940
 20
83.1350
 30
0.000000
  70
    32
  0
VERTEX
  8
1
  5
599
 10
152.890
 20
83.1368
 30
0.000000
  70
    32
  0
VERTEX
  8
1
  5
59A
 10
152.839
 20
83.1393
 30
0.000000
  70
    32
  0
VERTEX
  8
1
  5
59B
 10
152.788
 20
83.1425
 30
0.000000
  70
    32
  0
VERTEX
  8
1
  5
59C
 10
152.737
 20
83.1465
 30
0.000000
  70
    32
  0
VERTEX
  8
1
  5
59D
 10
152.686
 20
83.1512
 30
0.000000
  70
    32
  0
VERTEX
  8
1
  5
59E
 10
152.635
 20
83.1566
 30
0.000000
  70
    32
  0
VERTEX
  8
1
  5
59F
 10
152.584
 20
83.1628
 30
0.000000
  70
    32
  0
VERTEX
  8
1
  5
5A0
 10
152.533
 20
83.1697
 30
0.000000
  70
    32
  0
VERTEX
  8
1
  5
5A1
 10
152.482
 20
83.1773
 30
0.000000
  70
    32
  0
VERTEX
  8
1
  5
5A2
 10
152.431
 20
83.1857
 30
0.000000
  70
    32
  0
VERTEX
  8
1
  5
5A3
 10
152.380
 20
83.1947
 30
0.000000
  70
    32
  0
VERTEX
  8
1
  5
5A4
 10
152.329
 20
83.2045
 30
0.000000
  70
    32
  0
VERTEX
  8
1
  5
5A5
 10
152.278
 20
83.2151
 30
0.000000
  70
    32
  0
VERTEX
  8
1
  5
5A6
 10
152.227
 20
83.2263
 30
0.000000
  70
    32
  0
VERTEX
  8
1
  5
5A7
 10
152.176
 20
83.2382
 30
0.000000
  70
    32
  0
VERTEX
  8
1
  5
5A8
 10
152.125
 20
83.2509
 30
0.000000
  70
    32
  0
VERTEX
  8
1
  5
5A9
 10
152.074
 20
83.2643
 30
0.000000
  70
    32
  0
VERTEX
  8
1
  5
5AA
 10
152.023
 20
83.2784
 30
0.000000
  70
    32
  0
VERTEX
  8
1
  5
5AB
 10
151.972
 20
83.2932
 30
0.000000
  70
    32
  0
VERTEX
  8
1
  5
5AC
 10
151.922
 20
83.3087
 30
0.000000
  70
    32
  0
VERTEX
  8
1
  5
5AD
 10
151.871
 20
83.3250
 30
0.000000
  70
    32
  0
VERTEX
  8
1
  5
5AE
 10
151.820
 20
83.3419
 30
0.000000
  70
    32
  0
VERTEX
  8
1
  5
5AF
 10
151.770
 20
83.3595
 30
0.000000
  70
    32
  0
VERTEX
  8
1
  5
5B0
 10
151.719
 20
83.3779
 30
0.000000
  70
    32
  0
VERTEX
  8
1
  5
5B1
 10
151.669
 20
83.3969
 30
0.000000
  70
    32
  0
VERTEX
  8
1
  5
5B2
 10
151.619
 20
83.4166
 30
0.000000
  70
    32
  0
VERTEX
  8
1
  5
5B3
 10
151.568
 20
83.4370
 30
0.000000
  70
    32
  0
VERTEX
  8
1
  5
5B4
 10
151.518
 20
83.4581
 30
0.000000
  70
    32
  0
VERTEX
  8
1
  5
5B5
 10
151.468
 20
83.4799
 30
0.000000
  70
    32
  0
VERTEX
  8
1
  5
5B6
 10
151.419
 20
83.5024
 30
0.000000
  70
    32
  0
VERTEX
  8
1
  5
5B7
 10
151.369
 20
83.5255
 30
0.000000
  70
    32
  0
VERTEX
  8
1
  5
5B8
 10
151.320
 20
83.5493
 30
0.000000
  70
    32
  0
VERTEX
  8
1
  5
5B9
 10
151.270
 20
83.5738
 30
0.000000
  70
    32
  0
VERTEX
  8
1
  5
5BA
 10
151.221
 20
83.5990
 30
0.000000
  70
    32
  0
VERTEX
  8
1
  5
5BB
 10
151.172
 20
83.6248
 30
0.000000
  70
    32
  0
VERTEX
  8
1
  5
5BC
 10
151.124
 20
83.6513
 30
0.000000
  70
    32
  0
VERTEX
  8
1
  5
5BD
 10
151.075
 20
83.6784
 30
0.000000
  70
    32
  0
VERTEX
  8
1
  5
5BE
 10
151.027
 20
83.7062
 30
0.000000
  70
    32
  0
VERTEX
  8
1
  5
5BF
 10
150.978
 20
83.7346
 30
0.000000
  70
    32
  0
VERTEX
  8
1
  5
5C0
 10
150.930
 20
83.7637
 30
0.000000
  70
    32
  0
VERTEX
  8
1
  5
5C1
 10
150.883
 20
83.7934
 30
0.000000
  70
    32
  0
VERTEX
  8
1
  5
5C2
 10
150.835
 20
83.8237
 30
0.000000
  70
    32
  0
VERTEX
  8
1
  5
5C3
 10
150.788
 20
83.8547
 30
0.000000
  70
    32
  0
VERTEX
  8
1
  5
5C4
 10
150.741
 20
83.8863
 30
0.000000
  70
    32
  0
VERTEX
  8
1
  5
5C5
 10
150.694
 20
83.9185
 30
0.000000
  70
    32
  0
VERTEX
  8
1
  5
5C6
 10
150.648
 20
83.9513
 30
0.000000
  70
    32
  0
VERTEX
  8
1
  5
5C7
 10
150.601
 20
83.9848
 30
0.000000
  70
    32
  0
VERTEX
  8
1
  5
5C8
 10
150.555
 20
84.0188
 30
0.000000
  70
    32
  0
VERTEX
  8
1
  5
5C9
 10
150.510
 20
84.0534
 30
0.000000
  70
    32
  0
VERTEX
  8
1
  5
5CA
 10
150.464
 20
84.0887
 30
0.000000
  70
    32
  0
VERTEX
  8
1
  5
5CB
 10
150.419
 20
84.1245
 30
0.000000
  70
    32
  0
VERTEX
  8
1
  5
5CC
 10
150.374
 20
84.1609
 30
0.000000
  70
    32
  0
VERTEX
  8
1
  5
5CD
 10
150.329
 20
84.1979
 30
0.000000
  70
    32
  0
VERTEX
  8
1
  5
5CE
 10
150.285
 20
84.2355
 30
0.000000
  70
    32
  0
VERTEX
  8
1
  5
5CF
 10
150.241
 20
84.2736
 30
0.000000
  70
    32
  0
VERTEX
  8
1
  5
5D0
 10
150.198
 20
84.3123
 30
0.000000
  70
    32
  0
VERTEX
  8
1
  5
5D1
 10
150.154
 20
84.3515
 30
0.000000
  70
    32
  0
VERTEX
  8
1
  5
5D2
 10
150.111
 20
84.3913
 30
0.000000
  70
    32
  0
VERTEX
  8
1
  5
5D3
 10
150.069
 20
84.4316
 30
0.000000
  70
    32
  0
VERTEX
  8
1
  5
5D4
 10
150.027
 20
84.4725
 30
0.000000
  70
    32
  0
VERTEX
  8
1
  5
5D5
 10
149.985
 20
84.5139
 30
0.000000
  70
    32
  0
VERTEX
  8
1
  5
5D6
 10
149.943
 20
84.5558
 30
0.000000
  70
    32
  0
VERTEX
  8
1
  5
5D7
 10
149.902
 20
84.5983
 30
0.000000
  70
    32
  0
VERTEX
  8
1
  5
5D8
 10
149.861
 20
84.6413
 30
0.000000
  70
    32
  0
VERTEX
  8
1
  5
5D9
 10
149.821
 20
84.6847
 30
0.000000
  70
    32
  0
VERTEX
  8
1
  5
5DA
 10
149.781
 20
84.7287
 30
0.000000
  70
    32
  0
VERTEX
  8
1
  5
5DB
 10
149.741
 20
84.7731
 30
0.000000
  70
    32
  0
VERTEX
  8
1
  5
5DC
 10
149.702
 20
84.8181
 30
0.000000
  70
    32
  0
VERTEX
  8
1
  5
5DD
 10
149.663
 20
84.8635
 30
0.000000
  70
    32
  0
VERTEX
  8
1
  5
5DE
 10
149.624
 20
84.9094
 30
0.000000
  70
    32
  0
VERTEX
  8
1
  5
5DF
 10
149.586
 20
84.9558
 30
0.000000
  70
    32
  0
VERTEX
  8
1
  5
5E0
 10
149.549
 20
85.0026
 30
0.000000
  70
    32
  0
VERTEX
  8
1
  5
5E1
 10
149.512
 20
85.0499
 30
0.000000
  70
    32
  0
VERTEX
  8
1
  5
5E2
 10
149.475
 20
85.0976
 30
0.000000
  70
    32
  0
VERTEX
  8
1
  5
5E3
 10
149.439
 20
85.1457
 30
0.000000
  70
    32
  0
VERTEX
  8
1
  5
5E4
 10
149.403
 20
85.1943
 30
0.000000
  70
    32
  0
VERTEX
  8
1
  5
5E5
 10
149.367
 20
85.2433
 30
0.000000
  70
    32
  0
VERTEX
  8
1
  5
5E6
 10
149.332
 20
85.2927
 30
0.000000
  70
    32
  0
VERTEX
  8
1
  5
5E7
 10
149.298
 20
85.3426
 30
0.000000
  70
    32
  0
VERTEX
  8
1
  5
5E8
 10
149.264
 20
85.3928
 30
0.000000
  70
    32
  0
VERTEX
  8
1
  5
5E9
 10
149.230
 20
85.4434
 30
0.000000
  70
    32
  0
VERTEX
  8
1
  5
5EA
 10
149.197
 20
85.4944
 30
0.000000
  70
    32
  0
VERTEX
  8
1
  5
5EB
 10
149.165
 20
85.5458
 30
0.000000
  70
    32
  0
VERTEX
  8
1
  5
5EC
 10
149.132
 20
85.5975
 30
0.000000
  70
    32
  0
VERTEX
  8
1
  5
5ED
 10
149.101
 20
85.6497
 30
0.000000
  70
    32
  0
VERTEX
  8
1
  5
5EE
 10
149.070
 20
85.7021
 30
0.000000
  70
    32
  0
VERTEX
  8
1
  5
5EF
 10
149.039
 20
85.7549
 30
0.000000
  70
    32
  0
VERTEX
  8
1
  5
5F0
 10
149.009
 20
85.8081
 30
0.000000
  70
    32
  0
VERTEX
  8
1
  5
5F1
 10
148.979
 20
85.8616
 30
0.000000
  70
    32
  0
VERTEX
  8
1
  5
5F2
 10
148.950
 20
85.9154
 30
0.000000
  70
    32
  0
VERTEX
  8
1
  5
5F3
 10
148.922
 20
85.9695
 30
0.000000
  70
    32
  0
VERTEX
  8
1
  5
5F4
 10
148.894
 20
86.0239
 30
0.000000
  70
    32
  0
VERTEX
  8
1
  5
5F5
 10
148.866
 20
86.0786
 30
0.000000
  70
    32
  0
VERTEX
  8
1
  5
5F6
 10
148.839
 20
86.1337
 30
0.000000
  70
    32
  0
VERTEX
  8
1
  5
5F7
 10
148.812
 20
86.1889
 30
0.000000
  70
    32
  0
VERTEX
  8
1
  5
5F8
 10
148.787
 20
86.2445
 30
0.000000
  70
    32
  0
VERTEX
  8
1
  5
5F9
 10
148.761
 20
86.3003
 30
0.000000
  70
    32
  0
VERTEX
  8
1
  5
5FA
 10
148.736
 20
86.3564
 30
0.000000
  70
    32
  0
VERTEX
  8
1
  5
5FB
 10
148.712
 20
86.4128
 30
0.000000
  70
    32
  0
VERTEX
  8
1
  5
5FC
 10
148.688
 20
86.4693
 30
0.000000
  70
    32
  0
SEQEND
  8
1
  5
5FD
  0
ARC
  5
347
  8
1外形線
 10
141.35844742413491
 20
66.175057114486208
 30
0.0
 40
0.5
 50
224.9999999999998
 51
315.00000002290778
  0
LINE
  5
348
  8
1外形線
 10
142.61488409619739
 20
67.160895737110863
 30
0.0
 11
142.5356277617729
 21
67.352237454582337
 31
0.0
  0
ARC
  5
349
  8
1外形線
 10
142.1529443299417
 20
66.969554020928385
 30
0.0
 40
0.5
 50
315.00000002290813
 51
22.500000000000099
  0
LINE
  5
34A
  8
1外形線
 10
142.50649772067629
 20
66.616000630476492
 30
0.0
 11
141.71200081486961
 21
65.821503724034301
 31
0.0
  0
ARC
  5
34B
  8
1外形線
 10
144.4199148818314
 20
69.236524574631176
 30
0.0
 40
0.5
 50
224.9999999999998
 51
315.00000002291671
  0
ARC
  5
34C
  8
1外形線
 10
145.21441178814541
 20
70.031021481580623
 30
0.0
 40
0.5
 50
315.00000002291728
 51
22.5000000000021
  0
LINE
  5
34D
  8
1外形線
 10
145.6763515544009
 20
70.222363197763343
 30
0.0
 11
145.5970952206936
 21
70.413704913503125
 31
0.0
  0
LINE
  5
34E
  8
1外形線
 10
145.56796517887989
 20
69.677468091128731
 30
0.0
 11
144.77346827256599
 21
68.882971184179269
 31
0.0
  0
POLYLINE
  5
34F
  8
1外形線
 10
154.29710245460058
 20
83.380666543446424
 30
0.0
 66
     1
 70
     8
  0
VERTEX
  8
1
  5
5FE
 10
154.297
 20
83.3807
 30
0.000000
  70
    32
  0
VERTEX
  8
1
  5
5FF
 10
154.342
 20
83.3998
 30
0.000000
  70
    32
  0
VERTEX
  8
1
  5
600
 10
154.387
 20
83.4196
 30
0.000000
  70
    32
  0
VERTEX
  8
1
  5
601
 10
154.432
 20
83.4401
 30
0.000000
  70
    32
  0
VERTEX
  8
1
  5
602
 10
154.476
 20
83.4613
 30
0.000000
  70
    32
  0
VERTEX
  8
1
  5
603
 10
154.520
 20
83.4832
 30
0.000000
  70
    32
  0
VERTEX
  8
1
  5
604
 10
154.564
 20
83.5058
 30
0.000000
  70
    32
  0
VERTEX
  8
1
  5
605
 10
154.607
 20
83.5290
 30
0.000000
  70
    32
  0
VERTEX
  8
1
  5
606
 10
154.650
 20
83.5529
 30
0.000000
  70
    32
  0
VERTEX
  8
1
  5
607
 10
154.693
 20
83.5775
 30
0.000000
  70
    32
  0
VERTEX
  8
1
  5
608
 10
154.735
 20
83.6028
 30
0.000000
  70
    32
  0
VERTEX
  8
1
  5
609
 10
154.777
 20
83.6287
 30
0.000000
  70
    32
  0
VERTEX
  8
1
  5
60A
 10
154.819
 20
83.6553
 30
0.000000
  70
    32
  0
VERTEX
  8
1
  5
60B
 10
154.860
 20
83.6825
 30
0.000000
  70
    32
  0
VERTEX
  8
1
  5
60C
 10
154.901
 20
83.7104
 30
0.000000
  70
    32
  0
VERTEX
  8
1
  5
60D
 10
154.941
 20
83.7389
 30
0.000000
  70
    32
  0
VERTEX
  8
1
  5
60E
 10
154.981
 20
83.7681
 30
0.000000
  70
    32
  0
VERTEX
  8
1
  5
60F
 10
155.021
 20
83.7979
 30
0.000000
  70
    32
  0
VERTEX
  8
1
  5
610
 10
155.060
 20
83.8283
 30
0.000000
  70
    32
  0
VERTEX
  8
1
  5
611
 10
155.099
 20
83.8594
 30
0.000000
  70
    32
  0
VERTEX
  8
1
  5
612
 10
155.138
 20
83.8910
 30
0.000000
  70
    32
  0
VERTEX
  8
1
  5
613
 10
155.176
 20
83.9233
 30
0.000000
  70
    32
  0
VERTEX
  8
1
  5
614
 10
155.213
 20
83.9563
 30
0.000000
  70
    32
  0
VERTEX
  8
1
  5
615
 10
155.251
 20
83.9898
 30
0.000000
  70
    32
  0
VERTEX
  8
1
  5
616
 10
155.287
 20
84.0239
 30
0.000000
  70
    32
  0
VERTEX
  8
1
  5
617
 10
155.324
 20
84.0587
 30
0.000000
  70
    32
  0
VERTEX
  8
1
  5
618
 10
155.360
 20
84.0940
 30
0.000000
  70
    32
  0
VERTEX
  8
1
  5
619
 10
155.395
 20
84.1299
 30
0.000000
  70
    32
  0
VERTEX
  8
1
  5
61A
 10
155.430
 20
84.1664
 30
0.000000
  70
    32
  0
VERTEX
  8
1
  5
61B
 10
155.465
 20
84.2035
 30
0.000000
  70
    32
  0
VERTEX
  8
1
  5
61C
 10
155.499
 20
84.2411
 30
0.000000
  70
    32
  0
VERTEX
  8
1
  5
61D
 10
155.533
 20
84.2793
 30
0.000000
  70
    32
  0
VERTEX
  8
1
  5
61E
 10
155.566
 20
84.3181
 30
0.000000
  70
    32
  0
VERTEX
  8
1
  5
61F
 10
155.598
 20
84.3574
 30
0.000000
  70
    32
  0
VERTEX
  8
1
  5
620
 10
155.631
 20
84.3973
 30
0.000000
  70
    32
  0
VERTEX
  8
1
  5
621
 10
155.662
 20
84.4377
 30
0.000000
  70
    32
  0
VERTEX
  8
1
  5
622
 10
155.693
 20
84.4787
 30
0.000000
  70
    32
  0
VERTEX
  8
1
  5
623
 10
155.724
 20
84.5201
 30
0.000000
  70
    32
  0
VERTEX
  8
1
  5
624
 10
155.754
 20
84.5621
 30
0.000000
  70
    32
  0
VERTEX
  8
1
  5
625
 10
155.784
 20
84.6047
 30
0.000000
  70
    32
  0
VERTEX
  8
1
  5
626
 10
155.813
 20
84.6477
 30
0.000000
  70
    32
  0
VERTEX
  8
1
  5
627
 10
155.842
 20
84.6912
 30
0.000000
  70
    32
  0
VERTEX
  8
1
  5
628
 10
155.870
 20
84.7353
 30
0.000000
  70
    32
  0
VERTEX
  8
1
  5
629
 10
155.898
 20
84.7798
 30
0.000000
  70
    32
  0
VERTEX
  8
1
  5
62A
 10
155.925
 20
84.8248
 30
0.000000
  70
    32
  0
VERTEX
  8
1
  5
62B
 10
155.951
 20
84.8703
 30
0.000000
  70
    32
  0
VERTEX
  8
1
  5
62C
 10
155.977
 20
84.9163
 30
0.000000
  70
    32
  0
VERTEX
  8
1
  5
62D
 10
156.003
 20
84.9627
 30
0.000000
  70
    32
  0
VERTEX
  8
1
  5
62E
 10
156.028
 20
85.0096
 30
0.000000
  70
    32
  0
VERTEX
  8
1
  5
62F
 10
156.052
 20
85.0569
 30
0.000000
  70
    32
  0
VERTEX
  8
1
  5
630
 10
156.076
 20
85.1047
 30
0.000000
  70
    32
  0
VERTEX
  8
1
  5
631
 10
156.099
 20
85.1529
 30
0.000000
  70
    32
  0
VERTEX
  8
1
  5
632
 10
156.122
 20
85.2016
 30
0.000000
  70
    32
  0
VERTEX
  8
1
  5
633
 10
156.144
 20
85.2507
 30
0.000000
  70
    32
  0
VERTEX
  8
1
  5
634
 10
156.166
 20
85.3001
 30
0.000000
  70
    32
  0
VERTEX
  8
1
  5
635
 10
156.187
 20
85.3500
 30
0.000000
  70
    32
  0
VERTEX
  8
1
  5
636
 10
156.207
 20
85.4003
 30
0.000000
  70
    32
  0
VERTEX
  8
1
  5
637
 10
156.227
 20
85.4510
 30
0.000000
  70
    32
  0
VERTEX
  8
1
  5
638
 10
156.246
 20
85.5020
 30
0.000000
  70
    32
  0
VERTEX
  8
1
  5
639
 10
156.265
 20
85.5535
 30
0.000000
  70
    32
  0
VERTEX
  8
1
  5
63A
 10
156.283
 20
85.6053
 30
0.000000
  70
    32
  0
VERTEX
  8
1
  5
63B
 10
156.301
 20
85.6575
 30
0.000000
  70
    32
  0
VERTEX
  8
1
  5
63C
 10
156.318
 20
85.7100
 30
0.000000
  70
    32
  0
VERTEX
  8
1
  5
63D
 10
156.334
 20
85.7628
 30
0.000000
  70
    32
  0
VERTEX
  8
1
  5
63E
 10
156.350
 20
85.8160
 30
0.000000
  70
    32
  0
VERTEX
  8
1
  5
63F
 10
156.365
 20
85.8696
 30
0.000000
  70
    32
  0
VERTEX
  8
1
  5
640
 10
156.380
 20
85.9234
 30
0.000000
  70
    32
  0
VERTEX
  8
1
  5
641
 10
156.393
 20
85.9776
 30
0.000000
  70
    32
  0
VERTEX
  8
1
  5
642
 10
156.407
 20
86.0321
 30
0.000000
  70
    32
  0
VERTEX
  8
1
  5
643
 10
156.420
 20
86.0868
 30
0.000000
  70
    32
  0
VERTEX
  8
1
  5
644
 10
156.432
 20
86.1419
 30
0.000000
  70
    32
  0
VERTEX
  8
1
  5
645
 10
156.443
 20
86.1972
 30
0.000000
  70
    32
  0
VERTEX
  8
1
  5
646
 10
156.454
 20
86.2528
 30
0.000000
  70
    32
  0
VERTEX
  8
1
  5
647
 10
156.465
 20
86.3087
 30
0.000000
  70
    32
  0
VERTEX
  8
1
  5
648
 10
156.474
 20
86.3648
 30
0.000000
  70
    32
  0
VERTEX
  8
1
  5
649
 10
156.483
 20
86.4212
 30
0.000000
  70
    32
  0
VERTEX
  8
1
  5
64A
 10
156.492
 20
86.4778
 30
0.000000
  70
    32
  0
VERTEX
  8
1
  5
64B
 10
156.500
 20
86.5346
 30
0.000000
  70
    32
  0
VERTEX
  8
1
  5
64C
 10
156.507
 20
86.5917
 30
0.000000
  70
    32
  0
VERTEX
  8
1
  5
64D
 10
156.513
 20
86.6490
 30
0.000000
  70
    32
  0
VERTEX
  8
1
  5
64E
 10
156.519
 20
86.7064
 30
0.000000
  70
    32
  0
VERTEX
  8
1
  5
64F
 10
156.525
 20
86.7641
 30
0.000000
  70
    32
  0
VERTEX
  8
1
  5
650
 10
156.530
 20
86.8219
 30
0.000000
  70
    32
  0
VERTEX
  8
1
  5
651
 10
156.534
 20
86.8800
 30
0.000000
  70
    32
  0
VERTEX
  8
1
  5
652
 10
156.537
 20
86.9382
 30
0.000000
  70
    32
  0
VERTEX
  8
1
  5
653
 10
156.540
 20
86.9965
 30
0.000000
  70
    32
  0
VERTEX
  8
1
  5
654
 10
156.542
 20
87.0550
 30
0.000000
  70
    32
  0
VERTEX
  8
1
  5
655
 10
156.544
 20
87.1137
 30
0.000000
  70
    32
  0
VERTEX
  8
1
  5
656
 10
156.545
 20
87.1725
 30
0.000000
  70
    32
  0
VERTEX
  8
1
  5
657
 10
156.545
 20
87.2314
 30
0.000000
  70
    32
  0
VERTEX
  8
1
  5
658
 10
156.545
 20
87.2904
 30
0.000000
  70
    32
  0
VERTEX
  8
1
  5
659
 10
156.544
 20
87.3496
 30
0.000000
  70
    32
  0
VERTEX
  8
1
  5
65A
 10
156.542
 20
87.4088
 30
0.000000
  70
    32
  0
VERTEX
  8
1
  5
65B
 10
156.540
 20
87.4681
 30
0.000000
  70
    32
  0
VERTEX
  8
1
  5
65C
 10
156.538
 20
87.5275
 30
0.000000
  70
    32
  0
VERTEX
  8
1
  5
65D
 10
156.534
 20
87.5870
 30
0.000000
  70
    32
  0
VERTEX
  8
1
  5
65E
 10
156.530
 20
87.6465
 30
0.000000
  70
    32
  0
VERTEX
  8
1
  5
65F
 10
156.525
 20
87.7061
 30
0.000000
  70
    32
  0
VERTEX
  8
1
  5
660
 10
156.520
 20
87.7657
 30
0.000000
  70
    32
  0
VERTEX
  8
1
  5
661
 10
156.514
 20
87.8254
 30
0.000000
  70
    32
  0
VERTEX
  8
1
  5
662
 10
156.508
 20
87.8851
 30
0.000000
  70
    32
  0
VERTEX
  8
1
  5
663
 10
156.501
 20
87.9448
 30
0.000000
  70
    32
  0
VERTEX
  8
1
  5
664
 10
156.493
 20
88.0045
 30
0.000000
  70
    32
  0
VERTEX
  8
1
  5
665
 10
156.485
 20
88.0642
 30
0.000000
  70
    32
  0
VERTEX
  8
1
  5
666
 10
156.476
 20
88.1239
 30
0.000000
  70
    32
  0
VERTEX
  8
1
  5
667
 10
156.466
 20
88.1836
 30
0.000000
  70
    32
  0
VERTEX
  8
1
  5
668
 10
156.456
 20
88.2433
 30
0.000000
  70
    32
  0
VERTEX
  8
1
  5
669
 10
156.445
 20
88.3029
 30
0.000000
  70
    32
  0
VERTEX
  8
1
  5
66A
 10
156.433
 20
88.3625
 30
0.000000
  70
    32
  0
VERTEX
  8
1
  5
66B
 10
156.421
 20
88.4220
 30
0.000000
  70
    32
  0
VERTEX
  8
1
  5
66C
 10
156.409
 20
88.4815
 30
0.000000
  70
    32
  0
VERTEX
  8
1
  5
66D
 10
156.395
 20
88.5409
 30
0.000000
  70
    32
  0
VERTEX
  8
1
  5
66E
 10
156.381
 20
88.6002
 30
0.000000
  70
    32
  0
VERTEX
  8
1
  5
66F
 10
156.367
 20
88.6594
 30
0.000000
  70
    32
  0
VERTEX
  8
1
  5
670
 10
156.352
 20
88.7185
 30
0.000000
  70
    32
  0
VERTEX
  8
1
  5
671
 10
156.336
 20
88.7775
 30
0.000000
  70
    32
  0
VERTEX
  8
1
  5
672
 10
156.320
 20
88.8364
 30
0.000000
  70
    32
  0
VERTEX
  8
1
  5
673
 10
156.303
 20
88.8952
 30
0.000000
  70
    32
  0
VERTEX
  8
1
  5
674
 10
156.286
 20
88.9538
 30
0.000000
  70
    32
  0
VERTEX
  8
1
  5
675
 10
156.268
 20
89.0123
 30
0.000000
  70
    32
  0
VERTEX
  8
1
  5
676
 10
156.249
 20
89.0706
 30
0.000000
  70
    32
  0
VERTEX
  8
1
  5
677
 10
156.230
 20
89.1288
 30
0.000000
  70
    32
  0
VERTEX
  8
1
  5
678
 10
156.210
 20
89.1868
 30
0.000000
  70
    32
  0
VERTEX
  8
1
  5
679
 10
156.190
 20
89.2447
 30
0.000000
  70
    32
  0
VERTEX
  8
1
  5
67A
 10
156.169
 20
89.3023
 30
0.000000
  70
    32
  0
VERTEX
  8
1
  5
67B
 10
156.147
 20
89.3597
 30
0.000000
  70
    32
  0
VERTEX
  8
1
  5
67C
 10
156.125
 20
89.4170
 30
0.000000
  70
    32
  0
VERTEX
  8
1
  5
67D
 10
156.102
 20
89.4740
 30
0.000000
  70
    32
  0
VERTEX
  8
1
  5
67E
 10
156.079
 20
89.5308
 30
0.000000
  70
    32
  0
SEQEND
  8
1
  5
67F
  0
ARC
  5
350
  8
1外形線
 10
155.75921409059401
 20
79.850816802127611
 30
0.0
 40
2.5
 50
90.0
 51
112.499999999997
  0
ARC
  5
351
  8
1外形線
 10
156.5795943252551
 20
77.860670112131857
 30
0.0
 40
2.5
 50
112.4160351007795
 51
135.00000000000011
  0
ARC
  5
352
  8
1外形線
 10
155.7592140905941
 20
79.850816802127611
 30
0.0
 40
2.5
 50
112.5000000000029
 51
135.00000000000011
  0
ARC
  5
353
  8
1外形線
 10
156.5863638835657
 20
77.863474154995615
 30
0.0
 40
2.5
 50
90.0
 51
112.5839648992204
  0
LINE
  5
354
  8
1外形線
 10
143.186534913103
 20
119.3498901419275
 30
0.0
 11
139.95295654931351
 21
118.0104981286497
 31
0.0
  0
LINE
  5
355
  8
1外形線
 10
136.7193781855236
 20
116.6711061153716
 30
0.0
 11
139.95295654931309
 21
118.0104981286494
 31
0.0
  0
ARC
  5
356
  8
1外形線
 10
136.91071990170619
 20
116.2091663491159
 30
0.0
 40
0.5
 50
112.5000000000001
 51
202.50000000000011
  0
ARC
  5
357
  8
1外形線
 10
136.7001473742101
 20
125.8634741549956
 30
0.0
 40
2.5
 50
90.0
 51
112.49999999999871
  0
ARC
  5
358
  8
1外形線
 10
143.37787662928551
 20
118.88795037567181
 30
0.0
 40
0.5
 50
22.500000000000099
 51
112.5000000000001
  0
LINE
  5
359
  8
1外形線
 10
188.24596410624429
 20
163.8634741549954
 30
0.0
 11
188.24596410624429
 21
79.863474152596382
 31
0.0
  0
ARC
  5
35A
  8
1外形線
 10
175.61231626774131
 20
80.363474153257357
 30
0.0
 40
0.5
 50
269.99999997709199
 51
0.0
  0
ARC
  5
35B
  8
1外形線
 10
171.28274746657169
 20
80.363474154988793
 30
0.0
 40
0.5
 50
269.99999997708318
 51
0.0
  0
LINE
  5
35C
  8
1外形線
 10
170.1591591657498
 20
79.863474155438098
 30
0.0
 11
171.2827474663718
 21
79.863474154988793
 31
0.0
  0
LINE
  5
35D
  8
1外形線
 10
169.69721939969409
 20
80.17213243925562
 30
0.0
 11
169.61796306598691
 21
80.363474154995615
 31
0.0
  0
ARC
  5
35E
  8
1外形線
 10
170.1591591659498
 20
80.363474155438098
 30
0.0
 40
0.5
 50
202.49999999999801
 51
269.99999997708238
  0
LINE
  5
35F
  8
1外形線
 10
174.48872796763681
 20
79.863474153706647
 30
0.0
 11
175.61231626754139
 21
79.863474153257357
 31
0.0
  0
ARC
  5
360
  8
1外形線
 10
174.48872796783661
 20
80.363474153706647
 30
0.0
 40
0.5
 50
202.50000000000011
 51
269.99999997709182
  0
LINE
  5
361
  8
1外形線
 10
174.02678820158101
 20
80.172132437523942
 30
0.0
 11
173.94753186715661
 21
80.363474154995615
 31
0.0
  0
LINE
  5
362
  8
1外形線
 10
186.62237580633069
 20
79.863474153245534
 30
0.0
 11
188.24596410624429
 21
79.863474152596382
 31
0.0
  0
LINE
  5
363
  8
1外形線
 10
186.1604360402749
 20
80.172132437062828
 30
0.0
 11
186.08117970565951
 21
80.363474154995615
 31
0.0
  0
ARC
  5
364
  8
1外形線
 10
186.62237580653061
 20
80.363474153245534
 30
0.0
 40
0.5
 50
202.50000000000011
 51
269.99999997709119
  0
ARC
  5
365
  8
1外形線
 10
175.70475589478431
 20
163.5634741549953
 30
0.0
 40
0.3
 50
22.500000000000099
 51
89.999999999993875
  0
LINE
  5
366
  8
1外形線
 10
169.9179630659869
 20
163.86347415499489
 30
0.0
 11
171.37518709400939
 21
163.86347415499509
 31
0.0
  0
LINE
  5
367
  8
1外形線
 10
169.61796306598691
 20
163.3634741553191
 30
0.0
 11
169.61796306598691
 21
163.56347415499491
 31
0.0
  0
ARC
  5
368
  8
1外形線
 10
169.91796306598701
 20
163.56347415499491
 30
0.0
 40
0.3
 50
90.0000000000055
 51
180.0
  0
LINE
  5
369
  8
1外形線
 10
171.78274746657169
 20
163.36347415499509
 30
0.0
 11
171.65235095376269
 21
163.67827918470459
 31
0.0
  0
ARC
  5
36A
  8
1外形線
 10
171.37518709400939
 20
163.56347415499519
 30
0.0
 40
0.3
 50
22.500000000000099
 51
90.000000000005087
  0
LINE
  5
36B
  8
1外形線
 10
174.24753186715651
 20
163.86347415499549
 30
0.0
 11
175.7047558947844
 21
163.8634741549954
 31
0.0
  0
LINE
  5
36C
  8
1外形線
 10
173.9475318671565
 20
163.36347415446809
 30
0.0
 11
173.9475318671565
 21
163.56347415499539
 31
0.0
  0
ARC
  5
36D
  8
1外形線
 10
174.2475318671564
 20
163.56347415499539
 30
0.0
 40
0.3
 50
89.999999999994287
 51
180.0
  0
LINE
  5
36E
  8
1外形線
 10
176.11231626774119
 20
163.36347415404259
 30
0.0
 11
175.98191975453761
 21
163.67827918470479
 31
0.0
  0
LINE
  5
36F
  8
1外形線
 10
186.24596410624369
 20
163.3634741549952
 30
0.0
 11
186.2459641062446
 21
128.3634741549956
 31
0.0
  0
LINE
  5
370
  8
1外形線
 10
186.7459641062444
 20
163.8634741549952
 30
0.0
 11
188.24596410624429
 21
163.8634741549954
 31
0.0
  0
ARC
  5
371
  8
1外形線
 10
186.7459641062442
 20
163.3634741549952
 30
0.0
 40
0.5
 50
90.000000000001421
 51
180.00000000000139
  0
LINE
  5
372
  8
1外形線
 10
228.2459641062442
 20
134.4325428119634
 30
0.0
 11
228.2459641062442
 21
90.548302434195435
 31
0.0
  0
LINE
  5
373
  8
1外形線
 10
221.7459641062442
 20
136.3634741549954
 30
0.0
 11
221.74596410624429
 21
107.3634741549954
 31
0.0
  0
LINE
  5
374
  8
1外形線
 10
218.7459641062442
 20
58.655932618663883
 30
0.0
 11
218.7459641062442
 21
128.3634741549956
 31
0.0
  0
LINE
  5
375
  8
1外形線
 10
227.45328869335489
 20
88.070798742106035
 30
0.0
 11
227.45328869335489
 21
58.655932618663883
 31
0.0
  0
LINE
  5
376
  8
1外形線
 10
221.24497621615461
 20
96.800619117008637
 30
0.0
 11
221.24497621615461
 21
58.655932618663883
 31
0.0
  0
LINE
  5
377
  8
1外形線
 10
218.2459641062442
 20
56.888165665697443
 30
0.0
 11
218.2459641062442
 21
58.655932618663883
 31
0.0
  0
LINE
  5
378
  8
1外形線
 10
228.2459641062442
 20
153.17864587579581
 30
0.0
 11
228.2459641062442
 21
135.47489385551961
 31
0.0
  0
ARC
  5
379
  8
1外形線
 10
222.7459641062442
 20
116.2460093324902
 30
0.0
 40
20.0
 50
74.037985837152661
 51
92.817936598993938
  0
ARC
  5
37A
  8
1外形線
 10
222.7459641062442
 20
116.2460093324902
 30
0.0
 40
19.0
 50
73.173551107259044
 51
92.817936598993938
  0
LINE
  5
37B
  8
1外形線
 10
220.2459641062444
 20
133.3634741549956
 30
0.0
 11
221.65095166835641
 21
133.3634741549954
 31
0.0
  0
LINE
  5
37C
  8
1外形線
 10
218.2459641062442
 20
128.3634741549956
 30
0.0
 11
220.2459641062444
 21
128.3634741549956
 31
0.0
  0
LINE
  5
37D
  8
1外形線
 10
220.2459641062444
 20
133.3634741549956
 30
0.0
 11
220.2459641062444
 21
128.3634741549956
 31
0.0
  0
LINE
  5
37E
  8
1外形線
 10
218.2459641062444
 20
135.36347415499509
 30
0.0
 11
218.2459641062442
 21
128.3634741549956
 31
0.0
  0
LINE
  5
37F
  8
1外形線
 10
221.65095166835641
 20
133.3634741549956
 30
0.0
 11
221.7459641062442
 21
133.3634741549954
 31
0.0
  0
LINE
  5
380
  8
1外形線
 10
224.7459641062442
 20
136.14575807462251
 30
0.0
 11
224.7459641062442
 21
135.14045296018139
 31
0.0
  0
LINE
  5
381
  8
1外形線
 10
150.73712147886269
 20
277.85350127026959
 30
0.0
 11
183.0241387000502
 21
277.85350127026959
 31
0.0
  0
LINE
  5
382
  8
1外形線
 10
120.0813523446067
 20
351.8535012791811
 30
0.0
 11
181.0241387000502
 21
351.85350126720141
 31
0.0
  0
LINE
  5
383
  8
1外形線
 10
183.1246437632025
 20
314.85350127026959
 30
0.0
 11
135.40725415561121
 21
314.85350127026959
 31
0.0
  0
LINE
  5
384
  8
1外形線
 10
181.12464376320219
 20
349.86615862313732
 30
0.0
 11
120.9045366253312
 21
349.86615862313732
 31
0.0
  0
LINE
  5
385
  8
1外形線
 10
181.1246437632023
 20
344.14617668315913
 30
0.0
 11
126.45665015773891
 21
344.14617668315913
 31
0.0
  0
LINE
  5
386
  8
1外形線
 10
181.1246437632025
 20
335.4163563082567
 30
0.0
 11
130.1838756130017
 21
335.41635630825658
 31
0.0
  0
LINE
  5
387
  8
1外形線
 10
183.1246437632025
 20
294.29064623227731
 30
0.0
 11
147.21870248869621
 21
294.29064623227731
 31
0.0
  0
LINE
  5
388
  8
1外形線
 10
183.1246437632025
 20
285.5608258573759
 30
0.0
 11
150.6343074399615
 21
285.5608258573759
 31
0.0
  0
LINE
  5
389
  8
1外形線
 10
183.1246437632025
 20
279.84084391739958
 30
0.0
 11
149.90997168588831
 21
279.84084391739958
 31
0.0
  0
POLYLINE
  5
38A
  8
1外形線
 10
148.44786004989757
 20
280.87069365872048
 30
0.0
 66
     1
 70
     8
  0
VERTEX
  8
1
  5
680
 10
148.448
 20
280.871
 30
0.000000
  70
    32
  0
VERTEX
  8
1
  5
681
 10
148.493
 20
280.890
 30
0.000000
  70
    32
  0
VERTEX
  8
1
  5
682
 10
148.538
 20
280.910
 30
0.000000
  70
    32
  0
VERTEX
  8
1
  5
683
 10
148.583
 20
280.930
 30
0.000000
  70
    32
  0
VERTEX
  8
1
  5
684
 10
148.627
 20
280.951
 30
0.000000
  70
    32
  0
VERTEX
  8
1
  5
685
 10
148.671
 20
280.973
 30
0.000000
  70
    32
  0
VERTEX
  8
1
  5
686
 10
148.715
 20
280.996
 30
0.000000
  70
    32
  0
VERTEX
  8
1
  5
687
 10
148.758
 20
281.019
 30
0.000000
  70
    32
  0
VERTEX
  8
1
  5
688
 10
148.801
 20
281.043
 30
0.000000
  70
    32
  0
VERTEX
  8
1
  5
689
 10
148.844
 20
281.068
 30
0.000000
  70
    32
  0
VERTEX
  8
1
  5
68A
 10
148.886
 20
281.093
 30
0.000000
  70
    32
  0
VERTEX
  8
1
  5
68B
 10
148.928
 20
281.119
 30
0.000000
  70
    32
  0
VERTEX
  8
1
  5
68C
 10
148.969
 20
281.145
 30
0.000000
  70
    32
  0
VERTEX
  8
1
  5
68D
 10
149.011
 20
281.173
 30
0.000000
  70
    32
  0
VERTEX
  8
1
  5
68E
 10
149.051
 20
281.200
 30
0.000000
  70
    32
  0
VERTEX
  8
1
  5
68F
 10
149.092
 20
281.229
 30
0.000000
  70
    32
  0
VERTEX
  8
1
  5
690
 10
149.132
 20
281.258
 30
0.000000
  70
    32
  0
VERTEX
  8
1
  5
691
 10
149.172
 20
281.288
 30
0.000000
  70
    32
  0
VERTEX
  8
1
  5
692
 10
149.211
 20
281.318
 30
0.000000
  70
    32
  0
VERTEX
  8
1
  5
693
 10
149.250
 20
281.349
 30
0.000000
  70
    32
  0
VERTEX
  8
1
  5
694
 10
149.288
 20
281.381
 30
0.000000
  70
    32
  0
VERTEX
  8
1
  5
695
 10
149.327
 20
281.413
 30
0.000000
  70
    32
  0
VERTEX
  8
1
  5
696
 10
149.364
 20
281.446
 30
0.000000
  70
    32
  0
VERTEX
  8
1
  5
697
 10
149.401
 20
281.480
 30
0.000000
  70
    32
  0
VERTEX
  8
1
  5
698
 10
149.438
 20
281.514
 30
0.000000
  70
    32
  0
VERTEX
  8
1
  5
699
 10
149.475
 20
281.549
 30
0.000000
  70
    32
  0
VERTEX
  8
1
  5
69A
 10
149.511
 20
281.584
 30
0.000000
  70
    32
  0
VERTEX
  8
1
  5
69B
 10
149.546
 20
281.620
 30
0.000000
  70
    32
  0
VERTEX
  8
1
  5
69C
 10
149.581
 20
281.656
 30
0.000000
  70
    32
  0
VERTEX
  8
1
  5
69D
 10
149.616
 20
281.693
 30
0.000000
  70
    32
  0
VERTEX
  8
1
  5
69E
 10
149.650
 20
281.731
 30
0.000000
  70
    32
  0
VERTEX
  8
1
  5
69F
 10
149.683
 20
281.769
 30
0.000000
  70
    32
  0
VERTEX
  8
1
  5
6A0
 10
149.716
 20
281.808
 30
0.000000
  70
    32
  0
VERTEX
  8
1
  5
6A1
 10
149.749
 20
281.847
 30
0.000000
  70
    32
  0
VERTEX
  8
1
  5
6A2
 10
149.781
 20
281.887
 30
0.000000
  70
    32
  0
VERTEX
  8
1
  5
6A3
 10
149.813
 20
281.928
 30
0.000000
  70
    32
  0
VERTEX
  8
1
  5
6A4
 10
149.844
 20
281.969
 30
0.000000
  70
    32
  0
VERTEX
  8
1
  5
6A5
 10
149.875
 20
282.010
 30
0.000000
  70
    32
  0
VERTEX
  8
1
  5
6A6
 10
149.905
 20
282.052
 30
0.000000
  70
    32
  0
VERTEX
  8
1
  5
6A7
 10
149.935
 20
282.095
 30
0.000000
  70
    32
  0
VERTEX
  8
1
  5
6A8
 10
149.964
 20
282.138
 30
0.000000
  70
    32
  0
VERTEX
  8
1
  5
6A9
 10
149.993
 20
282.181
 30
0.000000
  70
    32
  0
VERTEX
  8
1
  5
6AA
 10
150.021
 20
282.225
 30
0.000000
  70
    32
  0
VERTEX
  8
1
  5
6AB
 10
150.048
 20
282.270
 30
0.000000
  70
    32
  0
VERTEX
  8
1
  5
6AC
 10
150.076
 20
282.315
 30
0.000000
  70
    32
  0
VERTEX
  8
1
  5
6AD
 10
150.102
 20
282.360
 30
0.000000
  70
    32
  0
VERTEX
  8
1
  5
6AE
 10
150.128
 20
282.406
 30
0.000000
  70
    32
  0
VERTEX
  8
1
  5
6AF
 10
150.154
 20
282.453
 30
0.000000
  70
    32
  0
VERTEX
  8
1
  5
6B0
 10
150.179
 20
282.500
 30
0.000000
  70
    32
  0
VERTEX
  8
1
  5
6B1
 10
150.203
 20
282.547
 30
0.000000
  70
    32
  0
VERTEX
  8
1
  5
6B2
 10
150.227
 20
282.595
 30
0.000000
  70
    32
  0
VERTEX
  8
1
  5
6B3
 10
150.250
 20
282.643
 30
0.000000
  70
    32
  0
VERTEX
  8
1
  5
6B4
 10
150.273
 20
282.692
 30
0.000000
  70
    32
  0
VERTEX
  8
1
  5
6B5
 10
150.295
 20
282.741
 30
0.000000
  70
    32
  0
VERTEX
  8
1
  5
6B6
 10
150.316
 20
282.790
 30
0.000000
  70
    32
  0
VERTEX
  8
1
  5
6B7
 10
150.337
 20
282.840
 30
0.000000
  70
    32
  0
VERTEX
  8
1
  5
6B8
 10
150.358
 20
282.890
 30
0.000000
  70
    32
  0
VERTEX
  8
1
  5
6B9
 10
150.378
 20
282.941
 30
0.000000
  70
    32
  0
VERTEX
  8
1
  5
6BA
 10
150.397
 20
282.992
 30
0.000000
  70
    32
  0
VERTEX
  8
1
  5
6BB
 10
150.416
 20
283.044
 30
0.000000
  70
    32
  0
VERTEX
  8
1
  5
6BC
 10
150.434
 20
283.095
 30
0.000000
  70
    32
  0
VERTEX
  8
1
  5
6BD
 10
150.451
 20
283.147
 30
0.000000
  70
    32
  0
VERTEX
  8
1
  5
6BE
 10
150.468
 20
283.200
 30
0.000000
  70
    32
  0
VERTEX
  8
1
  5
6BF
 10
150.485
 20
283.253
 30
0.000000
  70
    32
  0
VERTEX
  8
1
  5
6C0
 10
150.501
 20
283.306
 30
0.000000
  70
    32
  0
VERTEX
  8
1
  5
6C1
 10
150.516
 20
283.360
 30
0.000000
  70
    32
  0
VERTEX
  8
1
  5
6C2
 10
150.530
 20
283.413
 30
0.000000
  70
    32
  0
VERTEX
  8
1
  5
6C3
 10
150.544
 20
283.468
 30
0.000000
  70
    32
  0
VERTEX
  8
1
  5
6C4
 10
150.558
 20
283.522
 30
0.000000
  70
    32
  0
VERTEX
  8
1
  5
6C5
 10
150.570
 20
283.577
 30
0.000000
  70
    32
  0
VERTEX
  8
1
  5
6C6
 10
150.583
 20
283.632
 30
0.000000
  70
    32
  0
VERTEX
  8
1
  5
6C7
 10
150.594
 20
283.687
 30
0.000000
  70
    32
  0
VERTEX
  8
1
  5
6C8
 10
150.605
 20
283.743
 30
0.000000
  70
    32
  0
VERTEX
  8
1
  5
6C9
 10
150.615
 20
283.799
 30
0.000000
  70
    32
  0
VERTEX
  8
1
  5
6CA
 10
150.625
 20
283.855
 30
0.000000
  70
    32
  0
VERTEX
  8
1
  5
6CB
 10
150.634
 20
283.911
 30
0.000000
  70
    32
  0
VERTEX
  8
1
  5
6CC
 10
150.643
 20
283.968
 30
0.000000
  70
    32
  0
VERTEX
  8
1
  5
6CD
 10
150.650
 20
284.025
 30
0.000000
  70
    32
  0
VERTEX
  8
1
  5
6CE
 10
150.658
 20
284.082
 30
0.000000
  70
    32
  0
VERTEX
  8
1
  5
6CF
 10
150.664
 20
284.139
 30
0.000000
  70
    32
  0
VERTEX
  8
1
  5
6D0
 10
150.670
 20
284.196
 30
0.000000
  70
    32
  0
VERTEX
  8
1
  5
6D1
 10
150.676
 20
284.254
 30
0.000000
  70
    32
  0
VERTEX
  8
1
  5
6D2
 10
150.680
 20
284.312
 30
0.000000
  70
    32
  0
VERTEX
  8
1
  5
6D3
 10
150.684
 20
284.370
 30
0.000000
  70
    32
  0
VERTEX
  8
1
  5
6D4
 10
150.688
 20
284.428
 30
0.000000
  70
    32
  0
VERTEX
  8
1
  5
6D5
 10
150.691
 20
284.487
 30
0.000000
  70
    32
  0
VERTEX
  8
1
  5
6D6
 10
150.693
 20
284.545
 30
0.000000
  70
    32
  0
VERTEX
  8
1
  5
6D7
 10
150.695
 20
284.604
 30
0.000000
  70
    32
  0
VERTEX
  8
1
  5
6D8
 10
150.696
 20
284.663
 30
0.000000
  70
    32
  0
VERTEX
  8
1
  5
6D9
 10
150.696
 20
284.721
 30
0.000000
  70
    32
  0
VERTEX
  8
1
  5
6DA
 10
150.696
 20
284.780
 30
0.000000
  70
    32
  0
VERTEX
  8
1
  5
6DB
 10
150.695
 20
284.840
 30
0.000000
  70
    32
  0
VERTEX
  8
1
  5
6DC
 10
150.693
 20
284.899
 30
0.000000
  70
    32
  0
VERTEX
  8
1
  5
6DD
 10
150.691
 20
284.958
 30
0.000000
  70
    32
  0
VERTEX
  8
1
  5
6DE
 10
150.688
 20
285.018
 30
0.000000
  70
    32
  0
VERTEX
  8
1
  5
6DF
 10
150.685
 20
285.077
 30
0.000000
  70
    32
  0
VERTEX
  8
1
  5
6E0
 10
150.681
 20
285.137
 30
0.000000
  70
    32
  0
VERTEX
  8
1
  5
6E1
 10
150.676
 20
285.196
 30
0.000000
  70
    32
  0
VERTEX
  8
1
  5
6E2
 10
150.671
 20
285.256
 30
0.000000
  70
    32
  0
VERTEX
  8
1
  5
6E3
 10
150.665
 20
285.315
 30
0.000000
  70
    32
  0
VERTEX
  8
1
  5
6E4
 10
150.659
 20
285.375
 30
0.000000
  70
    32
  0
VERTEX
  8
1
  5
6E5
 10
150.651
 20
285.435
 30
0.000000
  70
    32
  0
VERTEX
  8
1
  5
6E6
 10
150.644
 20
285.495
 30
0.000000
  70
    32
  0
VERTEX
  8
1
  5
6E7
 10
150.635
 20
285.554
 30
0.000000
  70
    32
  0
VERTEX
  8
1
  5
6E8
 10
150.626
 20
285.614
 30
0.000000
  70
    32
  0
VERTEX
  8
1
  5
6E9
 10
150.617
 20
285.674
 30
0.000000
  70
    32
  0
VERTEX
  8
1
  5
6EA
 10
150.606
 20
285.733
 30
0.000000
  70
    32
  0
VERTEX
  8
1
  5
6EB
 10
150.596
 20
285.793
 30
0.000000
  70
    32
  0
VERTEX
  8
1
  5
6EC
 10
150.584
 20
285.853
 30
0.000000
  70
    32
  0
VERTEX
  8
1
  5
6ED
 10
150.572
 20
285.912
 30
0.000000
  70
    32
  0
VERTEX
  8
1
  5
6EE
 10
150.559
 20
285.972
 30
0.000000
  70
    32
  0
VERTEX
  8
1
  5
6EF
 10
150.546
 20
286.031
 30
0.000000
  70
    32
  0
VERTEX
  8
1
  5
6F0
 10
150.532
 20
286.090
 30
0.000000
  70
    32
  0
VERTEX
  8
1
  5
6F1
 10
150.518
 20
286.149
 30
0.000000
  70
    32
  0
VERTEX
  8
1
  5
6F2
 10
150.503
 20
286.209
 30
0.000000
  70
    32
  0
VERTEX
  8
1
  5
6F3
 10
150.487
 20
286.268
 30
0.000000
  70
    32
  0
VERTEX
  8
1
  5
6F4
 10
150.471
 20
286.326
 30
0.000000
  70
    32
  0
VERTEX
  8
1
  5
6F5
 10
150.454
 20
286.385
 30
0.000000
  70
    32
  0
VERTEX
  8
1
  5
6F6
 10
150.436
 20
286.444
 30
0.000000
  70
    32
  0
VERTEX
  8
1
  5
6F7
 10
150.418
 20
286.502
 30
0.000000
  70
    32
  0
VERTEX
  8
1
  5
6F8
 10
150.400
 20
286.561
 30
0.000000
  70
    32
  0
VERTEX
  8
1
  5
6F9
 10
150.381
 20
286.619
 30
0.000000
  70
    32
  0
VERTEX
  8
1
  5
6FA
 10
150.361
 20
286.677
 30
0.000000
  70
    32
  0
VERTEX
  8
1
  5
6FB
 10
150.340
 20
286.735
 30
0.000000
  70
    32
  0
VERTEX
  8
1
  5
6FC
 10
150.319
 20
286.792
 30
0.000000
  70
    32
  0
VERTEX
  8
1
  5
6FD
 10
150.298
 20
286.850
 30
0.000000
  70
    32
  0
VERTEX
  8
1
  5
6FE
 10
150.276
 20
286.907
 30
0.000000
  70
    32
  0
VERTEX
  8
1
  5
6FF
 10
150.253
 20
286.964
 30
0.000000
  70
    32
  0
VERTEX
  8
1
  5
700
 10
150.230
 20
287.021
 30
0.000000
  70
    32
  0
SEQEND
  8
1
  5
701
  0
LINE
  5
38B
  8
1外形線
 10
114.4383316685166
 20
265.83984421326721
 30
0.0
 11
139.82766622860601
 21
291.22917877335652
 31
0.0
  0
LINE
  5
38C
  8
1外形線
 10
120.61124685415
 20
259.66692902763401
 30
0.0
 11
143.5853839913452
 21
282.64106616482923
 31
0.0
  0
POLYLINE
  5
38D
  8
1外形線
 10
148.44786004989777
 20
280.8706936587206
 30
0.0
 66
     1
 70
     8
  0
VERTEX
  8
1
  5
702
 10
148.448
 20
280.871
 30
0.000000
  70
    32
  0
VERTEX
  8
1
  5
703
 10
148.402
 20
280.852
 30
0.000000
  70
    32
  0
VERTEX
  8
1
  5
704
 10
148.357
 20
280.835
 30
0.000000
  70
    32
  0
VERTEX
  8
1
  5
705
 10
148.311
 20
280.817
 30
0.000000
  70
    32
  0
VERTEX
  8
1
  5
706
 10
148.264
 20
280.801
 30
0.000000
  70
    32
  0
VERTEX
  8
1
  5
707
 10
148.218
 20
280.786
 30
0.000000
  70
    32
  0
VERTEX
  8
1
  5
708
 10
148.171
 20
280.771
 30
0.000000
  70
    32
  0
VERTEX
  8
1
  5
709
 10
148.124
 20
280.756
 30
0.000000
  70
    32
  0
VERTEX
  8
1
  5
70A
 10
148.076
 20
280.743
 30
0.000000
  70
    32
  0
VERTEX
  8
1
  5
70B
 10
148.029
 20
280.730
 30
0.000000
  70
    32
  0
VERTEX
  8
1
  5
70C
 10
147.981
 20
280.718
 30
0.000000
  70
    32
  0
VERTEX
  8
1
  5
70D
 10
147.933
 20
280.707
 30
0.000000
  70
    32
  0
VERTEX
  8
1
  5
70E
 10
147.885
 20
280.696
 30
0.000000
  70
    32
  0
VERTEX
  8
1
  5
70F
 10
147.836
 20
280.686
 30
0.000000
  70
    32
  0
VERTEX
  8
1
  5
710
 10
147.788
 20
280.677
 30
0.000000
  70
    32
  0
VERTEX
  8
1
  5
711
 10
147.739
 20
280.669
 30
0.000000
  70
    32
  0
VERTEX
  8
1
  5
712
 10
147.690
 20
280.661
 30
0.000000
  70
    32
  0
VERTEX
  8
1
  5
713
 10
147.641
 20
280.654
 30
0.000000
  70
    32
  0
VERTEX
  8
1
  5
714
 10
147.592
 20
280.648
 30
0.000000
  70
    32
  0
VERTEX
  8
1
  5
715
 10
147.542
 20
280.642
 30
0.000000
  70
    32
  0
VERTEX
  8
1
  5
716
 10
147.493
 20
280.637
 30
0.000000
  70
    32
  0
VERTEX
  8
1
  5
717
 10
147.443
 20
280.633
 30
0.000000
  70
    32
  0
VERTEX
  8
1
  5
718
 10
147.393
 20
280.630
 30
0.000000
  70
    32
  0
VERTEX
  8
1
  5
719
 10
147.343
 20
280.627
 30
0.000000
  70
    32
  0
VERTEX
  8
1
  5
71A
 10
147.293
 20
280.625
 30
0.000000
  70
    32
  0
VERTEX
  8
1
  5
71B
 10
147.242
 20
280.624
 30
0.000000
  70
    32
  0
VERTEX
  8
1
  5
71C
 10
147.192
 20
280.624
 30
0.000000
  70
    32
  0
VERTEX
  8
1
  5
71D
 10
147.142
 20
280.624
 30
0.000000
  70
    32
  0
VERTEX
  8
1
  5
71E
 10
147.091
 20
280.625
 30
0.000000
  70
    32
  0
VERTEX
  8
1
  5
71F
 10
147.040
 20
280.627
 30
0.000000
  70
    32
  0
VERTEX
  8
1
  5
720
 10
146.990
 20
280.629
 30
0.000000
  70
    32
  0
VERTEX
  8
1
  5
721
 10
146.939
 20
280.633
 30
0.000000
  70
    32
  0
VERTEX
  8
1
  5
722
 10
146.888
 20
280.637
 30
0.000000
  70
    32
  0
VERTEX
  8
1
  5
723
 10
146.837
 20
280.641
 30
0.000000
  70
    32
  0
VERTEX
  8
1
  5
724
 10
146.786
 20
280.647
 30
0.000000
  70
    32
  0
VERTEX
  8
1
  5
725
 10
146.735
 20
280.653
 30
0.000000
  70
    32
  0
VERTEX
  8
1
  5
726
 10
146.684
 20
280.660
 30
0.000000
  70
    32
  0
VERTEX
  8
1
  5
727
 10
146.633
 20
280.667
 30
0.000000
  70
    32
  0
VERTEX
  8
1
  5
728
 10
146.582
 20
280.676
 30
0.000000
  70
    32
  0
VERTEX
  8
1
  5
729
 10
146.531
 20
280.685
 30
0.000000
  70
    32
  0
VERTEX
  8
1
  5
72A
 10
146.480
 20
280.695
 30
0.000000
  70
    32
  0
VERTEX
  8
1
  5
72B
 10
146.429
 20
280.705
 30
0.000000
  70
    32
  0
VERTEX
  8
1
  5
72C
 10
146.378
 20
280.716
 30
0.000000
  70
    32
  0
VERTEX
  8
1
  5
72D
 10
146.327
 20
280.728
 30
0.000000
  70
    32
  0
VERTEX
  8
1
  5
72E
 10
146.276
 20
280.741
 30
0.000000
  70
    32
  0
VERTEX
  8
1
  5
72F
 10
146.225
 20
280.754
 30
0.000000
  70
    32
  0
VERTEX
  8
1
  5
730
 10
146.174
 20
280.768
 30
0.000000
  70
    32
  0
VERTEX
  8
1
  5
731
 10
146.123
 20
280.783
 30
0.000000
  70
    32
  0
VERTEX
  8
1
  5
732
 10
146.072
 20
280.799
 30
0.000000
  70
    32
  0
VERTEX
  8
1
  5
733
 10
146.022
 20
280.815
 30
0.000000
  70
    32
  0
VERTEX
  8
1
  5
734
 10
145.971
 20
280.832
 30
0.000000
  70
    32
  0
VERTEX
  8
1
  5
735
 10
145.920
 20
280.850
 30
0.000000
  70
    32
  0
VERTEX
  8
1
  5
736
 10
145.870
 20
280.868
 30
0.000000
  70
    32
  0
VERTEX
  8
1
  5
737
 10
145.820
 20
280.887
 30
0.000000
  70
    32
  0
VERTEX
  8
1
  5
738
 10
145.769
 20
280.907
 30
0.000000
  70
    32
  0
VERTEX
  8
1
  5
739
 10
145.719
 20
280.927
 30
0.000000
  70
    32
  0
VERTEX
  8
1
  5
73A
 10
145.669
 20
280.948
 30
0.000000
  70
    32
  0
VERTEX
  8
1
  5
73B
 10
145.619
 20
280.970
 30
0.000000
  70
    32
  0
VERTEX
  8
1
  5
73C
 10
145.569
 20
280.992
 30
0.000000
  70
    32
  0
VERTEX
  8
1
  5
73D
 10
145.520
 20
281.016
 30
0.000000
  70
    32
  0
VERTEX
  8
1
  5
73E
 10
145.470
 20
281.039
 30
0.000000
  70
    32
  0
VERTEX
  8
1
  5
73F
 10
145.421
 20
281.064
 30
0.000000
  70
    32
  0
VERTEX
  8
1
  5
740
 10
145.372
 20
281.089
 30
0.000000
  70
    32
  0
VERTEX
  8
1
  5
741
 10
145.323
 20
281.115
 30
0.000000
  70
    32
  0
VERTEX
  8
1
  5
742
 10
145.274
 20
281.141
 30
0.000000
  70
    32
  0
VERTEX
  8
1
  5
743
 10
145.226
 20
281.168
 30
0.000000
  70
    32
  0
VERTEX
  8
1
  5
744
 10
145.177
 20
281.196
 30
0.000000
  70
    32
  0
VERTEX
  8
1
  5
745
 10
145.129
 20
281.225
 30
0.000000
  70
    32
  0
VERTEX
  8
1
  5
746
 10
145.081
 20
281.254
 30
0.000000
  70
    32
  0
VERTEX
  8
1
  5
747
 10
145.033
 20
281.283
 30
0.000000
  70
    32
  0
VERTEX
  8
1
  5
748
 10
144.986
 20
281.314
 30
0.000000
  70
    32
  0
VERTEX
  8
1
  5
749
 10
144.939
 20
281.345
 30
0.000000
  70
    32
  0
VERTEX
  8
1
  5
74A
 10
144.892
 20
281.376
 30
0.000000
  70
    32
  0
VERTEX
  8
1
  5
74B
 10
144.845
 20
281.409
 30
0.000000
  70
    32
  0
VERTEX
  8
1
  5
74C
 10
144.798
 20
281.441
 30
0.000000
  70
    32
  0
VERTEX
  8
1
  5
74D
 10
144.752
 20
281.475
 30
0.000000
  70
    32
  0
VERTEX
  8
1
  5
74E
 10
144.706
 20
281.509
 30
0.000000
  70
    32
  0
VERTEX
  8
1
  5
74F
 10
144.660
 20
281.543
 30
0.000000
  70
    32
  0
VERTEX
  8
1
  5
750
 10
144.615
 20
281.579
 30
0.000000
  70
    32
  0
VERTEX
  8
1
  5
751
 10
144.570
 20
281.615
 30
0.000000
  70
    32
  0
VERTEX
  8
1
  5
752
 10
144.525
 20
281.651
 30
0.000000
  70
    32
  0
VERTEX
  8
1
  5
753
 10
144.480
 20
281.688
 30
0.000000
  70
    32
  0
VERTEX
  8
1
  5
754
 10
144.436
 20
281.725
 30
0.000000
  70
    32
  0
VERTEX
  8
1
  5
755
 10
144.392
 20
281.764
 30
0.000000
  70
    32
  0
VERTEX
  8
1
  5
756
 10
144.348
 20
281.802
 30
0.000000
  70
    32
  0
VERTEX
  8
1
  5
757
 10
144.305
 20
281.842
 30
0.000000
  70
    32
  0
VERTEX
  8
1
  5
758
 10
144.262
 20
281.881
 30
0.000000
  70
    32
  0
VERTEX
  8
1
  5
759
 10
144.220
 20
281.922
 30
0.000000
  70
    32
  0
VERTEX
  8
1
  5
75A
 10
144.177
 20
281.963
 30
0.000000
  70
    32
  0
VERTEX
  8
1
  5
75B
 10
144.135
 20
282.004
 30
0.000000
  70
    32
  0
VERTEX
  8
1
  5
75C
 10
144.094
 20
282.046
 30
0.000000
  70
    32
  0
VERTEX
  8
1
  5
75D
 10
144.053
 20
282.088
 30
0.000000
  70
    32
  0
VERTEX
  8
1
  5
75E
 10
144.012
 20
282.131
 30
0.000000
  70
    32
  0
VERTEX
  8
1
  5
75F
 10
143.971
 20
282.175
 30
0.000000
  70
    32
  0
VERTEX
  8
1
  5
760
 10
143.931
 20
282.219
 30
0.000000
  70
    32
  0
VERTEX
  8
1
  5
761
 10
143.892
 20
282.263
 30
0.000000
  70
    32
  0
VERTEX
  8
1
  5
762
 10
143.852
 20
282.308
 30
0.000000
  70
    32
  0
VERTEX
  8
1
  5
763
 10
143.814
 20
282.354
 30
0.000000
  70
    32
  0
VERTEX
  8
1
  5
764
 10
143.775
 20
282.399
 30
0.000000
  70
    32
  0
VERTEX
  8
1
  5
765
 10
143.737
 20
282.446
 30
0.000000
  70
    32
  0
VERTEX
  8
1
  5
766
 10
143.700
 20
282.493
 30
0.000000
  70
    32
  0
VERTEX
  8
1
  5
767
 10
143.662
 20
282.540
 30
0.000000
  70
    32
  0
VERTEX
  8
1
  5
768
 10
143.626
 20
282.588
 30
0.000000
  70
    32
  0
VERTEX
  8
1
  5
769
 10
143.589
 20
282.636
 30
0.000000
  70
    32
  0
VERTEX
  8
1
  5
76A
 10
143.553
 20
282.684
 30
0.000000
  70
    32
  0
VERTEX
  8
1
  5
76B
 10
143.518
 20
282.733
 30
0.000000
  70
    32
  0
VERTEX
  8
1
  5
76C
 10
143.483
 20
282.783
 30
0.000000
  70
    32
  0
VERTEX
  8
1
  5
76D
 10
143.449
 20
282.833
 30
0.000000
  70
    32
  0
VERTEX
  8
1
  5
76E
 10
143.415
 20
282.883
 30
0.000000
  70
    32
  0
VERTEX
  8
1
  5
76F
 10
143.381
 20
282.933
 30
0.000000
  70
    32
  0
VERTEX
  8
1
  5
770
 10
143.348
 20
282.984
 30
0.000000
  70
    32
  0
VERTEX
  8
1
  5
771
 10
143.315
 20
283.036
 30
0.000000
  70
    32
  0
VERTEX
  8
1
  5
772
 10
143.283
 20
283.088
 30
0.000000
  70
    32
  0
VERTEX
  8
1
  5
773
 10
143.252
 20
283.140
 30
0.000000
  70
    32
  0
VERTEX
  8
1
  5
774
 10
143.220
 20
283.192
 30
0.000000
  70
    32
  0
VERTEX
  8
1
  5
775
 10
143.190
 20
283.245
 30
0.000000
  70
    32
  0
VERTEX
  8
1
  5
776
 10
143.160
 20
283.298
 30
0.000000
  70
    32
  0
VERTEX
  8
1
  5
777
 10
143.130
 20
283.352
 30
0.000000
  70
    32
  0
VERTEX
  8
1
  5
778
 10
143.101
 20
283.405
 30
0.000000
  70
    32
  0
VERTEX
  8
1
  5
779
 10
143.072
 20
283.460
 30
0.000000
  70
    32
  0
VERTEX
  8
1
  5
77A
 10
143.044
 20
283.514
 30
0.000000
  70
    32
  0
VERTEX
  8
1
  5
77B
 10
143.017
 20
283.569
 30
0.000000
  70
    32
  0
VERTEX
  8
1
  5
77C
 10
142.990
 20
283.624
 30
0.000000
  70
    32
  0
VERTEX
  8
1
  5
77D
 10
142.963
 20
283.679
 30
0.000000
  70
    32
  0
VERTEX
  8
1
  5
77E
 10
142.937
 20
283.735
 30
0.000000
  70
    32
  0
VERTEX
  8
1
  5
77F
 10
142.912
 20
283.790
 30
0.000000
  70
    32
  0
VERTEX
  8
1
  5
780
 10
142.887
 20
283.846
 30
0.000000
  70
    32
  0
VERTEX
  8
1
  5
781
 10
142.863
 20
283.903
 30
0.000000
  70
    32
  0
VERTEX
  8
1
  5
782
 10
142.839
 20
283.959
 30
0.000000
  70
    32
  0
SEQEND
  8
1
  5
783
  0
LINE
  5
38E
  8
1外形線
 10
124.6558848721718
 20
255.62229100961221
 30
0.0
 11
148.14220473292801
 21
279.10861087036852
 31
0.0
  0
LINE
  5
38F
  8
1外形線
 10
148.96258496758571
 20
277.11846418037243
 30
0.0
 11
126.13221614619719
 21
254.28809535898381
 31
0.0
  0
LINE
  5
390
  8
1外形線
 10
127.56275202305341
 20
255.01152445217849
 30
0.0
 11
126.41470172678839
 21
253.86347415499549
 31
0.0
  0
LINE
  5
391
  8
1外形線
 10
127.6711383985745
 20
255.55641955881291
 30
0.0
 11
127.59188206395901
 21
255.74776127674559
 31
0.0
  0
ARC
  5
392
  8
1外形線
 10
127.2091986323188
 20
255.3650778426304
 30
0.0
 40
0.5
 50
315.00000002290892
 51
22.500000000000099
  0
ARC
  5
393
  8
1外形線
 10
139.36516938344229
 20
267.52104859685471
 30
0.0
 40
0.5
 50
315.0000000229175
 51
22.5000000000021
  0
LINE
  5
394
  8
1外形線
 10
139.71872277417691
 20
267.16749520640292
 30
0.0
 11
138.92422586786299
 21
266.37299829945351
 31
0.0
  0
ARC
  5
395
  8
1外形線
 10
138.5706724771284
 20
266.72655168990542
 30
0.0
 40
0.5
 50
225.00000000000011
 51
315.00000002291671
  0
LINE
  5
396
  8
1外形線
 10
136.76564169149441
 20
264.65092285238501
 30
0.0
 11
136.6863853570699
 21
264.84226456985652
 31
0.0
  0
ARC
  5
397
  8
1外形線
 10
136.3037019252387
 20
264.45958113620247
 30
0.0
 40
0.5
 50
315.0000000229083
 51
22.500000000000099
  0
ARC
  5
398
  8
1外形線
 10
135.5092050194319
 20
263.6650842297604
 30
0.0
 40
0.5
 50
225.00000000000011
 51
315.00000002290778
  0
LINE
  5
399
  8
1外形線
 10
136.65725531597329
 20
264.10602774575062
 30
0.0
 11
135.86275841016661
 21
263.31153083930838
 31
0.0
  0
LINE
  5
39A
  8
1外形線
 10
139.8271091496978
 20
267.71239031303742
 30
0.0
 11
139.7478528159906
 21
267.9037320287772
 31
0.0
  0
ARC
  5
39B
  8
1外形線
 10
150.73712147886269
 20
275.35350127026959
 30
0.0
 40
2.5
 50
90.0
 51
112.5839648992204
  0
ARC
  5
39C
  8
1外形線
 10
149.90997168588831
 20
277.34084391739958
 30
0.0
 40
2.5
 50
90.0
 51
112.49999999992509
  0
ARC
  5
39D
  8
1外形線
 10
149.9099716858945
 20
277.34084391740208
 30
0.0
 40
2.5
 50
112.50000000007481
 51
135.00000000000011
  0
ARC
  5
39E
  8
1外形線
 10
150.7303519205521
 20
275.3506972274061
 30
0.0
 40
2.5
 50
112.4160351007795
 51
135.00000000000011
  0
ARC
  5
39F
  8
1外形線
 10
165.43350506186869
 20
277.85350127026283
 30
0.0
 40
0.5
 50
269.99999997708318
 51
0.0
  0
LINE
  5
3A0
  8
1外形線
 10
163.84797699499109
 20
277.66215955452969
 30
0.0
 11
163.76872066128391
 21
277.85350127026959
 31
0.0
  0
ARC
  5
3A1
  8
1外形線
 10
164.30991676124671
 20
277.85350127071212
 30
0.0
 40
0.5
 50
202.49999999999801
 51
269.99999997708238
  0
LINE
  5
3A2
  8
1外形線
 10
164.30991676104679
 20
277.35350127071217
 30
0.0
 11
165.4335050616688
 21
277.35350127026283
 31
0.0
  0
ARC
  5
3A3
  8
1外形線
 10
135.40725415561121
 20
312.35350127026959
 30
0.0
 40
2.5
 50
90.0
 51
112.5000000000058
  0
LINE
  5
3A4
  8
1外形線
 10
133.6663789075248
 20
327.00884962360959
 30
0.0
 11
126.8678908855224
 21
343.42185160995939
 31
0.0
  0
LINE
  5
3A5
  8
1外形線
 10
126.2753426474348
 20
323.94738216468897
 30
0.0
 11
119.476854625432
 21
340.3603841510386
 31
0.0
  0
ARC
  5
3A6
  8
1外形線
 10
126.73728241369039
 20
324.13872388087162
 30
0.0
 40
0.5
 50
202.50000000000011
 51
292.50000000000011
  0
LINE
  5
3A7
  8
1外形線
 10
133.3957808574518
 20
326.3555681411716
 30
0.0
 11
130.16220249366231
 21
325.01617612789369
 31
0.0
  0
LINE
  5
3A8
  8
1外形線
 10
126.9286241298728
 20
323.67678411461588
 30
0.0
 11
130.16220249366231
 21
325.0161761278938
 31
0.0
  0
ARC
  5
3A9
  8
1外形線
 10
135.4072541556109
 20
312.35350127026948
 30
0.0
 40
2.5
 50
112.4999999999943
 51
135.00000000000011
  0
ARC
  5
3AA
  8
1外形線
 10
133.20443914126921
 20
326.81750790742711
 30
0.0
 40
0.5
 50
292.50000000000011
 51
22.500000000000099
  0
ARC
  5
3AB
  8
1外形線
 10
120.0813523441152
 20
349.3535012791811
 30
0.0
 40
2.5
 50
112.4999999999972
 51
135.0000000112629
  0
ARC
  5
3AC
  8
1外形線
 10
118.82852992792159
 20
339.33635203706882
 30
0.0
 40
9.0179061520224817
 50
26.93909018793968
 51
74.003742618891025
  0
ARC
  5
3AD
  8
1外形線
 10
121.03806092502801
 20
347.04380244790298
 30
0.0
 40
1.0
 50
74.003742618891664
 51
112.5000000000001
  0
ARC
  5
3AE
  8
1外形線
 10
120.0813523441153
 20
349.3535012791811
 30
0.0
 40
2.5
 50
89.999999988737073
 51
112.5000000000029
  0
ARC
  5
3AF
  8
1外形線
 10
120.9045366253312
 20
347.36615862313732
 30
0.0
 40
2.5
 50
90.0
 51
112.50000000000161
  0
ARC
  5
3B0
  8
1外形線
 10
128.0504257274836
 20
343.15618634803889
 30
0.0
 40
9.0179061520224817
 50
150.9962573811091
 51
198.06090981206049
  0
ARC
  5
3B1
  8
1外形線
 10
120.9045366253311
 20
347.36615862313732
 30
0.0
 40
2.5
 50
112.49999999999829
 51
135.00000000000011
  0
ARC
  5
3B2
  8
1外形線
 10
121.03806092502791
 20
347.04380244790292
 30
0.0
 40
1.0
 50
112.5000000000001
 51
150.99625738110839
  0
LINE
  5
3B3
  8
1外形線
 10
150.22996101811691
 20
287.02082505073832
 30
0.0
 11
142.4680978519219
 21
305.7596203758502
 31
0.0
  0
LINE
  5
3B4
  8
1外形線
 10
142.83892475802659
 20
283.95935759181759
 30
0.0
 11
135.07706159183181
 21
302.69815291692942
 31
0.0
  0
LINE
  5
3B5
  8
1外形線
 10
141.81481636948379
 20
306.03021842592329
 30
0.0
 11
138.5812380056943
 21
304.69082641264549
 31
0.0
  0
ARC
  5
3B6
  8
1外形線
 10
135.5390013580874
 20
302.88949463311201
 30
0.0
 40
0.5
 50
112.5000000000001
 51
202.50000000000011
  0
LINE
  5
3B7
  8
1外形線
 10
135.34765964190481
 20
303.35143439936758
 30
0.0
 11
138.58123800569419
 21
304.69082641264549
 31
0.0
  0
ARC
  5
3B8
  8
1外形線
 10
142.00615808566619
 20
305.56827865966761
 30
0.0
 40
0.5
 50
22.500000000000099
 51
112.5000000000001
  0
LINE
  5
3B9
  8
1外形線
 10
165.9335050618686
 20
351.85350127026931
 30
0.0
 11
165.80310854905969
 21
352.16830629997878
 31
0.0
  0
ARC
  5
3BA
  8
1外形線
 10
165.52594468930641
 20
352.05350127026929
 30
0.0
 40
0.3
 50
22.500000000000099
 51
90.000000000005087
  0
LINE
  5
3BB
  8
1外形線
 10
163.76872066128391
 20
351.85350127059331
 30
0.0
 11
163.76872066128391
 21
352.05350127026912
 31
0.0
  0
ARC
  5
3BC
  8
1外形線
 10
164.06872066128389
 20
352.05350127026912
 30
0.0
 40
0.3
 50
90.0000000000055
 51
180.0
  0
LINE
  5
3BD
  8
1外形線
 10
164.06872066128389
 20
352.35350127026902
 30
0.0
 11
165.52594468930641
 21
352.35350127026919
 31
0.0
  0
LINE
  5
3BE
  8
1外形線
 10
222.3319683503131
 20
285.5608258573759
 30
0.0
 11
222.3319683503131
 21
255.63124110796221
 31
0.0
  0
LINE
  5
3BF
  8
1外形線
 10
183.1246437632025
 20
352.35350127026948
 30
0.0
 11
183.1246437632025
 21
277.3535012678704
 31
0.0
  0
LINE
  5
3C0
  8
1外形線
 10
213.62464376320241
 20
255.63124110796221
 30
0.0
 11
213.62464376320241
 21
314.85350127026959
 31
0.0
  0
LINE
  5
3C1
  8
1外形線
 10
216.1236558731128
 20
294.29064623227731
 30
0.0
 11
216.1236558731128
 21
255.63124110796221
 31
0.0
  0
LINE
  5
3C2
  8
1外形線
 10
168.63948556293369
 20
277.35350126898061
 30
0.0
 11
169.7630738628383
 21
277.35350126853132
 31
0.0
  0
ARC
  5
3C3
  8
1外形線
 10
168.6394855631336
 20
277.85350126898061
 30
0.0
 40
0.5
 50
202.50000000000011
 51
269.99999997709182
  0
LINE
  5
3C4
  8
1外形線
 10
168.17754579687801
 20
277.66215955279802
 30
0.0
 11
168.09828946245349
 21
277.85350127026959
 31
0.0
  0
ARC
  5
3C5
  8
1外形線
 10
169.7630738630383
 20
277.85350126853137
 30
0.0
 40
0.5
 50
269.99999997709199
 51
0.0
  0
ARC
  5
3C6
  8
1外形線
 10
181.5010554634888
 20
277.85350126851949
 30
0.0
 40
0.5
 50
202.50000000000011
 51
269.99999997709119
  0
LINE
  5
3C7
  8
1外形線
 10
181.0391156972332
 20
277.6621595523369
 30
0.0
 11
180.95985936261769
 21
277.85350127026959
 31
0.0
  0
LINE
  5
3C8
  8
1外形線
 10
181.50105546328891
 20
277.35350126851949
 30
0.0
 11
183.1246437632025
 21
277.3535012678704
 31
0.0
  0
LINE
  5
3C9
  8
1外形線
 10
213.12464376320241
 20
253.86347415499591
 30
0.0
 11
213.12464376320241
 21
255.63124110796221
 31
0.0
  0
LINE
  5
3CA
  8
1外形線
 10
231.26406185665431
 20
279.84084391739958
 30
0.0
 11
231.26406185665459
 21
255.63124110796221
 31
0.0
  0
LINE
  5
3CB
  8
1外形線
 10
181.12464376320219
 20
351.85350127026942
 30
0.0
 11
181.12464376320301
 21
314.85350127026959
 31
0.0
  0
LINE
  5
3CC
  8
1外形線
 10
168.3982894624535
 20
352.35350127026959
 30
0.0
 11
169.85551349008131
 21
352.35350127026948
 31
0.0
  0
LINE
  5
3CD
  8
1外形線
 10
168.09828946245349
 20
351.8535012697422
 30
0.0
 11
168.09828946245341
 21
352.05350127026952
 31
0.0
  0
ARC
  5
3CE
  8
1外形線
 10
168.39828946245339
 20
352.05350127026952
 30
0.0
 40
0.3
 50
89.999999999994287
 51
180.0
  0
LINE
  5
3CF
  8
1外形線
 10
170.26307386303819
 20
351.85350126931672
 30
0.0
 11
170.13267734983461
 21
352.16830629997889
 31
0.0
  0
ARC
  5
3D0
  8
1外形線
 10
169.85551349008131
 20
352.05350127026941
 30
0.0
 40
0.3
 50
22.500000000000099
 51
89.999999999993875
  0
ARC
  5
3D1
  8
1外形線
 10
181.6246437632025
 20
351.85350127026942
 30
0.0
 40
0.5
 50
90.000000000001421
 51
180.00000000000139
  0
LINE
  5
3D2
  8
1外形線
 10
181.62464376320261
 20
352.35350127026942
 30
0.0
 11
183.1246437632025
 21
352.35350127026948
 31
0.0
  0
LINE
  5
3D3
  8
1外形線
 10
223.12464376320241
 20
341.66867299106968
 30
0.0
 11
223.12464376320241
 21
288.03832954946949
 31
0.0
  0
ARC
  5
3D4
  8
1外形線
 10
217.62464376320241
 20
302.73603644776432
 30
0.0
 40
19.0
 50
73.173551107259044
 51
92.817936598993938
  0
ARC
  5
3D5
  8
1外形線
 10
217.62464376320241
 20
302.73603644776432
 30
0.0
 40
20.0
 50
74.037985837152661
 51
92.817936598993938
  0
LINE
  5
3D6
  8
1外形線
 10
216.62464376320241
 20
324.85350127026959
 30
0.0
 11
216.6246437632027
 21
304.85350127026959
 31
0.0
  0
LINE
  5
3D7
  8
1外形線
 10
215.12464376320241
 20
319.85350127026959
 30
0.0
 11
215.12464376320241
 21
314.85350127026959
 31
0.0
  0
LINE
  5
3D8
  8
1外形線
 10
215.12464376320241
 20
319.85350127026959
 30
0.0
 11
216.5296313253146
 21
319.85350127026948
 31
0.0
  0
LINE
  5
3D9
  8
1外形線
 10
216.5296313253146
 20
319.85350127026959
 30
0.0
 11
216.62464376320241
 21
319.85350127026948
 31
0.0
  0
LINE
  5
3DA
  8
1外形線
 10
213.12464376320241
 20
314.85350127026959
 30
0.0
 11
215.12464376320241
 21
314.85350127026959
 31
0.0
  0
LINE
  5
3DB
  8
1外形線
 10
213.12464376320241
 20
323.85350127026942
 30
0.0
 11
213.12464376320241
 21
314.85350127026959
 31
0.0
  0
LINE
  5
3DC
  8
1外形線
 10
219.62464376320241
 20
322.63578518989669
 30
0.0
 11
219.62464376320241
 21
321.63048007545552
 31
0.0
  0
TEXT
  5
3DD
  8
1外形線
 10
73.605277284495855
 20
563.71320648645326
 30
0.0
 40
10.0
  1
SCF-77
  7
KANJI
  0
TEXT
  5
3DE
  8
1外形線
 10
73.605277284495855
 20
738.27103048609479
 30
0.0
 40
10.0
  1
SCF-66
  7
KANJI
  0
LINE
  5
3DF
  8
1外形線
 10
114.0547045366101
 20
707.57898563870765
 30
0.0
 11
75.149460091576373
 21
668.67374117837824
 31
0.0
  0
LINE
  5
3E0
  8
1外形線
 10
85.46324595262206
 20
658.35995531733204
 30
0.0
 11
117.7862118949369
 21
690.68292125964751
 31
0.0
  0
LINE
  5
3E1
  8
1外形線
 10
79.978577228948609
 20
663.84462404100555
 30
0.0
 11
114.8344570020096
 21
698.70050381406725
 31
0.0
  0
LINE
  5
3E2
  8
1外形線
 10
76.393452696853956
 20
667.42974857310037
 30
0.0
 11
114.802484425515
 21
705.83878030176209
 31
0.0
  0
LINE
  5
3E3
  8
1外形線
 10
73.381693136101092
 20
667.6130810091073
 30
0.0
 11
117.2223135713637
 21
623.77246057384491
 31
0.0
  0
LINE
  5
3E4
  8
1外形線
 10
126.91439083808601
 20
676.59805150883972
 30
0.0
 11
95.655556743477476
 21
645.33921740173105
 31
0.0
  0
LINE
  5
3E5
  8
1外形線
 10
73.381693136101092
 20
490.43676239265119
 30
0.0
 11
121.4649542584829
 21
442.35350127026959
 31
0.0
  0
LINE
  5
3E6
  8
1外形線
 10
129.86131260955281
 20
499.54022752660438
 30
0.0
 11
97.069770305850511
 21
466.748685222902
 31
0.0
  0
LINE
  5
3E7
  8
1外形線
 10
116.19226504764499
 20
532.54022753480558
 30
0.0
 11
75.149460091236961
 21
491.49742256226159
 31
0.0
  0
LINE
  5
3E8
  8
1外形線
 10
85.899576838921277
 20
480.74730581457698
 30
0.0
 11
120.1603032345309
 21
515.00803221018668
 31
0.0
  0
LINE
  5
3E9
  8
1外形線
 10
80.185491590957383
 20
486.461391062541
 30
0.0
 11
116.9996386494016
 21
523.27553812098563
 31
0.0
  0
LINE
  5
3EA
  8
1外形線
 10
76.447204389779927
 20
490.19967826371879
 30
0.0
 11
116.9524660623125
 21
530.70493993625178
 31
0.0
  0
LINE
  5
3EB
  8
1外形線
 10
85.820149467027591
 20
502.16811194239091
 30
0.0
 11
85.689752954218633
 21
502.48291697210038
 31
0.0
  0
ARC
  5
3EC
  8
1外形線
 10
85.966916813971977
 20
502.59772200180981
 30
0.0
 40
0.3
 50
134.99999999999491
 51
202.50000000000011
  0
LINE
  5
3ED
  8
1外形線
 10
75.149460089067645
 20
491.49742256443102
 30
0.0
 11
98.483983868223163
 21
468.16289878527459
 31
0.0
  0
LINE
  5
3EE
  8
1外形線
 10
74.442353307880978
 20
491.49742256443091
 30
0.0
 11
73.381693136101092
 21
490.43676239265119
 31
0.0
  0
ARC
  5
3EF
  8
1外形線
 10
74.795906698474312
 20
491.14386917383769
 30
0.0
 40
0.5
 50
44.999999999998707
 51
134.99999999999861
  0
LINE
  5
3F0
  8
1外形線
 10
83.723730312617761
 20
500.77879956916797
 30
0.0
 11
82.693317320974245
 21
499.74838657752429
 31
0.0
  0
LINE
  5
3F1
  8
1外形線
 10
84.289415737939905
 20
500.63737821255779
 30
0.0
 11
84.147994381329724
 21
500.77879956916797
 31
0.0
  0
ARC
  5
3F2
  8
1外形線
 10
83.935862346973806
 20
500.56666753481221
 30
0.0
 40
0.3
 50
45.000000000000149
 51
135.00000000000591
  0
LINE
  5
3F3
  8
1外形線
 10
82.758682008780511
 20
499.10664448279658
 30
0.0
 11
82.628285495576961
 21
499.42144951345892
 31
0.0
  0
ARC
  5
3F4
  8
1外形線
 10
82.90544935533029
 20
499.5362545431683
 30
0.0
 40
0.3
 50
135.0000000000062
 51
202.50000000000011
  0
LINE
  5
3F5
  8
1外形線
 10
86.78519777153889
 20
503.84026702808842
 30
0.0
 11
85.754784779616045
 21
502.8098540361658
 31
0.0
  0
LINE
  5
3F6
  8
1外形線
 10
87.350883196258849
 20
503.69884567208038
 30
0.0
 11
87.209461840250754
 21
503.84026702808842
 31
0.0
  0
ARC
  5
3F7
  8
1外形線
 10
86.997329805894765
 20
503.62813499373249
 30
0.0
 40
0.3
 50
45.000000000000149
 51
134.9999999999946
  0
LINE
  5
3F8
  8
1外形線
 10
86.424062460577886
 20
680.6554503327626
 30
0.0
 11
85.393649468655042
 21
679.62503734083998
 31
0.0
  0
LINE
  5
3F9
  8
1外形線
 10
75.149460089067531
 20
668.67374118088696
 30
0.0
 11
97.069770305567275
 21
646.75343096438633
 31
0.0
  0
LINE
  5
3FA
  8
1外形線
 10
74.442353307880865
 20
668.67374118088685
 30
0.0
 11
73.381693136101092
 21
667.6130810091073
 31
0.0
  0
ARC
  5
3FB
  8
1外形線
 10
74.795906698474255
 20
668.32018779029374
 30
0.0
 40
0.5
 50
44.999999999998707
 51
134.99999999999861
  0
ARC
  5
3FC
  8
1外形線
 10
83.574727036012874
 20
677.38185083948633
 30
0.0
 40
0.3
 50
45.000000000000149
 51
135.00000000000591
  0
LINE
  5
3FD
  8
1外形線
 10
83.928280426978915
 20
677.45256151723197
 30
0.0
 11
83.786859070368806
 21
677.59398287384226
 31
0.0
  0
ARC
  5
3FE
  8
1外形線
 10
85.605781503010974
 20
679.41290530648416
 30
0.0
 40
0.3
 50
134.99999999999491
 51
202.50000000000011
  0
LINE
  5
3FF
  8
1外形線
 10
85.459014156066587
 20
678.98329524706514
 30
0.0
 11
85.328617643257644
 21
679.29810027677468
 31
0.0
  0
ARC
  5
400
  8
1外形線
 10
82.544314044369287
 20
676.35143784784259
 30
0.0
 40
0.3
 50
135.0000000000062
 51
202.50000000000011
  0
LINE
  5
401
  8
1外形線
 10
82.397546697819493
 20
675.92182778747076
 30
0.0
 11
82.267150184615943
 21
676.2366328181331
 31
0.0
  0
LINE
  5
402
  8
1外形線
 10
83.362595001656757
 20
677.59398287384215
 30
0.0
 11
82.332182010013241
 21
676.56356988219864
 31
0.0
  0
ARC
  5
403
  8
1外形線
 10
86.636194494933761
 20
680.44331829840655
 30
0.0
 40
0.3
 50
45.000000000000149
 51
134.9999999999946
  0
LINE
  5
404
  8
1外形線
 10
86.989747885297845
 20
680.51402897675439
 30
0.0
 11
86.848326529289736
 21
680.6554503327626
 31
0.0
  0
LINE
  5
405
  8
1外形線
 10
209.62117701261761
 20
655.81437132207145
 30
0.0
 11
209.62117701261761
 21
625.54022752681146
 31
0.0
  0
LINE
  5
406
  8
1外形線
 10
215.34162375262889
 20
651.00493485038737
 30
0.0
 11
215.34162375262889
 21
625.54022752681146
 31
0.0
  0
LINE
  5
407
  8
1外形線
 10
203.38882496677249
 20
625.54022752681146
 30
0.0
 11
203.38882496677249
 21
677.33028456563875
 31
0.0
  0
LINE
  5
408
  8
1外形線
 10
205.23106665507339
 20
662.91124905360152
 30
0.0
 11
205.23106665507339
 21
625.54022752681146
 31
0.0
  0
LINE
  5
409
  8
1外形線
 10
139.33799368950139
 20
646.59524747574142
 30
0.0
 11
116.8687601794843
 21
624.12601396572416
 31
0.0
  0
LINE
  5
40A
  8
1外形線
 10
114.2703900446474
 20
626.72438410056088
 30
0.0
 11
137.64748120926501
 21
650.10147526517858
 31
0.0
  0
LINE
  5
40B
  8
1外形線
 10
117.9600320014503
 20
533.2724605821868
 30
0.0
 11
176.00332342004609
 21
533.27246057077684
 31
0.0
  0
LINE
  5
40C
  8
1外形線
 10
176.0033234200464
 20
518.06949966910736
 30
0.0
 11
127.5513394946212
 21
518.06949966910736
 31
0.0
  0
LINE
  5
40D
  8
1外形線
 10
176.0033234200462
 20
526.15043652333418
 30
0.0
 11
123.9402573627967
 21
526.15043652333418
 31
0.0
  0
LINE
  5
40E
  8
1外形線
 10
176.003323420046
 20
531.43717298328534
 30
0.0
 11
118.72023301527889
 21
531.43717298328534
 31
0.0
  0
LINE
  5
40F
  8
1外形線
 10
145.7163061988586
 20
466.27246057384508
 30
0.0
 11
178.00332342004609
 21
466.27246057384508
 31
0.0
  0
LINE
  5
410
  8
1外形線
 10
131.62907956301919
 20
500.27246057384508
 30
0.0
 11
178.00332342004609
 21
500.27246057384508
 31
0.0
  0
LINE
  5
411
  8
1外形線
 10
178.00332342004609
 20
481.47542147858269
 30
0.0
 11
142.70910298367789
 21
481.47542147858269
 31
0.0
  0
LINE
  5
412
  8
1外形線
 10
178.00332342004609
 20
473.39448462435598
 30
0.0
 11
145.66952946959631
 21
473.39448462435598
 31
0.0
  0
LINE
  5
413
  8
1外形線
 10
178.00332342004609
 20
468.10774816440488
 30
0.0
 11
144.9521396725651
 21
468.10774816440488
 31
0.0
  0
LINE
  5
414
  8
1外形線
 10
129.9670296397029
 20
512.23750775835992
 30
0.0
 11
124.7377430425132
 21
524.86212238283144
 31
0.0
  0
LINE
  5
415
  8
1外形線
 10
122.5759933796128
 20
509.17604029943942
 30
0.0
 11
117.3467067824228
 21
521.80065492391088
 31
0.0
  0
LINE
  5
416
  8
1外形線
 10
110.36128411647471
 20
453.45717141213032
 30
0.0
 11
135.31806672350979
 21
478.41395401959278
 31
0.0
  0
LINE
  5
417
  8
1外形線
 10
138.11546710166181
 20
491.25887656067351
 30
0.0
 11
134.88188873787229
 21
489.91948454739583
 31
0.0
  0
LINE
  5
418
  8
1外形線
 10
137.81810947802251
 20
472.37831689539308
 30
0.0
 11
131.37771232400991
 21
487.92681105167981
 31
0.0
  0
LINE
  5
419
  8
1外形線
 10
143.9417696875816
 20
465.53742348394792
 30
0.0
 11
121.11140086619309
 21
442.70705466255941
 31
0.0
  0
LINE
  5
41A
  8
1外形線
 10
116.0753693644878
 20
447.74308616421519
 30
0.0
 11
138.93881432814359
 21
470.60653112826259
 31
0.0
  0
LINE
  5
41B
  8
1外形線
 10
119.8136565656974
 20
444.00479896306962
 30
0.0
 11
143.18437271958359
 21
467.37551511735609
 31
0.0
  0
LINE
  5
41C
  8
1外形線
 10
134.69790749417291
 20
455.58645450997852
 30
0.0
 11
133.9034105878589
 21
454.791957603029
 31
0.0
  0
ARC
  5
41D
  8
1外形線
 10
122.2594511640133
 20
443.85510495790459
 30
0.0
 40
0.5
 50
315.00000002290892
 51
22.500000000000099
  0
LINE
  5
41E
  8
1外形線
 10
122.6130045547479
 20
443.50155156745268
 30
0.0
 11
121.4649542584829
 21
442.35350127026959
 31
0.0
  0
LINE
  5
41F
  8
1外形線
 10
122.721390930269
 20
444.04644667408701
 30
0.0
 11
122.6421345956534
 21
444.2377883920197
 31
0.0
  0
ARC
  5
420
  8
1外形線
 10
130.48838973942779
 20
452.084043533336
 30
0.0
 40
0.5
 50
225.00000000000011
 51
315.00000002290801
  0
LINE
  5
421
  8
1外形線
 10
131.63644003596929
 20
452.52498704932611
 30
0.0
 11
130.84194313016249
 21
451.73049014288398
 31
0.0
  0
ARC
  5
422
  8
1外形線
 10
131.2828866452347
 20
452.87854043977808
 30
0.0
 40
0.5
 50
315.0000000229083
 51
22.500000000000099
  0
LINE
  5
423
  8
1外形線
 10
131.74482641149029
 20
453.0698821559605
 30
0.0
 11
131.66557007706581
 21
453.26122387343202
 31
0.0
  0
ARC
  5
424
  8
1外形線
 10
133.54985719712431
 20
455.14551099348091
 30
0.0
 40
0.5
 50
225.00000000000011
 51
315.00000002291682
  0
LINE
  5
425
  8
1外形線
 10
134.80629386969369
 20
456.13134961661302
 30
0.0
 11
134.72703753598651
 21
456.32269133235292
 31
0.0
  0
ARC
  5
426
  8
1外形線
 10
134.34435410343821
 20
455.94000790043032
 30
0.0
 40
0.5
 50
315.0000000229175
 51
22.5000000000021
  0
LINE
  5
427
  8
1外形線
 10
129.69643158962981
 20
511.58422627592182
 30
0.0
 11
126.46285322584031
 21
510.24483426264402
 31
0.0
  0
ARC
  5
428
  8
1外形線
 10
123.03793314586849
 20
509.3673820156219
 30
0.0
 40
0.5
 50
202.50000000000011
 51
292.50000000000011
  0
LINE
  5
429
  8
1外形線
 10
123.2292748620509
 20
508.90544224936627
 30
0.0
 11
126.46285322584041
 21
510.24483426264408
 31
0.0
  0
ARC
  5
42A
  8
1外形線
 10
131.8396520902655
 20
488.1181527678624
 30
0.0
 40
0.5
 50
112.5000000000001
 51
202.50000000000011
  0
LINE
  5
42B
  8
1外形線
 10
131.64831037408291
 20
488.58009253411802
 30
0.0
 11
134.8818887378724
 21
489.91948454739583
 31
0.0
  0
ARC
  5
42C
  8
1外形線
 10
131.62907956301919
 20
497.77246057384519
 30
0.0
 40
2.5
 50
90.000000000001222
 51
112.5000000062044
  0
ARC
  5
42D
  8
1外形線
 10
129.50508987344719
 20
512.04616604217745
 30
0.0
 40
0.5
 50
292.50000000000011
 51
22.500000000000099
  0
ARC
  5
42E
  8
1外形線
 10
131.629079562519
 20
497.77246057363811
 30
0.0
 40
2.5
 50
112.4999999937954
 51
134.99999999999881
  0
LINE
  5
42F
  8
1外形線
 10
145.2091457381128
 20
475.43978435431382
 30
0.0
 11
138.76874858409991
 21
490.98827851060042
 31
0.0
  0
POLYLINE
  5
430
  8
1外形線
 10
143.42704476989366
 20
469.28965296229597
 30
0.0
 66
     1
 70
     8
  0
VERTEX
  8
1
  5
784
 10
143.427
 20
469.290
 30
0.000000
  70
    32
  0
VERTEX
  8
1
  5
785
 10
143.382
 20
469.271
 30
0.000000
  70
    32
  0
VERTEX
  8
1
  5
786
 10
143.336
 20
469.253
 30
0.000000
  70
    32
  0
VERTEX
  8
1
  5
787
 10
143.290
 20
469.236
 30
0.000000
  70
    32
  0
VERTEX
  8
1
  5
788
 10
143.243
 20
469.220
 30
0.000000
  70
    32
  0
VERTEX
  8
1
  5
789
 10
143.197
 20
469.204
 30
0.000000
  70
    32
  0
VERTEX
  8
1
  5
78A
 10
143.150
 20
469.190
 30
0.000000
  70
    32
  0
VERTEX
  8
1
  5
78B
 10
143.103
 20
469.175
 30
0.000000
  70
    32
  0
VERTEX
  8
1
  5
78C
 10
143.056
 20
469.162
 30
0.000000
  70
    32
  0
VERTEX
  8
1
  5
78D
 10
143.008
 20
469.149
 30
0.000000
  70
    32
  0
VERTEX
  8
1
  5
78E
 10
142.960
 20
469.137
 30
0.000000
  70
    32
  0
VERTEX
  8
1
  5
78F
 10
142.912
 20
469.126
 30
0.000000
  70
    32
  0
VERTEX
  8
1
  5
790
 10
142.864
 20
469.115
 30
0.000000
  70
    32
  0
VERTEX
  8
1
  5
791
 10
142.816
 20
469.105
 30
0.000000
  70
    32
  0
VERTEX
  8
1
  5
792
 10
142.767
 20
469.096
 30
0.000000
  70
    32
  0
VERTEX
  8
1
  5
793
 10
142.718
 20
469.088
 30
0.000000
  70
    32
  0
VERTEX
  8
1
  5
794
 10
142.669
 20
469.080
 30
0.000000
  70
    32
  0
VERTEX
  8
1
  5
795
 10
142.620
 20
469.073
 30
0.000000
  70
    32
  0
VERTEX
  8
1
  5
796
 10
142.571
 20
469.067
 30
0.000000
  70
    32
  0
VERTEX
  8
1
  5
797
 10
142.521
 20
469.061
 30
0.000000
  70
    32
  0
VERTEX
  8
1
  5
798
 10
142.472
 20
469.056
 30
0.000000
  70
    32
  0
VERTEX
  8
1
  5
799
 10
142.422
 20
469.052
 30
0.000000
  70
    32
  0
VERTEX
  8
1
  5
79A
 10
142.372
 20
469.049
 30
0.000000
  70
    32
  0
VERTEX
  8
1
  5
79B
 10
142.322
 20
469.046
 30
0.000000
  70
    32
  0
VERTEX
  8
1
  5
79C
 10
142.272
 20
469.044
 30
0.000000
  70
    32
  0
VERTEX
  8
1
  5
79D
 10
142.222
 20
469.043
 30
0.000000
  70
    32
  0
VERTEX
  8
1
  5
79E
 10
142.171
 20
469.043
 30
0.000000
  70
    32
  0
VERTEX
  8
1
  5
79F
 10
142.121
 20
469.043
 30
0.000000
  70
    32
  0
VERTEX
  8
1
  5
7A0
 10
142.070
 20
469.044
 30
0.000000
  70
    32
  0
VERTEX
  8
1
  5
7A1
 10
142.020
 20
469.046
 30
0.000000
  70
    32
  0
VERTEX
  8
1
  5
7A2
 10
141.969
 20
469.048
 30
0.000000
  70
    32
  0
VERTEX
  8
1
  5
7A3
 10
141.918
 20
469.052
 30
0.000000
  70
    32
  0
VERTEX
  8
1
  5
7A4
 10
141.867
 20
469.055
 30
0.000000
  70
    32
  0
VERTEX
  8
1
  5
7A5
 10
141.816
 20
469.060
 30
0.000000
  70
    32
  0
VERTEX
  8
1
  5
7A6
 10
141.765
 20
469.066
 30
0.000000
  70
    32
  0
VERTEX
  8
1
  5
7A7
 10
141.714
 20
469.072
 30
0.000000
  70
    32
  0
VERTEX
  8
1
  5
7A8
 10
141.663
 20
469.079
 30
0.000000
  70
    32
  0
VERTEX
  8
1
  5
7A9
 10
141.612
 20
469.086
 30
0.000000
  70
    32
  0
VERTEX
  8
1
  5
7AA
 10
141.561
 20
469.095
 30
0.000000
  70
    32
  0
VERTEX
  8
1
  5
7AB
 10
141.510
 20
469.104
 30
0.000000
  70
    32
  0
VERTEX
  8
1
  5
7AC
 10
141.459
 20
469.114
 30
0.000000
  70
    32
  0
VERTEX
  8
1
  5
7AD
 10
141.408
 20
469.124
 30
0.000000
  70
    32
  0
VERTEX
  8
1
  5
7AE
 10
141.357
 20
469.135
 30
0.000000
  70
    32
  0
VERTEX
  8
1
  5
7AF
 10
141.306
 20
469.147
 30
0.000000
  70
    32
  0
VERTEX
  8
1
  5
7B0
 10
141.255
 20
469.160
 30
0.000000
  70
    32
  0
VERTEX
  8
1
  5
7B1
 10
141.204
 20
469.173
 30
0.000000
  70
    32
  0
VERTEX
  8
1
  5
7B2
 10
141.153
 20
469.187
 30
0.000000
  70
    32
  0
VERTEX
  8
1
  5
7B3
 10
141.102
 20
469.202
 30
0.000000
  70
    32
  0
VERTEX
  8
1
  5
7B4
 10
141.051
 20
469.218
 30
0.000000
  70
    32
  0
VERTEX
  8
1
  5
7B5
 10
141.001
 20
469.234
 30
0.000000
  70
    32
  0
VERTEX
  8
1
  5
7B6
 10
140.950
 20
469.251
 30
0.000000
  70
    32
  0
VERTEX
  8
1
  5
7B7
 10
140.900
 20
469.269
 30
0.000000
  70
    32
  0
VERTEX
  8
1
  5
7B8
 10
140.849
 20
469.287
 30
0.000000
  70
    32
  0
VERTEX
  8
1
  5
7B9
 10
140.799
 20
469.306
 30
0.000000
  70
    32
  0
VERTEX
  8
1
  5
7BA
 10
140.748
 20
469.326
 30
0.000000
  70
    32
  0
VERTEX
  8
1
  5
7BB
 10
140.698
 20
469.346
 30
0.000000
  70
    32
  0
VERTEX
  8
1
  5
7BC
 10
140.648
 20
469.367
 30
0.000000
  70
    32
  0
VERTEX
  8
1
  5
7BD
 10
140.598
 20
469.389
 30
0.000000
  70
    32
  0
VERTEX
  8
1
  5
7BE
 10
140.549
 20
469.411
 30
0.000000
  70
    32
  0
VERTEX
  8
1
  5
7BF
 10
140.499
 20
469.435
 30
0.000000
  70
    32
  0
VERTEX
  8
1
  5
7C0
 10
140.450
 20
469.458
 30
0.000000
  70
    32
  0
VERTEX
  8
1
  5
7C1
 10
140.400
 20
469.483
 30
0.000000
  70
    32
  0
VERTEX
  8
1
  5
7C2
 10
140.351
 20
469.508
 30
0.000000
  70
    32
  0
VERTEX
  8
1
  5
7C3
 10
140.302
 20
469.534
 30
0.000000
  70
    32
  0
VERTEX
  8
1
  5
7C4
 10
140.253
 20
469.560
 30
0.000000
  70
    32
  0
VERTEX
  8
1
  5
7C5
 10
140.205
 20
469.587
 30
0.000000
  70
    32
  0
VERTEX
  8
1
  5
7C6
 10
140.157
 20
469.615
 30
0.000000
  70
    32
  0
VERTEX
  8
1
  5
7C7
 10
140.108
 20
469.644
 30
0.000000
  70
    32
  0
VERTEX
  8
1
  5
7C8
 10
140.060
 20
469.673
 30
0.000000
  70
    32
  0
VERTEX
  8
1
  5
7C9
 10
140.013
 20
469.702
 30
0.000000
  70
    32
  0
VERTEX
  8
1
  5
7CA
 10
139.965
 20
469.733
 30
0.000000
  70
    32
  0
VERTEX
  8
1
  5
7CB
 10
139.918
 20
469.764
 30
0.000000
  70
    32
  0
VERTEX
  8
1
  5
7CC
 10
139.871
 20
469.795
 30
0.000000
  70
    32
  0
VERTEX
  8
1
  5
7CD
 10
139.824
 20
469.827
 30
0.000000
  70
    32
  0
VERTEX
  8
1
  5
7CE
 10
139.777
 20
469.860
 30
0.000000
  70
    32
  0
VERTEX
  8
1
  5
7CF
 10
139.731
 20
469.894
 30
0.000000
  70
    32
  0
VERTEX
  8
1
  5
7D0
 10
139.685
 20
469.928
 30
0.000000
  70
    32
  0
VERTEX
  8
1
  5
7D1
 10
139.639
 20
469.962
 30
0.000000
  70
    32
  0
VERTEX
  8
1
  5
7D2
 10
139.594
 20
469.998
 30
0.000000
  70
    32
  0
VERTEX
  8
1
  5
7D3
 10
139.549
 20
470.033
 30
0.000000
  70
    32
  0
VERTEX
  8
1
  5
7D4
 10
139.504
 20
470.070
 30
0.000000
  70
    32
  0
VERTEX
  8
1
  5
7D5
 10
139.459
 20
470.107
 30
0.000000
  70
    32
  0
VERTEX
  8
1
  5
7D6
 10
139.415
 20
470.144
 30
0.000000
  70
    32
  0
VERTEX
  8
1
  5
7D7
 10
139.371
 20
470.183
 30
0.000000
  70
    32
  0
VERTEX
  8
1
  5
7D8
 10
139.328
 20
470.221
 30
0.000000
  70
    32
  0
VERTEX
  8
1
  5
7D9
 10
139.284
 20
470.260
 30
0.000000
  70
    32
  0
VERTEX
  8
1
  5
7DA
 10
139.241
 20
470.300
 30
0.000000
  70
    32
  0
VERTEX
  8
1
  5
7DB
 10
139.199
 20
470.341
 30
0.000000
  70
    32
  0
VERTEX
  8
1
  5
7DC
 10
139.156
 20
470.381
 30
0.000000
  70
    32
  0
VERTEX
  8
1
  5
7DD
 10
139.115
 20
470.423
 30
0.000000
  70
    32
  0
VERTEX
  8
1
  5
7DE
 10
139.073
 20
470.465
 30
0.000000
  70
    32
  0
VERTEX
  8
1
  5
7DF
 10
139.032
 20
470.507
 30
0.000000
  70
    32
  0
VERTEX
  8
1
  5
7E0
 10
138.991
 20
470.550
 30
0.000000
  70
    32
  0
VERTEX
  8
1
  5
7E1
 10
138.951
 20
470.594
 30
0.000000
  70
    32
  0
VERTEX
  8
1
  5
7E2
 10
138.911
 20
470.638
 30
0.000000
  70
    32
  0
VERTEX
  8
1
  5
7E3
 10
138.871
 20
470.682
 30
0.000000
  70
    32
  0
VERTEX
  8
1
  5
7E4
 10
138.832
 20
470.727
 30
0.000000
  70
    32
  0
VERTEX
  8
1
  5
7E5
 10
138.793
 20
470.772
 30
0.000000
  70
    32
  0
VERTEX
  8
1
  5
7E6
 10
138.754
 20
470.818
 30
0.000000
  70
    32
  0
VERTEX
  8
1
  5
7E7
 10
138.716
 20
470.865
 30
0.000000
  70
    32
  0
VERTEX
  8
1
  5
7E8
 10
138.679
 20
470.912
 30
0.000000
  70
    32
  0
VERTEX
  8
1
  5
7E9
 10
138.642
 20
470.959
 30
0.000000
  70
    32
  0
VERTEX
  8
1
  5
7EA
 10
138.605
 20
471.007
 30
0.000000
  70
    32
  0
VERTEX
  8
1
  5
7EB
 10
138.569
 20
471.055
 30
0.000000
  70
    32
  0
VERTEX
  8
1
  5
7EC
 10
138.533
 20
471.103
 30
0.000000
  70
    32
  0
VERTEX
  8
1
  5
7ED
 10
138.497
 20
471.152
 30
0.000000
  70
    32
  0
VERTEX
  8
1
  5
7EE
 10
138.462
 20
471.202
 30
0.000000
  70
    32
  0
VERTEX
  8
1
  5
7EF
 10
138.428
 20
471.252
 30
0.000000
  70
    32
  0
VERTEX
  8
1
  5
7F0
 10
138.394
 20
471.302
 30
0.000000
  70
    32
  0
VERTEX
  8
1
  5
7F1
 10
138.360
 20
471.352
 30
0.000000
  70
    32
  0
VERTEX
  8
1
  5
7F2
 10
138.327
 20
471.403
 30
0.000000
  70
    32
  0
VERTEX
  8
1
  5
7F3
 10
138.295
 20
471.455
 30
0.000000
  70
    32
  0
VERTEX
  8
1
  5
7F4
 10
138.262
 20
471.507
 30
0.000000
  70
    32
  0
VERTEX
  8
1
  5
7F5
 10
138.231
 20
471.559
 30
0.000000
  70
    32
  0
VERTEX
  8
1
  5
7F6
 10
138.200
 20
471.611
 30
0.000000
  70
    32
  0
VERTEX
  8
1
  5
7F7
 10
138.169
 20
471.664
 30
0.000000
  70
    32
  0
VERTEX
  8
1
  5
7F8
 10
138.139
 20
471.717
 30
0.000000
  70
    32
  0
VERTEX
  8
1
  5
7F9
 10
138.109
 20
471.771
 30
0.000000
  70
    32
  0
VERTEX
  8
1
  5
7FA
 10
138.080
 20
471.824
 30
0.000000
  70
    32
  0
VERTEX
  8
1
  5
7FB
 10
138.052
 20
471.878
 30
0.000000
  70
    32
  0
VERTEX
  8
1
  5
7FC
 10
138.023
 20
471.933
 30
0.000000
  70
    32
  0
VERTEX
  8
1
  5
7FD
 10
137.996
 20
471.988
 30
0.000000
  70
    32
  0
VERTEX
  8
1
  5
7FE
 10
137.969
 20
472.043
 30
0.000000
  70
    32
  0
VERTEX
  8
1
  5
7FF
 10
137.942
 20
472.098
 30
0.000000
  70
    32
  0
VERTEX
  8
1
  5
800
 10
137.916
 20
472.153
 30
0.000000
  70
    32
  0
VERTEX
  8
1
  5
801
 10
137.891
 20
472.209
 30
0.000000
  70
    32
  0
VERTEX
  8
1
  5
802
 10
137.866
 20
472.265
 30
0.000000
  70
    32
  0
VERTEX
  8
1
  5
803
 10
137.842
 20
472.322
 30
0.000000
  70
    32
  0
VERTEX
  8
1
  5
804
 10
137.818
 20
472.378
 30
0.000000
  70
    32
  0
SEQEND
  8
1
  5
805
  0
POLYLINE
  5
431
  8
1外形線
 10
143.42704476989346
 20
469.28965296229597
 30
0.0
 66
     1
 70
     8
  0
VERTEX
  8
1
  5
806
 10
143.427
 20
469.290
 30
0.000000
  70
    32
  0
VERTEX
  8
1
  5
807
 10
143.472
 20
469.309
 30
0.000000
  70
    32
  0
VERTEX
  8
1
  5
808
 10
143.517
 20
469.329
 30
0.000000
  70
    32
  0
VERTEX
  8
1
  5
809
 10
143.562
 20
469.349
 30
0.000000
  70
    32
  0
VERTEX
  8
1
  5
80A
 10
143.606
 20
469.370
 30
0.000000
  70
    32
  0
VERTEX
  8
1
  5
80B
 10
143.650
 20
469.392
 30
0.000000
  70
    32
  0
VERTEX
  8
1
  5
80C
 10
143.694
 20
469.415
 30
0.000000
  70
    32
  0
VERTEX
  8
1
  5
80D
 10
143.737
 20
469.438
 30
0.000000
  70
    32
  0
VERTEX
  8
1
  5
80E
 10
143.780
 20
469.462
 30
0.000000
  70
    32
  0
VERTEX
  8
1
  5
80F
 10
143.823
 20
469.487
 30
0.000000
  70
    32
  0
VERTEX
  8
1
  5
810
 10
143.865
 20
469.512
 30
0.000000
  70
    32
  0
VERTEX
  8
1
  5
811
 10
143.907
 20
469.538
 30
0.000000
  70
    32
  0
VERTEX
  8
1
  5
812
 10
143.949
 20
469.564
 30
0.000000
  70
    32
  0
VERTEX
  8
1
  5
813
 10
143.990
 20
469.591
 30
0.000000
  70
    32
  0
VERTEX
  8
1
  5
814
 10
144.031
 20
469.619
 30
0.000000
  70
    32
  0
VERTEX
  8
1
  5
815
 10
144.071
 20
469.648
 30
0.000000
  70
    32
  0
VERTEX
  8
1
  5
816
 10
144.111
 20
469.677
 30
0.000000
  70
    32
  0
VERTEX
  8
1
  5
817
 10
144.151
 20
469.707
 30
0.000000
  70
    32
  0
VERTEX
  8
1
  5
818
 10
144.190
 20
469.737
 30
0.000000
  70
    32
  0
VERTEX
  8
1
  5
819
 10
144.229
 20
469.768
 30
0.000000
  70
    32
  0
VERTEX
  8
1
  5
81A
 10
144.268
 20
469.800
 30
0.000000
  70
    32
  0
VERTEX
  8
1
  5
81B
 10
144.306
 20
469.832
 30
0.000000
  70
    32
  0
VERTEX
  8
1
  5
81C
 10
144.343
 20
469.865
 30
0.000000
  70
    32
  0
VERTEX
  8
1
  5
81D
 10
144.381
 20
469.899
 30
0.000000
  70
    32
  0
VERTEX
  8
1
  5
81E
 10
144.417
 20
469.933
 30
0.000000
  70
    32
  0
VERTEX
  8
1
  5
81F
 10
144.454
 20
469.968
 30
0.000000
  70
    32
  0
VERTEX
  8
1
  5
820
 10
144.490
 20
470.003
 30
0.000000
  70
    32
  0
VERTEX
  8
1
  5
821
 10
144.525
 20
470.039
 30
0.000000
  70
    32
  0
VERTEX
  8
1
  5
822
 10
144.560
 20
470.075
 30
0.000000
  70
    32
  0
VERTEX
  8
1
  5
823
 10
144.595
 20
470.112
 30
0.000000
  70
    32
  0
VERTEX
  8
1
  5
824
 10
144.629
 20
470.150
 30
0.000000
  70
    32
  0
VERTEX
  8
1
  5
825
 10
144.662
 20
470.188
 30
0.000000
  70
    32
  0
VERTEX
  8
1
  5
826
 10
144.696
 20
470.227
 30
0.000000
  70
    32
  0
VERTEX
  8
1
  5
827
 10
144.728
 20
470.266
 30
0.000000
  70
    32
  0
VERTEX
  8
1
  5
828
 10
144.760
 20
470.306
 30
0.000000
  70
    32
  0
VERTEX
  8
1
  5
829
 10
144.792
 20
470.347
 30
0.000000
  70
    32
  0
VERTEX
  8
1
  5
82A
 10
144.823
 20
470.388
 30
0.000000
  70
    32
  0
VERTEX
  8
1
  5
82B
 10
144.854
 20
470.429
 30
0.000000
  70
    32
  0
VERTEX
  8
1
  5
82C
 10
144.884
 20
470.471
 30
0.000000
  70
    32
  0
VERTEX
  8
1
  5
82D
 10
144.914
 20
470.514
 30
0.000000
  70
    32
  0
VERTEX
  8
1
  5
82E
 10
144.943
 20
470.557
 30
0.000000
  70
    32
  0
VERTEX
  8
1
  5
82F
 10
144.972
 20
470.600
 30
0.000000
  70
    32
  0
VERTEX
  8
1
  5
830
 10
145.000
 20
470.644
 30
0.000000
  70
    32
  0
VERTEX
  8
1
  5
831
 10
145.028
 20
470.689
 30
0.000000
  70
    32
  0
VERTEX
  8
1
  5
832
 10
145.055
 20
470.734
 30
0.000000
  70
    32
  0
VERTEX
  8
1
  5
833
 10
145.081
 20
470.779
 30
0.000000
  70
    32
  0
VERTEX
  8
1
  5
834
 10
145.107
 20
470.825
 30
0.000000
  70
    32
  0
VERTEX
  8
1
  5
835
 10
145.133
 20
470.872
 30
0.000000
  70
    32
  0
VERTEX
  8
1
  5
836
 10
145.158
 20
470.919
 30
0.000000
  70
    32
  0
VERTEX
  8
1
  5
837
 10
145.182
 20
470.966
 30
0.000000
  70
    32
  0
VERTEX
  8
1
  5
838
 10
145.206
 20
471.014
 30
0.000000
  70
    32
  0
VERTEX
  8
1
  5
839
 10
145.229
 20
471.062
 30
0.000000
  70
    32
  0
VERTEX
  8
1
  5
83A
 10
145.252
 20
471.111
 30
0.000000
  70
    32
  0
VERTEX
  8
1
  5
83B
 10
145.274
 20
471.160
 30
0.000000
  70
    32
  0
VERTEX
  8
1
  5
83C
 10
145.296
 20
471.209
 30
0.000000
  70
    32
  0
VERTEX
  8
1
  5
83D
 10
145.317
 20
471.259
 30
0.000000
  70
    32
  0
VERTEX
  8
1
  5
83E
 10
145.337
 20
471.309
 30
0.000000
  70
    32
  0
VERTEX
  8
1
  5
83F
 10
145.357
 20
471.360
 30
0.000000
  70
    32
  0
VERTEX
  8
1
  5
840
 10
145.376
 20
471.411
 30
0.000000
  70
    32
  0
VERTEX
  8
1
  5
841
 10
145.395
 20
471.462
 30
0.000000
  70
    32
  0
VERTEX
  8
1
  5
842
 10
145.413
 20
471.514
 30
0.000000
  70
    32
  0
VERTEX
  8
1
  5
843
 10
145.431
 20
471.566
 30
0.000000
  70
    32
  0
VERTEX
  8
1
  5
844
 10
145.448
 20
471.619
 30
0.000000
  70
    32
  0
VERTEX
  8
1
  5
845
 10
145.464
 20
471.672
 30
0.000000
  70
    32
  0
VERTEX
  8
1
  5
846
 10
145.480
 20
471.725
 30
0.000000
  70
    32
  0
VERTEX
  8
1
  5
847
 10
145.495
 20
471.779
 30
0.000000
  70
    32
  0
VERTEX
  8
1
  5
848
 10
145.509
 20
471.832
 30
0.000000
  70
    32
  0
VERTEX
  8
1
  5
849
 10
145.523
 20
471.887
 30
0.000000
  70
    32
  0
VERTEX
  8
1
  5
84A
 10
145.537
 20
471.941
 30
0.000000
  70
    32
  0
VERTEX
  8
1
  5
84B
 10
145.550
 20
471.996
 30
0.000000
  70
    32
  0
VERTEX
  8
1
  5
84C
 10
145.562
 20
472.051
 30
0.000000
  70
    32
  0
VERTEX
  8
1
  5
84D
 10
145.573
 20
472.106
 30
0.000000
  70
    32
  0
VERTEX
  8
1
  5
84E
 10
145.584
 20
472.162
 30
0.000000
  70
    32
  0
VERTEX
  8
1
  5
84F
 10
145.594
 20
472.218
 30
0.000000
  70
    32
  0
VERTEX
  8
1
  5
850
 10
145.604
 20
472.274
 30
0.000000
  70
    32
  0
VERTEX
  8
1
  5
851
 10
145.613
 20
472.330
 30
0.000000
  70
    32
  0
VERTEX
  8
1
  5
852
 10
145.622
 20
472.387
 30
0.000000
  70
    32
  0
VERTEX
  8
1
  5
853
 10
145.630
 20
472.444
 30
0.000000
  70
    32
  0
VERTEX
  8
1
  5
854
 10
145.637
 20
472.501
 30
0.000000
  70
    32
  0
VERTEX
  8
1
  5
855
 10
145.643
 20
472.558
 30
0.000000
  70
    32
  0
VERTEX
  8
1
  5
856
 10
145.649
 20
472.615
 30
0.000000
  70
    32
  0
VERTEX
  8
1
  5
857
 10
145.655
 20
472.673
 30
0.000000
  70
    32
  0
VERTEX
  8
1
  5
858
 10
145.659
 20
472.731
 30
0.000000
  70
    32
  0
VERTEX
  8
1
  5
859
 10
145.664
 20
472.789
 30
0.000000
  70
    32
  0
VERTEX
  8
1
  5
85A
 10
145.667
 20
472.847
 30
0.000000
  70
    32
  0
VERTEX
  8
1
  5
85B
 10
145.670
 20
472.906
 30
0.000000
  70
    32
  0
VERTEX
  8
1
  5
85C
 10
145.672
 20
472.964
 30
0.000000
  70
    32
  0
VERTEX
  8
1
  5
85D
 10
145.674
 20
473.023
 30
0.000000
  70
    32
  0
VERTEX
  8
1
  5
85E
 10
145.675
 20
473.081
 30
0.000000
  70
    32
  0
VERTEX
  8
1
  5
85F
 10
145.675
 20
473.140
 30
0.000000
  70
    32
  0
VERTEX
  8
1
  5
860
 10
145.675
 20
473.199
 30
0.000000
  70
    32
  0
VERTEX
  8
1
  5
861
 10
145.674
 20
473.259
 30
0.000000
  70
    32
  0
VERTEX
  8
1
  5
862
 10
145.672
 20
473.318
 30
0.000000
  70
    32
  0
VERTEX
  8
1
  5
863
 10
145.670
 20
473.377
 30
0.000000
  70
    32
  0
VERTEX
  8
1
  5
864
 10
145.668
 20
473.436
 30
0.000000
  70
    32
  0
VERTEX
  8
1
  5
865
 10
145.664
 20
473.496
 30
0.000000
  70
    32
  0
VERTEX
  8
1
  5
866
 10
145.660
 20
473.555
 30
0.000000
  70
    32
  0
VERTEX
  8
1
  5
867
 10
145.655
 20
473.615
 30
0.000000
  70
    32
  0
VERTEX
  8
1
  5
868
 10
145.650
 20
473.675
 30
0.000000
  70
    32
  0
VERTEX
  8
1
  5
869
 10
145.644
 20
473.734
 30
0.000000
  70
    32
  0
VERTEX
  8
1
  5
86A
 10
145.638
 20
473.794
 30
0.000000
  70
    32
  0
VERTEX
  8
1
  5
86B
 10
145.631
 20
473.854
 30
0.000000
  70
    32
  0
VERTEX
  8
1
  5
86C
 10
145.623
 20
473.914
 30
0.000000
  70
    32
  0
VERTEX
  8
1
  5
86D
 10
145.614
 20
473.973
 30
0.000000
  70
    32
  0
VERTEX
  8
1
  5
86E
 10
145.605
 20
474.033
 30
0.000000
  70
    32
  0
VERTEX
  8
1
  5
86F
 10
145.596
 20
474.093
 30
0.000000
  70
    32
  0
VERTEX
  8
1
  5
870
 10
145.586
 20
474.152
 30
0.000000
  70
    32
  0
VERTEX
  8
1
  5
871
 10
145.575
 20
474.212
 30
0.000000
  70
    32
  0
VERTEX
  8
1
  5
872
 10
145.563
 20
474.271
 30
0.000000
  70
    32
  0
VERTEX
  8
1
  5
873
 10
145.551
 20
474.331
 30
0.000000
  70
    32
  0
VERTEX
  8
1
  5
874
 10
145.539
 20
474.390
 30
0.000000
  70
    32
  0
VERTEX
  8
1
  5
875
 10
145.525
 20
474.450
 30
0.000000
  70
    32
  0
VERTEX
  8
1
  5
876
 10
145.511
 20
474.509
 30
0.000000
  70
    32
  0
VERTEX
  8
1
  5
877
 10
145.497
 20
474.568
 30
0.000000
  70
    32
  0
VERTEX
  8
1
  5
878
 10
145.482
 20
474.628
 30
0.000000
  70
    32
  0
VERTEX
  8
1
  5
879
 10
145.466
 20
474.687
 30
0.000000
  70
    32
  0
VERTEX
  8
1
  5
87A
 10
145.450
 20
474.745
 30
0.000000
  70
    32
  0
VERTEX
  8
1
  5
87B
 10
145.433
 20
474.804
 30
0.000000
  70
    32
  0
VERTEX
  8
1
  5
87C
 10
145.416
 20
474.863
 30
0.000000
  70
    32
  0
VERTEX
  8
1
  5
87D
 10
145.398
 20
474.921
 30
0.000000
  70
    32
  0
VERTEX
  8
1
  5
87E
 10
145.379
 20
474.980
 30
0.000000
  70
    32
  0
VERTEX
  8
1
  5
87F
 10
145.360
 20
475.038
 30
0.000000
  70
    32
  0
VERTEX
  8
1
  5
880
 10
145.340
 20
475.096
 30
0.000000
  70
    32
  0
VERTEX
  8
1
  5
881
 10
145.320
 20
475.154
 30
0.000000
  70
    32
  0
VERTEX
  8
1
  5
882
 10
145.299
 20
475.211
 30
0.000000
  70
    32
  0
VERTEX
  8
1
  5
883
 10
145.277
 20
475.269
 30
0.000000
  70
    32
  0
VERTEX
  8
1
  5
884
 10
145.255
 20
475.326
 30
0.000000
  70
    32
  0
VERTEX
  8
1
  5
885
 10
145.232
 20
475.383
 30
0.000000
  70
    32
  0
VERTEX
  8
1
  5
886
 10
145.209
 20
475.440
 30
0.000000
  70
    32
  0
SEQEND
  8
1
  5
887
  0
ARC
  5
432
  8
1外形線
 10
145.7163061988586
 20
463.77246057384508
 30
0.0
 40
2.5
 50
90.0
 51
112.5839648992204
  0
ARC
  5
433
  8
1外形線
 10
145.70953664054801
 20
463.76965653098159
 30
0.0
 40
2.5
 50
112.4160351007795
 51
135.00000000000011
  0
ARC
  5
434
  8
1外形線
 10
144.9521396725651
 20
465.60774816440488
 30
0.0
 40
2.5
 50
90.0
 51
112.5000000003923
  0
ARC
  5
435
  8
1外形線
 10
144.9521396725336
 20
465.60774816439181
 30
0.0
 40
2.5
 50
112.499999999607
 51
134.9999999999992
  0
ARC
  5
436
  8
1外形線
 10
138.30680881784431
 20
490.79693679441777
 30
0.0
 40
0.5
 50
22.500000000000099
 51
112.5000000000001
  0
LINE
  5
437
  8
1外形線
 10
159.28910148104271
 20
465.77246057428772
 30
0.0
 11
160.41268978166471
 21
465.7724605738382
 31
0.0
  0
LINE
  5
438
  8
1外形線
 10
158.827161714987
 20
466.08111885810519
 30
0.0
 11
158.74790538127991
 21
466.27246057384508
 31
0.0
  0
ARC
  5
439
  8
1外形線
 10
159.28910148124271
 20
466.27246057428761
 30
0.0
 40
0.5
 50
202.49999999999801
 51
269.99999997708238
  0
LINE
  5
43A
  8
1外形線
 10
163.61867028292971
 20
465.7724605725561
 30
0.0
 11
164.7422585828343
 21
465.77246057210681
 31
0.0
  0
ARC
  5
43B
  8
1外形線
 10
163.61867028312949
 20
466.27246057255621
 30
0.0
 40
0.5
 50
202.50000000000011
 51
269.99999997709182
  0
LINE
  5
43C
  8
1外形線
 10
163.15673051687389
 20
466.08111885637351
 30
0.0
 11
163.07747418244949
 21
466.27246057384508
 31
0.0
  0
ARC
  5
43D
  8
1外形線
 10
160.4126897818646
 20
466.2724605738382
 30
0.0
 40
0.5
 50
269.99999997708318
 51
0.0
  0
ARC
  5
43E
  8
1外形線
 10
164.74225858303419
 20
466.27246057210692
 30
0.0
 40
0.5
 50
269.99999997709199
 51
0.0
  0
ARC
  5
43F
  8
1外形線
 10
118.90791308201879
 20
528.48407322077514
 30
0.0
 40
1.0
 50
112.5000000000001
 51
150.99625738110839
  0
ARC
  5
440
  8
1外形線
 10
118.72023301527889
 20
528.93717298328534
 30
0.0
 40
2.5
 50
90.0
 51
135.00000000000011
  0
ARC
  5
441
  8
1外形線
 10
125.9202778844744
 20
524.59645712091105
 30
0.0
 40
9.0179061520224817
 50
150.9962573811091
 51
198.06090981206049
  0
ARC
  5
442
  8
1外形線
 10
117.9600320009589
 20
530.77246058218668
 30
0.0
 40
2.5
 50
89.999999988737073
 51
112.5000000000001
  0
ARC
  5
443
  8
1外形線
 10
117.9600320009588
 20
530.77246058218668
 30
0.0
 40
2.5
 50
112.4999999999999
 51
135.0000000112629
  0
ARC
  5
444
  8
1外形線
 10
116.6983820849123
 20
520.77662280994105
 30
0.0
 40
9.0179061520224817
 50
26.93909018793968
 51
74.003742618891025
  0
ARC
  5
445
  8
1外形線
 10
118.90791308201879
 20
528.48407322077514
 30
0.0
 40
1.0
 50
74.003742618891664
 51
112.5000000000001
  0
ARC
  5
446
  8
1外形線
 10
118.01681047689399
 20
625.27406426147979
 30
0.0
 40
0.5
 50
315.00000002290892
 51
22.500000000000099
  0
LINE
  5
447
  8
1外形線
 10
118.4787502431497
 20
625.46540597766239
 30
0.0
 11
118.3994939085342
 21
625.65674769559485
 31
0.0
  0
LINE
  5
448
  8
1外形線
 10
118.3703638676287
 20
624.92051087102777
 30
0.0
 11
117.2223135713637
 21
623.77246057384491
 31
0.0
  0
LINE
  5
449
  8
1外形線
 10
159.0479053812798
 20
533.77246057384457
 30
0.0
 11
160.5051294093023
 21
533.77246057384491
 31
0.0
  0
ARC
  5
44A
  8
1外形線
 10
159.04790538127989
 20
533.47246057384473
 30
0.0
 40
0.3
 50
90.0000000000055
 51
180.0
  0
LINE
  5
44B
  8
1外形線
 10
158.74790538127991
 20
533.27246057416892
 30
0.0
 11
158.74790538127991
 21
533.47246057384473
 31
0.0
  0
LINE
  5
44C
  8
1外形線
 10
163.37747418244939
 20
533.77246057384525
 30
0.0
 11
164.83469821007731
 21
533.77246057384514
 31
0.0
  0
ARC
  5
44D
  8
1外形線
 10
163.3774741824493
 20
533.47246057384507
 30
0.0
 40
0.3
 50
89.999999999994287
 51
180.0
  0
LINE
  5
44E
  8
1外形線
 10
163.07747418244941
 20
533.27246057331774
 30
0.0
 11
163.07747418244941
 21
533.47246057384507
 31
0.0
  0
ARC
  5
44F
  8
1外形線
 10
160.5051294093023
 20
533.47246057384496
 30
0.0
 40
0.3
 50
22.500000000000099
 51
90.000000000005087
  0
LINE
  5
450
  8
1外形線
 10
160.9126897818646
 20
533.27246057384491
 30
0.0
 11
160.7822932690556
 21
533.58726560355444
 31
0.0
  0
LINE
  5
451
  8
1外形線
 10
165.2422585830341
 20
533.27246057289233
 30
0.0
 11
165.11186206983049
 21
533.58726560355456
 31
0.0
  0
ARC
  5
452
  8
1外形線
 10
164.83469821007719
 20
533.47246057384496
 30
0.0
 40
0.3
 50
22.500000000000099
 51
89.999999999993875
  0
LINE
  5
453
  8
1外形線
 10
176.003323420046
 20
533.27246057384491
 30
0.0
 11
176.0033234200468
 21
500.27246057384508
 31
0.0
  0
LINE
  5
454
  8
1外形線
 10
178.00332342004609
 20
533.77246057384514
 30
0.0
 11
178.00332342004609
 21
465.77246057144589
 31
0.0
  0
LINE
  5
455
  8
1外形線
 10
218.00332342004609
 20
524.29588093280711
 30
0.0
 11
218.00332342004609
 21
475.24904021488311
 31
0.0
  0
ARC
  5
456
  8
1外形線
 10
176.37973512033241
 20
466.27246057209499
 30
0.0
 40
0.5
 50
202.50000000000011
 51
269.99999997709119
  0
LINE
  5
457
  8
1外形線
 10
175.91779535407679
 20
466.08111885591239
 30
0.0
 11
175.83853901946139
 21
466.27246057384508
 31
0.0
  0
LINE
  5
458
  8
1外形線
 10
176.37973512013261
 20
465.77246057209499
 30
0.0
 11
178.00332342004609
 21
465.77246057144589
 31
0.0
  0
LINE
  5
459
  8
1外形線
 10
232.50332342004609
 20
455.96913794175941
 30
0.0
 11
232.50332342004609
 21
454.55492437938608
 31
0.0
  0
LINE
  5
45A
  8
1外形線
 10
224.90818537158421
 20
468.10774816440278
 30
0.0
 11
224.90818537158421
 21
444.1212682232362
 31
0.0
  0
LINE
  5
45B
  8
1外形線
 10
208.50332342004609
 20
444.12126822323631
 30
0.0
 11
208.50332342004609
 21
500.27246057384508
 31
0.0
  0
LINE
  5
45C
  8
1外形線
 10
210.85117876516591
 20
481.47542147857803
 30
0.0
 11
210.85117876516591
 21
444.12126822323631
 31
0.0
  0
LINE
  5
45D
  8
1外形線
 10
216.62534747055699
 20
473.39448462435229
 30
0.0
 11
216.62534747055699
 21
444.12126822323631
 31
0.0
  0
LINE
  5
45E
  8
1外形線
 10
208.00332342004609
 20
442.35350127026987
 30
0.0
 11
208.00332342004609
 21
444.12126822323631
 31
0.0
  0
LINE
  5
45F
  8
1外形線
 10
232.50332342004609
 20
453.14071081701309
 30
0.0
 11
232.50332342004609
 21
451.72649725463981
 31
0.0
  0
ARC
  5
460
  8
1外形線
 10
212.50332342004609
 20
488.15499575133981
 30
0.0
 40
19.0
 50
73.173551107259044
 51
92.817936598993938
  0
ARC
  5
461
  8
1外形線
 10
212.50332342004609
 20
488.15499575133981
 30
0.0
 40
20.0
 50
74.037985837152661
 51
92.817936598993938
  0
LINE
  5
462
  8
1外形線
 10
208.00332342004609
 20
500.27246057384508
 30
0.0
 11
210.0033234200464
 21
500.27246057384508
 31
0.0
  0
LINE
  5
463
  8
1外形線
 10
208.00332342004609
 20
507.27246057384502
 30
0.0
 11
208.00332342004609
 21
500.27246057384508
 31
0.0
  0
LINE
  5
464
  8
1外形線
 10
211.50332342004631
 20
508.27246057384519
 30
0.0
 11
211.50332342004631
 21
491.27246057384508
 31
0.0
  0
LINE
  5
465
  8
1外形線
 10
210.0033234200464
 20
505.27246057384508
 30
0.0
 11
210.0033234200464
 21
500.27246057384508
 31
0.0
  0
LINE
  5
466
  8
1外形線
 10
211.4083109821583
 20
505.27246057384508
 30
0.0
 11
211.50332342004609
 21
505.27246057384502
 31
0.0
  0
LINE
  5
467
  8
1外形線
 10
210.0033234200464
 20
505.27246057384508
 30
0.0
 11
211.4083109821583
 21
505.27246057384502
 31
0.0
  0
LINE
  5
468
  8
1外形線
 10
214.50332342004609
 20
508.05474449347219
 30
0.0
 11
214.50332342004609
 21
507.04943937903101
 31
0.0
  0
ARC
  5
469
  8
1外形線
 10
176.50332342004609
 20
533.27246057384502
 30
0.0
 40
0.5
 50
90.000000000001421
 51
180.00000000000139
  0
LINE
  5
46A
  8
1外形線
 10
176.5033234200462
 20
533.77246057384502
 30
0.0
 11
178.00332342004609
 21
533.77246057384514
 31
0.0
  0
LINE
  5
46B
  8
1外形線
 10
202.88882496677249
 20
623.77246057384502
 30
0.0
 11
202.88882496677249
 21
625.54022752681146
 31
0.0
  0
LINE
  5
46C
  8
1外形線
 10
203.88882496677249
 20
625.54022752681146
 30
0.0
 11
203.38882496677249
 21
625.54022752681146
 31
0.0
  0
LINE
  5
46D
  8
1外形線
 10
115.8685006143496
 20
708.33028457348655
 30
0.0
 11
170.8888249667726
 21
708.33028456267095
 31
0.0
  0
LINE
  5
46E
  8
1外形線
 10
128.6821578373677
 20
677.3302845750577
 30
0.0
 11
172.8888249667726
 21
677.33028456621901
 31
0.0
  0
LINE
  5
46F
  8
1外形線
 10
141.11253020077839
 20
647.33028456563852
 30
0.0
 11
172.8888249667726
 21
647.33028456563852
 31
0.0
  0
LINE
  5
470
  8
1外形線
 10
170.8888249667726
 20
706.57101334879565
 30
0.0
 11
116.5702513784814
 21
706.57101334879565
 31
0.0
  0
LINE
  5
471
  8
1外形線
 10
170.8888249667728
 20
701.50088161271083
 30
0.0
 11
121.5951670632635
 21
701.50088161271083
 31
0.0
  0
LINE
  5
472
  8
1外形線
 10
170.88882496677289
 20
693.74438871856819
 30
0.0
 11
125.1772481550273
 21
693.74438871856819
 31
0.0
  0
LINE
  5
473
  8
1外形線
 10
172.8888249667726
 20
651.00493485038999
 30
0.0
 11
139.82862559293881
 21
651.00493485038999
 31
0.0
  0
LINE
  5
474
  8
1外形線
 10
172.8888249667726
 20
655.81437132207543
 30
0.0
 11
140.842979334315
 21
655.81437132207543
 31
0.0
  0
LINE
  5
475
  8
1外形線
 10
172.8888249667726
 20
662.9112490536063
 30
0.0
 11
137.94875277479821
 21
662.91124905360607
 31
0.0
  0
LINE
  5
476
  8
1外形線
 10
135.16854535303111
 20
668.31670055257041
 30
0.0
 11
131.93496698924159
 21
666.97730853929249
 31
0.0
  0
POLYLINE
  5
477
  8
1外形線
 10
138.82326877181336
 20
650.3474769540893
 30
0.0
 66
     1
 70
     8
  0
VERTEX
  8
1
  5
888
 10
138.823
 20
650.347
 30
0.000000
  70
    32
  0
VERTEX
  8
1
  5
889
 10
138.778
 20
650.329
 30
0.000000
  70
    32
  0
VERTEX
  8
1
  5
88A
 10
138.732
 20
650.311
 30
0.000000
  70
    32
  0
VERTEX
  8
1
  5
88B
 10
138.686
 20
650.294
 30
0.000000
  70
    32
  0
VERTEX
  8
1
  5
88C
 10
138.640
 20
650.278
 30
0.000000
  70
    32
  0
VERTEX
  8
1
  5
88D
 10
138.593
 20
650.262
 30
0.000000
  70
    32
  0
VERTEX
  8
1
  5
88E
 10
138.546
 20
650.247
 30
0.000000
  70
    32
  0
VERTEX
  8
1
  5
88F
 10
138.499
 20
650.233
 30
0.000000
  70
    32
  0
VERTEX
  8
1
  5
890
 10
138.452
 20
650.220
 30
0.000000
  70
    32
  0
VERTEX
  8
1
  5
891
 10
138.404
 20
650.207
 30
0.000000
  70
    32
  0
VERTEX
  8
1
  5
892
 10
138.357
 20
650.195
 30
0.000000
  70
    32
  0
VERTEX
  8
1
  5
893
 10
138.309
 20
650.183
 30
0.000000
  70
    32
  0
VERTEX
  8
1
  5
894
 10
138.260
 20
650.173
 30
0.000000
  70
    32
  0
VERTEX
  8
1
  5
895
 10
138.212
 20
650.163
 30
0.000000
  70
    32
  0
VERTEX
  8
1
  5
896
 10
138.163
 20
650.154
 30
0.000000
  70
    32
  0
VERTEX
  8
1
  5
897
 10
138.115
 20
650.145
 30
0.000000
  70
    32
  0
VERTEX
  8
1
  5
898
 10
138.066
 20
650.138
 30
0.000000
  70
    32
  0
VERTEX
  8
1
  5
899
 10
138.016
 20
650.131
 30
0.000000
  70
    32
  0
VERTEX
  8
1
  5
89A
 10
137.967
 20
650.124
 30
0.000000
  70
    32
  0
VERTEX
  8
1
  5
89B
 10
137.918
 20
650.119
 30
0.000000
  70
    32
  0
VERTEX
  8
1
  5
89C
 10
137.868
 20
650.114
 30
0.000000
  70
    32
  0
VERTEX
  8
1
  5
89D
 10
137.818
 20
650.110
 30
0.000000
  70
    32
  0
VERTEX
  8
1
  5
89E
 10
137.768
 20
650.107
 30
0.000000
  70
    32
  0
VERTEX
  8
1
  5
89F
 10
137.718
 20
650.104
 30
0.000000
  70
    32
  0
VERTEX
  8
1
  5
8A0
 10
137.668
 20
650.102
 30
0.000000
  70
    32
  0
VERTEX
  8
1
  5
8A1
 10
137.618
 20
650.101
 30
0.000000
  70
    32
  0
VERTEX
  8
1
  5
8A2
 10
137.567
 20
650.100
 30
0.000000
  70
    32
  0
VERTEX
  8
1
  5
8A3
 10
137.517
 20
650.101
 30
0.000000
  70
    32
  0
VERTEX
  8
1
  5
8A4
 10
137.466
 20
650.102
 30
0.000000
  70
    32
  0
VERTEX
  8
1
  5
8A5
 10
137.416
 20
650.104
 30
0.000000
  70
    32
  0
VERTEX
  8
1
  5
8A6
 10
137.365
 20
650.106
 30
0.000000
  70
    32
  0
VERTEX
  8
1
  5
8A7
 10
137.314
 20
650.109
 30
0.000000
  70
    32
  0
VERTEX
  8
1
  5
8A8
 10
137.263
 20
650.113
 30
0.000000
  70
    32
  0
VERTEX
  8
1
  5
8A9
 10
137.212
 20
650.118
 30
0.000000
  70
    32
  0
VERTEX
  8
1
  5
8AA
 10
137.162
 20
650.123
 30
0.000000
  70
    32
  0
VERTEX
  8
1
  5
8AB
 10
137.111
 20
650.130
 30
0.000000
  70
    32
  0
VERTEX
  8
1
  5
8AC
 10
137.060
 20
650.137
 30
0.000000
  70
    32
  0
VERTEX
  8
1
  5
8AD
 10
137.008
 20
650.144
 30
0.000000
  70
    32
  0
VERTEX
  8
1
  5
8AE
 10
136.957
 20
650.152
 30
0.000000
  70
    32
  0
VERTEX
  8
1
  5
8AF
 10
136.906
 20
650.162
 30
0.000000
  70
    32
  0
VERTEX
  8
1
  5
8B0
 10
136.855
 20
650.171
 30
0.000000
  70
    32
  0
VERTEX
  8
1
  5
8B1
 10
136.804
 20
650.182
 30
0.000000
  70
    32
  0
VERTEX
  8
1
  5
8B2
 10
136.753
 20
650.193
 30
0.000000
  70
    32
  0
VERTEX
  8
1
  5
8B3
 10
136.702
 20
650.205
 30
0.000000
  70
    32
  0
VERTEX
  8
1
  5
8B4
 10
136.651
 20
650.218
 30
0.000000
  70
    32
  0
VERTEX
  8
1
  5
8B5
 10
136.600
 20
650.231
 30
0.000000
  70
    32
  0
VERTEX
  8
1
  5
8B6
 10
136.549
 20
650.245
 30
0.000000
  70
    32
  0
VERTEX
  8
1
  5
8B7
 10
136.498
 20
650.260
 30
0.000000
  70
    32
  0
VERTEX
  8
1
  5
8B8
 10
136.448
 20
650.276
 30
0.000000
  70
    32
  0
VERTEX
  8
1
  5
8B9
 10
136.397
 20
650.292
 30
0.000000
  70
    32
  0
VERTEX
  8
1
  5
8BA
 10
136.346
 20
650.309
 30
0.000000
  70
    32
  0
VERTEX
  8
1
  5
8BB
 10
136.296
 20
650.326
 30
0.000000
  70
    32
  0
VERTEX
  8
1
  5
8BC
 10
136.245
 20
650.345
 30
0.000000
  70
    32
  0
VERTEX
  8
1
  5
8BD
 10
136.195
 20
650.364
 30
0.000000
  70
    32
  0
VERTEX
  8
1
  5
8BE
 10
136.145
 20
650.383
 30
0.000000
  70
    32
  0
VERTEX
  8
1
  5
8BF
 10
136.095
 20
650.404
 30
0.000000
  70
    32
  0
VERTEX
  8
1
  5
8C0
 10
136.045
 20
650.425
 30
0.000000
  70
    32
  0
VERTEX
  8
1
  5
8C1
 10
135.995
 20
650.447
 30
0.000000
  70
    32
  0
VERTEX
  8
1
  5
8C2
 10
135.945
 20
650.469
 30
0.000000
  70
    32
  0
VERTEX
  8
1
  5
8C3
 10
135.895
 20
650.492
 30
0.000000
  70
    32
  0
VERTEX
  8
1
  5
8C4
 10
135.846
 20
650.516
 30
0.000000
  70
    32
  0
VERTEX
  8
1
  5
8C5
 10
135.797
 20
650.541
 30
0.000000
  70
    32
  0
VERTEX
  8
1
  5
8C6
 10
135.747
 20
650.566
 30
0.000000
  70
    32
  0
VERTEX
  8
1
  5
8C7
 10
135.698
 20
650.592
 30
0.000000
  70
    32
  0
VERTEX
  8
1
  5
8C8
 10
135.650
 20
650.618
 30
0.000000
  70
    32
  0
VERTEX
  8
1
  5
8C9
 10
135.601
 20
650.645
 30
0.000000
  70
    32
  0
VERTEX
  8
1
  5
8CA
 10
135.553
 20
650.673
 30
0.000000
  70
    32
  0
VERTEX
  8
1
  5
8CB
 10
135.505
 20
650.701
 30
0.000000
  70
    32
  0
VERTEX
  8
1
  5
8CC
 10
135.457
 20
650.730
 30
0.000000
  70
    32
  0
VERTEX
  8
1
  5
8CD
 10
135.409
 20
650.760
 30
0.000000
  70
    32
  0
VERTEX
  8
1
  5
8CE
 10
135.361
 20
650.791
 30
0.000000
  70
    32
  0
VERTEX
  8
1
  5
8CF
 10
135.314
 20
650.821
 30
0.000000
  70
    32
  0
VERTEX
  8
1
  5
8D0
 10
135.267
 20
650.853
 30
0.000000
  70
    32
  0
VERTEX
  8
1
  5
8D1
 10
135.220
 20
650.885
 30
0.000000
  70
    32
  0
VERTEX
  8
1
  5
8D2
 10
135.174
 20
650.918
 30
0.000000
  70
    32
  0
VERTEX
  8
1
  5
8D3
 10
135.127
 20
650.952
 30
0.000000
  70
    32
  0
VERTEX
  8
1
  5
8D4
 10
135.081
 20
650.986
 30
0.000000
  70
    32
  0
VERTEX
  8
1
  5
8D5
 10
135.036
 20
651.020
 30
0.000000
  70
    32
  0
VERTEX
  8
1
  5
8D6
 10
134.990
 20
651.055
 30
0.000000
  70
    32
  0
VERTEX
  8
1
  5
8D7
 10
134.945
 20
651.091
 30
0.000000
  70
    32
  0
VERTEX
  8
1
  5
8D8
 10
134.900
 20
651.128
 30
0.000000
  70
    32
  0
VERTEX
  8
1
  5
8D9
 10
134.856
 20
651.165
 30
0.000000
  70
    32
  0
VERTEX
  8
1
  5
8DA
 10
134.811
 20
651.202
 30
0.000000
  70
    32
  0
VERTEX
  8
1
  5
8DB
 10
134.767
 20
651.240
 30
0.000000
  70
    32
  0
VERTEX
  8
1
  5
8DC
 10
134.724
 20
651.279
 30
0.000000
  70
    32
  0
VERTEX
  8
1
  5
8DD
 10
134.681
 20
651.318
 30
0.000000
  70
    32
  0
VERTEX
  8
1
  5
8DE
 10
134.638
 20
651.358
 30
0.000000
  70
    32
  0
VERTEX
  8
1
  5
8DF
 10
134.595
 20
651.398
 30
0.000000
  70
    32
  0
VERTEX
  8
1
  5
8E0
 10
134.553
 20
651.439
 30
0.000000
  70
    32
  0
VERTEX
  8
1
  5
8E1
 10
134.511
 20
651.481
 30
0.000000
  70
    32
  0
VERTEX
  8
1
  5
8E2
 10
134.469
 20
651.523
 30
0.000000
  70
    32
  0
VERTEX
  8
1
  5
8E3
 10
134.428
 20
651.565
 30
0.000000
  70
    32
  0
VERTEX
  8
1
  5
8E4
 10
134.387
 20
651.608
 30
0.000000
  70
    32
  0
VERTEX
  8
1
  5
8E5
 10
134.347
 20
651.652
 30
0.000000
  70
    32
  0
VERTEX
  8
1
  5
8E6
 10
134.307
 20
651.695
 30
0.000000
  70
    32
  0
VERTEX
  8
1
  5
8E7
 10
134.267
 20
651.740
 30
0.000000
  70
    32
  0
VERTEX
  8
1
  5
8E8
 10
134.228
 20
651.785
 30
0.000000
  70
    32
  0
VERTEX
  8
1
  5
8E9
 10
134.189
 20
651.830
 30
0.000000
  70
    32
  0
VERTEX
  8
1
  5
8EA
 10
134.151
 20
651.876
 30
0.000000
  70
    32
  0
VERTEX
  8
1
  5
8EB
 10
134.113
 20
651.923
 30
0.000000
  70
    32
  0
VERTEX
  8
1
  5
8EC
 10
134.075
 20
651.969
 30
0.000000
  70
    32
  0
VERTEX
  8
1
  5
8ED
 10
134.038
 20
652.017
 30
0.000000
  70
    32
  0
VERTEX
  8
1
  5
8EE
 10
134.001
 20
652.064
 30
0.000000
  70
    32
  0
VERTEX
  8
1
  5
8EF
 10
133.965
 20
652.113
 30
0.000000
  70
    32
  0
VERTEX
  8
1
  5
8F0
 10
133.929
 20
652.161
 30
0.000000
  70
    32
  0
VERTEX
  8
1
  5
8F1
 10
133.893
 20
652.210
 30
0.000000
  70
    32
  0
VERTEX
  8
1
  5
8F2
 10
133.859
 20
652.260
 30
0.000000
  70
    32
  0
VERTEX
  8
1
  5
8F3
 10
133.824
 20
652.309
 30
0.000000
  70
    32
  0
VERTEX
  8
1
  5
8F4
 10
133.790
 20
652.360
 30
0.000000
  70
    32
  0
VERTEX
  8
1
  5
8F5
 10
133.756
 20
652.410
 30
0.000000
  70
    32
  0
VERTEX
  8
1
  5
8F6
 10
133.723
 20
652.461
 30
0.000000
  70
    32
  0
VERTEX
  8
1
  5
8F7
 10
133.691
 20
652.513
 30
0.000000
  70
    32
  0
VERTEX
  8
1
  5
8F8
 10
133.659
 20
652.564
 30
0.000000
  70
    32
  0
VERTEX
  8
1
  5
8F9
 10
133.627
 20
652.616
 30
0.000000
  70
    32
  0
VERTEX
  8
1
  5
8FA
 10
133.596
 20
652.669
 30
0.000000
  70
    32
  0
VERTEX
  8
1
  5
8FB
 10
133.565
 20
652.722
 30
0.000000
  70
    32
  0
VERTEX
  8
1
  5
8FC
 10
133.535
 20
652.775
 30
0.000000
  70
    32
  0
VERTEX
  8
1
  5
8FD
 10
133.505
 20
652.828
 30
0.000000
  70
    32
  0
VERTEX
  8
1
  5
8FE
 10
133.476
 20
652.882
 30
0.000000
  70
    32
  0
VERTEX
  8
1
  5
8FF
 10
133.448
 20
652.936
 30
0.000000
  70
    32
  0
VERTEX
  8
1
  5
900
 10
133.420
 20
652.991
 30
0.000000
  70
    32
  0
VERTEX
  8
1
  5
901
 10
133.392
 20
653.045
 30
0.000000
  70
    32
  0
VERTEX
  8
1
  5
902
 10
133.365
 20
653.100
 30
0.000000
  70
    32
  0
VERTEX
  8
1
  5
903
 10
133.339
 20
653.156
 30
0.000000
  70
    32
  0
VERTEX
  8
1
  5
904
 10
133.313
 20
653.211
 30
0.000000
  70
    32
  0
VERTEX
  8
1
  5
905
 10
133.287
 20
653.267
 30
0.000000
  70
    32
  0
VERTEX
  8
1
  5
906
 10
133.262
 20
653.323
 30
0.000000
  70
    32
  0
VERTEX
  8
1
  5
907
 10
133.238
 20
653.380
 30
0.000000
  70
    32
  0
VERTEX
  8
1
  5
908
 10
133.214
 20
653.436
 30
0.000000
  70
    32
  0
SEQEND
  8
1
  5
909
  0
LINE
  5
478
  8
1外形線
 10
120.2823531134202
 20
685.963266241263
 30
0.0
 11
123.5159314772097
 21
687.30265825454092
 31
0.0
  0
LINE
  5
479
  8
1外形線
 10
119.629071630982
 20
686.23386429133609
 30
0.0
 11
115.22821215878341
 21
696.85847891521598
 31
0.0
  0
LINE
  5
47A
  8
1外形線
 10
110.8696049018328
 20
630.12516924337569
 30
0.0
 11
133.52943965740059
 21
652.78500399894369
 31
0.0
  0
LINE
  5
47B
  8
1外形線
 10
105.8513545326155
 20
635.14341961259288
 30
0.0
 11
130.55771651470809
 21
659.84978159468551
 31
0.0
  0
LINE
  5
47C
  8
1外形線
 10
133.21433347994241
 20
653.43614088718641
 30
0.0
 11
128.43079057537909
 21
664.98463504357665
 31
0.0
  0
LINE
  5
47D
  8
1外形線
 10
127.03266403788911
 20
633.5828110411195
 30
0.0
 11
126.2381671320823
 21
632.78831413467742
 31
0.0
  0
ARC
  5
47E
  8
1外形線
 10
125.88461374134759
 20
633.14186752512933
 30
0.0
 40
0.5
 50
225.00000000000011
 51
315.00000002290801
  0
LINE
  5
47F
  8
1外形線
 10
130.20251787161351
 20
637.18917360840624
 30
0.0
 11
130.1232615379063
 21
637.38051532414624
 31
0.0
  0
ARC
  5
480
  8
1外形線
 10
129.740578105358
 20
636.99783189222364
 30
0.0
 40
0.5
 50
315.0000000229175
 51
22.5000000000021
  0
ARC
  5
481
  8
1外形線
 10
126.6791106471544
 20
633.93636443157152
 30
0.0
 40
0.5
 50
315.0000000229083
 51
22.500000000000099
  0
LINE
  5
482
  8
1外形線
 10
127.14105041341
 20
634.127706147754
 30
0.0
 11
127.0617940789856
 21
634.31904786522534
 31
0.0
  0
ARC
  5
483
  8
1外形線
 10
128.94608119904399
 20
636.2033349852743
 30
0.0
 40
0.5
 50
225.00000000000011
 51
315.00000002291682
  0
LINE
  5
484
  8
1外形線
 10
130.09413149609259
 20
636.64427850177185
 30
0.0
 11
129.29963458977861
 21
635.84978159482239
 31
0.0
  0
ARC
  5
485
  8
1外形線
 10
120.09101139723769
 20
686.42520600751868
 30
0.0
 40
0.5
 50
202.50000000000011
 51
292.50000000000011
  0
LINE
  5
486
  8
1外形線
 10
128.70138862545221
 20
665.63791652601481
 30
0.0
 11
131.9349669892417
 21
666.97730853929249
 31
0.0
  0
ARC
  5
487
  8
1外形線
 10
128.8927303416348
 20
665.17597675975924
 30
0.0
 40
0.5
 50
112.5000000000001
 51
202.50000000000011
  0
ARC
  5
488
  8
1外形線
 10
128.68215783687859
 20
674.83028457505782
 30
0.0
 40
2.5
 50
89.999999988790606
 51
112.5000005641085
  0
ARC
  5
489
  8
1外形線
 10
128.6821577913982
 20
674.83028455621911
 30
0.0
 40
2.5
 50
112.4999994358914
 51
135.00000001120949
  0
ARC
  5
48A
  8
1外形線
 10
114.5798874612729
 20
695.83444680124603
 30
0.0
 40
9.0179061520224817
 50
26.93909018793968
 51
74.003742618891025
  0
ARC
  5
48B
  8
1外形線
 10
123.80178326083509
 20
699.65428111221627
 30
0.0
 40
9.0179061520224817
 50
150.9962573811091
 51
198.06090981206049
  0
ARC
  5
48C
  8
1外形線
 10
115.8224714899239
 20
705.81121868608875
 30
0.0
 40
2.5
 50
111.92907747456751
 51
135.0000000112629
  0
ARC
  5
48D
  8
1外形線
 10
116.7894184583793
 20
703.54189721208013
 30
0.0
 40
1.0
 50
74.003742618891664
 51
112.5000000000001
  0
ARC
  5
48E
  8
1外形線
 10
116.7894184583794
 20
703.54189721208013
 30
0.0
 40
1.0
 50
112.5000000000001
 51
150.99625738110839
  0
ARC
  5
48F
  8
1外形線
 10
116.5702513784813
 20
704.07101334879565
 30
0.0
 40
2.5
 50
112.4999999999999
 51
135.00000000000011
  0
ARC
  5
490
  8
1外形線
 10
115.8685006138582
 20
705.83028457348655
 30
0.0
 40
2.5
 50
89.999999988737073
 51
113.07092252543239
  0
ARC
  5
491
  8
1外形線
 10
116.5702513784814
 20
704.07101334879565
 30
0.0
 40
2.5
 50
90.0
 51
112.5000000000001
  0
LINE
  5
492
  8
1外形線
 10
126.7495098409991
 20
688.64205026781872
 30
0.0
 11
123.51593147720961
 21
687.30265825454092
 31
0.0
  0
LINE
  5
493
  8
1外形線
 10
127.0201078910722
 20
689.29533175025676
 30
0.0
 11
122.6192484188737
 21
699.91994637413666
 31
0.0
  0
ARC
  5
494
  8
1外形線
 10
126.5581681248165
 20
689.10399003407429
 30
0.0
 40
0.5
 50
292.50000000000011
 51
22.500000000000099
  0
LINE
  5
495
  8
1外形線
 10
140.6053697400325
 20
656.4976083461072
 30
0.0
 11
135.8218268354693
 21
668.04610250249732
 31
0.0
  0
POLYLINE
  5
496
  8
1外形線
 10
138.82326877181328
 20
650.34747695408919
 30
0.0
 66
     1
 70
     8
  0
VERTEX
  8
1
  5
90A
 10
138.823
 20
650.347
 30
0.000000
  70
    32
  0
VERTEX
  8
1
  5
90B
 10
138.868
 20
650.367
 30
0.000000
  70
    32
  0
VERTEX
  8
1
  5
90C
 10
138.913
 20
650.386
 30
0.000000
  70
    32
  0
VERTEX
  8
1
  5
90D
 10
138.958
 20
650.407
 30
0.000000
  70
    32
  0
VERTEX
  8
1
  5
90E
 10
139.002
 20
650.428
 30
0.000000
  70
    32
  0
VERTEX
  8
1
  5
90F
 10
139.046
 20
650.450
 30
0.000000
  70
    32
  0
VERTEX
  8
1
  5
910
 10
139.090
 20
650.473
 30
0.000000
  70
    32
  0
VERTEX
  8
1
  5
911
 10
139.133
 20
650.496
 30
0.000000
  70
    32
  0
VERTEX
  8
1
  5
912
 10
139.176
 20
650.520
 30
0.000000
  70
    32
  0
VERTEX
  8
1
  5
913
 10
139.219
 20
650.544
 30
0.000000
  70
    32
  0
VERTEX
  8
1
  5
914
 10
139.261
 20
650.570
 30
0.000000
  70
    32
  0
VERTEX
  8
1
  5
915
 10
139.303
 20
650.596
 30
0.000000
  70
    32
  0
VERTEX
  8
1
  5
916
 10
139.345
 20
650.622
 30
0.000000
  70
    32
  0
VERTEX
  8
1
  5
917
 10
139.386
 20
650.649
 30
0.000000
  70
    32
  0
VERTEX
  8
1
  5
918
 10
139.427
 20
650.677
 30
0.000000
  70
    32
  0
VERTEX
  8
1
  5
919
 10
139.467
 20
650.706
 30
0.000000
  70
    32
  0
VERTEX
  8
1
  5
91A
 10
139.507
 20
650.735
 30
0.000000
  70
    32
  0
VERTEX
  8
1
  5
91B
 10
139.547
 20
650.765
 30
0.000000
  70
    32
  0
VERTEX
  8
1
  5
91C
 10
139.586
 20
650.795
 30
0.000000
  70
    32
  0
VERTEX
  8
1
  5
91D
 10
139.625
 20
650.826
 30
0.000000
  70
    32
  0
VERTEX
  8
1
  5
91E
 10
139.664
 20
650.858
 30
0.000000
  70
    32
  0
VERTEX
  8
1
  5
91F
 10
139.702
 20
650.890
 30
0.000000
  70
    32
  0
VERTEX
  8
1
  5
920
 10
139.740
 20
650.923
 30
0.000000
  70
    32
  0
VERTEX
  8
1
  5
921
 10
139.777
 20
650.957
 30
0.000000
  70
    32
  0
VERTEX
  8
1
  5
922
 10
139.814
 20
650.991
 30
0.000000
  70
    32
  0
VERTEX
  8
1
  5
923
 10
139.850
 20
651.025
 30
0.000000
  70
    32
  0
VERTEX
  8
1
  5
924
 10
139.886
 20
651.061
 30
0.000000
  70
    32
  0
VERTEX
  8
1
  5
925
 10
139.921
 20
651.097
 30
0.000000
  70
    32
  0
VERTEX
  8
1
  5
926
 10
139.956
 20
651.133
 30
0.000000
  70
    32
  0
VERTEX
  8
1
  5
927
 10
139.991
 20
651.170
 30
0.000000
  70
    32
  0
VERTEX
  8
1
  5
928
 10
140.025
 20
651.208
 30
0.000000
  70
    32
  0
VERTEX
  8
1
  5
929
 10
140.059
 20
651.246
 30
0.000000
  70
    32
  0
VERTEX
  8
1
  5
92A
 10
140.092
 20
651.285
 30
0.000000
  70
    32
  0
VERTEX
  8
1
  5
92B
 10
140.125
 20
651.324
 30
0.000000
  70
    32
  0
VERTEX
  8
1
  5
92C
 10
140.157
 20
651.364
 30
0.000000
  70
    32
  0
VERTEX
  8
1
  5
92D
 10
140.188
 20
651.405
 30
0.000000
  70
    32
  0
VERTEX
  8
1
  5
92E
 10
140.220
 20
651.445
 30
0.000000
  70
    32
  0
VERTEX
  8
1
  5
92F
 10
140.250
 20
651.487
 30
0.000000
  70
    32
  0
VERTEX
  8
1
  5
930
 10
140.281
 20
651.529
 30
0.000000
  70
    32
  0
VERTEX
  8
1
  5
931
 10
140.310
 20
651.571
 30
0.000000
  70
    32
  0
VERTEX
  8
1
  5
932
 10
140.339
 20
651.615
 30
0.000000
  70
    32
  0
VERTEX
  8
1
  5
933
 10
140.368
 20
651.658
 30
0.000000
  70
    32
  0
VERTEX
  8
1
  5
934
 10
140.396
 20
651.702
 30
0.000000
  70
    32
  0
VERTEX
  8
1
  5
935
 10
140.424
 20
651.747
 30
0.000000
  70
    32
  0
VERTEX
  8
1
  5
936
 10
140.451
 20
651.792
 30
0.000000
  70
    32
  0
VERTEX
  8
1
  5
937
 10
140.477
 20
651.837
 30
0.000000
  70
    32
  0
VERTEX
  8
1
  5
938
 10
140.504
 20
651.883
 30
0.000000
  70
    32
  0
VERTEX
  8
1
  5
939
 10
140.529
 20
651.930
 30
0.000000
  70
    32
  0
VERTEX
  8
1
  5
93A
 10
140.554
 20
651.976
 30
0.000000
  70
    32
  0
VERTEX
  8
1
  5
93B
 10
140.578
 20
652.024
 30
0.000000
  70
    32
  0
VERTEX
  8
1
  5
93C
 10
140.602
 20
652.072
 30
0.000000
  70
    32
  0
VERTEX
  8
1
  5
93D
 10
140.625
 20
652.120
 30
0.000000
  70
    32
  0
VERTEX
  8
1
  5
93E
 10
140.648
 20
652.168
 30
0.000000
  70
    32
  0
VERTEX
  8
1
  5
93F
 10
140.670
 20
652.217
 30
0.000000
  70
    32
  0
VERTEX
  8
1
  5
940
 10
140.692
 20
652.267
 30
0.000000
  70
    32
  0
VERTEX
  8
1
  5
941
 10
140.713
 20
652.317
 30
0.000000
  70
    32
  0
VERTEX
  8
1
  5
942
 10
140.733
 20
652.367
 30
0.000000
  70
    32
  0
VERTEX
  8
1
  5
943
 10
140.753
 20
652.418
 30
0.000000
  70
    32
  0
VERTEX
  8
1
  5
944
 10
140.773
 20
652.469
 30
0.000000
  70
    32
  0
VERTEX
  8
1
  5
945
 10
140.791
 20
652.520
 30
0.000000
  70
    32
  0
VERTEX
  8
1
  5
946
 10
140.809
 20
652.572
 30
0.000000
  70
    32
  0
VERTEX
  8
1
  5
947
 10
140.827
 20
652.624
 30
0.000000
  70
    32
  0
VERTEX
  8
1
  5
948
 10
140.844
 20
652.677
 30
0.000000
  70
    32
  0
VERTEX
  8
1
  5
949
 10
140.860
 20
652.730
 30
0.000000
  70
    32
  0
VERTEX
  8
1
  5
94A
 10
140.876
 20
652.783
 30
0.000000
  70
    32
  0
VERTEX
  8
1
  5
94B
 10
140.891
 20
652.836
 30
0.000000
  70
    32
  0
VERTEX
  8
1
  5
94C
 10
140.906
 20
652.890
 30
0.000000
  70
    32
  0
VERTEX
  8
1
  5
94D
 10
140.920
 20
652.944
 30
0.000000
  70
    32
  0
VERTEX
  8
1
  5
94E
 10
140.933
 20
652.999
 30
0.000000
  70
    32
  0
VERTEX
  8
1
  5
94F
 10
140.946
 20
653.054
 30
0.000000
  70
    32
  0
VERTEX
  8
1
  5
950
 10
140.958
 20
653.109
 30
0.000000
  70
    32
  0
VERTEX
  8
1
  5
951
 10
140.969
 20
653.164
 30
0.000000
  70
    32
  0
VERTEX
  8
1
  5
952
 10
140.980
 20
653.220
 30
0.000000
  70
    32
  0
VERTEX
  8
1
  5
953
 10
140.991
 20
653.276
 30
0.000000
  70
    32
  0
VERTEX
  8
1
  5
954
 10
141.000
 20
653.332
 30
0.000000
  70
    32
  0
VERTEX
  8
1
  5
955
 10
141.009
 20
653.388
 30
0.000000
  70
    32
  0
VERTEX
  8
1
  5
956
 10
141.018
 20
653.445
 30
0.000000
  70
    32
  0
VERTEX
  8
1
  5
957
 10
141.026
 20
653.501
 30
0.000000
  70
    32
  0
VERTEX
  8
1
  5
958
 10
141.033
 20
653.558
 30
0.000000
  70
    32
  0
VERTEX
  8
1
  5
959
 10
141.040
 20
653.616
 30
0.000000
  70
    32
  0
VERTEX
  8
1
  5
95A
 10
141.046
 20
653.673
 30
0.000000
  70
    32
  0
VERTEX
  8
1
  5
95B
 10
141.051
 20
653.731
 30
0.000000
  70
    32
  0
VERTEX
  8
1
  5
95C
 10
141.056
 20
653.789
 30
0.000000
  70
    32
  0
VERTEX
  8
1
  5
95D
 10
141.060
 20
653.847
 30
0.000000
  70
    32
  0
VERTEX
  8
1
  5
95E
 10
141.063
 20
653.905
 30
0.000000
  70
    32
  0
VERTEX
  8
1
  5
95F
 10
141.066
 20
653.963
 30
0.000000
  70
    32
  0
VERTEX
  8
1
  5
960
 10
141.068
 20
654.022
 30
0.000000
  70
    32
  0
VERTEX
  8
1
  5
961
 10
141.070
 20
654.081
 30
0.000000
  70
    32
  0
VERTEX
  8
1
  5
962
 10
141.071
 20
654.139
 30
0.000000
  70
    32
  0
VERTEX
  8
1
  5
963
 10
141.071
 20
654.198
 30
0.000000
  70
    32
  0
VERTEX
  8
1
  5
964
 10
141.071
 20
654.257
 30
0.000000
  70
    32
  0
VERTEX
  8
1
  5
965
 10
141.070
 20
654.316
 30
0.000000
  70
    32
  0
VERTEX
  8
1
  5
966
 10
141.069
 20
654.376
 30
0.000000
  70
    32
  0
VERTEX
  8
1
  5
967
 10
141.067
 20
654.435
 30
0.000000
  70
    32
  0
VERTEX
  8
1
  5
968
 10
141.064
 20
654.494
 30
0.000000
  70
    32
  0
VERTEX
  8
1
  5
969
 10
141.060
 20
654.554
 30
0.000000
  70
    32
  0
VERTEX
  8
1
  5
96A
 10
141.056
 20
654.613
 30
0.000000
  70
    32
  0
VERTEX
  8
1
  5
96B
 10
141.052
 20
654.673
 30
0.000000
  70
    32
  0
VERTEX
  8
1
  5
96C
 10
141.046
 20
654.733
 30
0.000000
  70
    32
  0
VERTEX
  8
1
  5
96D
 10
141.040
 20
654.792
 30
0.000000
  70
    32
  0
VERTEX
  8
1
  5
96E
 10
141.034
 20
654.852
 30
0.000000
  70
    32
  0
VERTEX
  8
1
  5
96F
 10
141.027
 20
654.912
 30
0.000000
  70
    32
  0
VERTEX
  8
1
  5
970
 10
141.019
 20
654.971
 30
0.000000
  70
    32
  0
VERTEX
  8
1
  5
971
 10
141.011
 20
655.031
 30
0.000000
  70
    32
  0
VERTEX
  8
1
  5
972
 10
141.002
 20
655.091
 30
0.000000
  70
    32
  0
VERTEX
  8
1
  5
973
 10
140.992
 20
655.150
 30
0.000000
  70
    32
  0
VERTEX
  8
1
  5
974
 10
140.982
 20
655.210
 30
0.000000
  70
    32
  0
VERTEX
  8
1
  5
975
 10
140.971
 20
655.270
 30
0.000000
  70
    32
  0
VERTEX
  8
1
  5
976
 10
140.960
 20
655.329
 30
0.000000
  70
    32
  0
VERTEX
  8
1
  5
977
 10
140.947
 20
655.389
 30
0.000000
  70
    32
  0
VERTEX
  8
1
  5
978
 10
140.935
 20
655.448
 30
0.000000
  70
    32
  0
VERTEX
  8
1
  5
979
 10
140.922
 20
655.508
 30
0.000000
  70
    32
  0
VERTEX
  8
1
  5
97A
 10
140.908
 20
655.567
 30
0.000000
  70
    32
  0
VERTEX
  8
1
  5
97B
 10
140.893
 20
655.626
 30
0.000000
  70
    32
  0
VERTEX
  8
1
  5
97C
 10
140.878
 20
655.685
 30
0.000000
  70
    32
  0
VERTEX
  8
1
  5
97D
 10
140.862
 20
655.744
 30
0.000000
  70
    32
  0
VERTEX
  8
1
  5
97E
 10
140.846
 20
655.803
 30
0.000000
  70
    32
  0
VERTEX
  8
1
  5
97F
 10
140.829
 20
655.862
 30
0.000000
  70
    32
  0
VERTEX
  8
1
  5
980
 10
140.812
 20
655.921
 30
0.000000
  70
    32
  0
VERTEX
  8
1
  5
981
 10
140.794
 20
655.979
 30
0.000000
  70
    32
  0
VERTEX
  8
1
  5
982
 10
140.775
 20
656.037
 30
0.000000
  70
    32
  0
VERTEX
  8
1
  5
983
 10
140.756
 20
656.096
 30
0.000000
  70
    32
  0
VERTEX
  8
1
  5
984
 10
140.736
 20
656.154
 30
0.000000
  70
    32
  0
VERTEX
  8
1
  5
985
 10
140.716
 20
656.211
 30
0.000000
  70
    32
  0
VERTEX
  8
1
  5
986
 10
140.695
 20
656.269
 30
0.000000
  70
    32
  0
VERTEX
  8
1
  5
987
 10
140.673
 20
656.327
 30
0.000000
  70
    32
  0
VERTEX
  8
1
  5
988
 10
140.651
 20
656.384
 30
0.000000
  70
    32
  0
VERTEX
  8
1
  5
989
 10
140.629
 20
656.441
 30
0.000000
  70
    32
  0
VERTEX
  8
1
  5
98A
 10
140.605
 20
656.498
 30
0.000000
  70
    32
  0
SEQEND
  8
1
  5
98B
  0
ARC
  5
497
  8
1外形線
 10
141.11253020077839
 20
644.83028456563852
 30
0.0
 40
2.5
 50
90.0
 51
112.5839648992204
  0
ARC
  5
498
  8
1外形線
 10
141.1057606424678
 20
644.82748052277486
 30
0.0
 40
2.5
 50
112.4160351007795
 51
135.00000000000011
  0
ARC
  5
499
  8
1外形線
 10
135.35988706921361
 20
667.85476078631473
 30
0.0
 40
0.5
 50
22.500000000000099
 51
112.5000000000001
  0
LINE
  5
49A
  8
1外形線
 10
159.01489428484939
 20
646.83028456434954
 30
0.0
 11
160.138482584754
 21
646.83028456390025
 31
0.0
  0
LINE
  5
49B
  8
1外形線
 10
154.68532548296241
 20
646.8302845660811
 30
0.0
 11
155.80891378358439
 21
646.83028456563159
 31
0.0
  0
ARC
  5
49C
  8
1外形線
 10
154.68532548316239
 20
647.33028456608099
 30
0.0
 40
0.5
 50
202.49999999999801
 51
269.99999997708238
  0
LINE
  5
49D
  8
1外形線
 10
154.22338571690679
 20
647.13894284989863
 30
0.0
 11
154.14412938319961
 21
647.33028456563852
 31
0.0
  0
ARC
  5
49E
  8
1外形線
 10
159.01489428504931
 20
647.33028456434954
 30
0.0
 40
0.5
 50
202.50000000000011
 51
269.99999997709182
  0
LINE
  5
49F
  8
1外形線
 10
158.5529545187936
 20
647.13894284816695
 30
0.0
 11
158.4736981843692
 21
647.33028456563852
 31
0.0
  0
ARC
  5
4A0
  8
1外形線
 10
155.80891378378439
 20
647.33028456563159
 30
0.0
 40
0.5
 50
269.99999997708318
 51
0.0
  0
ARC
  5
4A1
  8
1外形線
 10
160.13848258495389
 20
647.33028456390025
 30
0.0
 40
0.5
 50
269.99999997709199
 51
0.0
  0
LINE
  5
4A2
  8
1外形線
 10
158.77369818436921
 20
708.83028456563875
 30
0.0
 11
160.23092221199701
 21
708.83028456563864
 31
0.0
  0
LINE
  5
4A3
  8
1外形線
 10
154.44412938319959
 20
708.83028456563807
 30
0.0
 11
155.901353411222
 21
708.83028456563841
 31
0.0
  0
LINE
  5
4A4
  8
1外形線
 10
154.14412938319961
 20
708.3302845659623
 30
0.0
 11
154.14412938319961
 21
708.53028456563823
 31
0.0
  0
ARC
  5
4A5
  8
1外形線
 10
154.44412938319959
 20
708.53028456563823
 30
0.0
 40
0.3
 50
90.0000000000055
 51
180.0
  0
LINE
  5
4A6
  8
1外形線
 10
158.4736981843692
 20
708.33028456511136
 30
0.0
 11
158.47369818436911
 21
708.53028456563868
 31
0.0
  0
ARC
  5
4A7
  8
1外形線
 10
158.7736981843691
 20
708.53028456563868
 30
0.0
 40
0.3
 50
89.999999999994287
 51
180.0
  0
LINE
  5
4A8
  8
1外形線
 10
156.30891378378431
 20
708.33028456563829
 30
0.0
 11
156.17851727097539
 21
708.64508959534794
 31
0.0
  0
ARC
  5
4A9
  8
1外形線
 10
155.901353411222
 20
708.53028456563845
 30
0.0
 40
0.3
 50
22.500000000000099
 51
90.000000000005087
  0
LINE
  5
4AA
  8
1外形線
 10
160.63848258495389
 20
708.33028456468583
 30
0.0
 11
160.50808607175031
 21
708.64508959534805
 31
0.0
  0
ARC
  5
4AB
  8
1外形線
 10
160.2309222119969
 20
708.53028456563857
 30
0.0
 40
0.3
 50
22.500000000000099
 51
89.999999999993875
  0
ARC
  5
4AC
  8
1外形線
 10
228.38882496677249
 20
683.33028456563864
 30
0.0
 40
25.5
 50
89.999999999999801
 51
179.9999999999998
  0
ARC
  5
4AD
  8
1外形線
 10
228.3888249667726
 20
672.33028456563852
 30
0.0
 40
25.0
 50
180.00000000000119
 51
269.99999999999972
  0
LINE
  5
4AE
  8
1外形線
 10
170.8888249667726
 20
708.33028456621889
 30
0.0
 11
170.8888249667734
 21
677.33028456661884
 31
0.0
  0
LINE
  5
4AF
  8
1外形線
 10
172.8888249667726
 20
708.83028456621912
 30
0.0
 11
172.8888249667726
 21
646.83028456381976
 31
0.0
  0
LINE
  5
4B0
  8
1外形線
 10
171.26523666685901
 20
646.8302845644688
 30
0.0
 11
172.8888249667726
 21
646.83028456381976
 31
0.0
  0
ARC
  5
4B1
  8
1外形線
 10
171.2652366670589
 20
647.3302845644688
 30
0.0
 40
0.5
 50
202.50000000000011
 51
269.99999997709119
  0
LINE
  5
4B2
  8
1外形線
 10
170.8032969008033
 20
647.13894284828632
 30
0.0
 11
170.72404056618791
 21
647.33028456621901
 31
0.0
  0
LINE
  5
4B3
  8
1外形線
 10
171.38882496677269
 20
708.83028456621901
 30
0.0
 11
172.8888249667726
 21
708.83028456621912
 31
0.0
  0
ARC
  5
4B4
  8
1外形線
 10
171.3888249667726
 20
708.33028456621889
 30
0.0
 40
0.5
 50
90.000000000001421
 51
180.00000000000139
  0
LINE
  5
4B5
  8
1外形線
 10
212.8888249667724
 20
699.94277956163444
 30
0.0
 11
212.8888249667724
 21
684.44170426616245
 31
0.0
  0
ARC
  5
4B6
  8
1外形線
 10
228.38882496677249
 20
684.33028456563852
 30
0.0
 40
22.0
 50
89.999999999999801
 51
179.9999999999998
  0
ARC
  5
4B7
  8
1外形線
 10
228.38882496677249
 20
671.33028456563852
 30
0.0
 40
22.0
 50
179.9999999999998
 51
269.99999999999972
  0
LINE
  5
4B8
  8
1外形線
 10
212.8888249667724
 20
683.39935322260658
 30
0.0
 11
212.88882496677249
 21
655.81437132207543
 31
0.0
  0
ARC
  5
4B9
  8
1外形線
 10
207.3888249667724
 20
665.2128197431332
 30
0.0
 40
19.0
 50
73.173551107259044
 51
92.817936598993938
  0
ARC
  5
4BA
  8
1外形線
 10
207.3888249667724
 20
665.2128197431332
 30
0.0
 40
20.0
 50
74.037985837152846
 51
92.817936598993938
  0
LINE
  5
4BB
  8
1外形線
 10
206.3888249667726
 20
684.33028456563875
 30
0.0
 11
206.3888249667726
 21
671.33028456563864
 31
0.0
  0
LINE
  5
4BC
  8
1外形線
 10
202.8888249667726
 20
677.33028456563875
 30
0.0
 11
204.8888249667726
 21
677.33028456563864
 31
0.0
  0
LINE
  5
4BD
  8
1外形線
 10
202.8888249667726
 20
683.33028456563875
 30
0.0
 11
202.8888249667726
 21
677.33028456563875
 31
0.0
  0
LINE
  5
4BE
  8
1外形線
 10
205.2987753386746
 20
681.42978828465971
 30
0.0
 11
204.8888249667726
 21
677.33028456563864
 31
0.0
  0
LINE
  5
4BF
  8
1外形線
 10
204.8888249667726
 20
682.33028456563864
 30
0.0
 11
204.8888249667726
 21
677.33028456563864
 31
0.0
  0
ARC
  5
4C0
  8
1外形線
 10
206.2938125288845
 20
681.33028456563875
 30
0.0
 40
1.0
 50
89.999999999998764
 51
174.28940686249999
  0
LINE
  5
4C1
  8
1外形線
 10
204.8888249667726
 20
682.33028456563864
 30
0.0
 11
206.2938125288847
 21
682.33028456563864
 31
0.0
  0
LINE
  5
4C2
  8
1外形線
 10
206.2938125288847
 20
682.33028456563864
 30
0.0
 11
206.38882496677249
 21
682.33028456563875
 31
0.0
  0
LINE
  5
4C3
  8
1外形線
 10
209.3888249667724
 20
685.11256848526557
 30
0.0
 11
209.3888249667724
 21
684.10726337082451
 31
0.0
  0
LINE
  5
4C4
  8
1外形線
 10
226.38882496677229
 20
637.0269619335528
 30
0.0
 11
226.38882496677229
 21
635.61274837117946
 31
0.0
  0
LINE
  5
4C5
  8
1外形線
 10
226.38882496677229
 20
634.19853480880647
 30
0.0
 11
226.38882496677229
 21
632.78432124643325
 31
0.0
  0
LINE
  5
4C6
  8
1外形線
 10
226.38882496677249
 20
647.45312948473952
 30
0.0
 11
227.38882496677249
 21
646.83028456563852
 31
0.0
  0
LINE
  5
4C7
  8
1外形線
 10
412.74596410624468
 20
768.33028457348644
 30
0.0
 11
412.74596410624468
 21
26.888165665697208
 31
0.0
  0
ARC
  5
4C8
  8
1外形線
 10
334.74596410624463
 20
135.36347415499509
 30
0.0
 40
28.5
 50
359.99999999999972
 51
89.999999999999588
  0
ARC
  5
4C9
  8
1外形線
 10
334.74596410624468
 20
136.3634741549954
 30
0.0
 40
25.0
 50
359.9999999999996
 51
90.0
  0
ARC
  5
4CA
  8
1外形線
 10
334.74596410624468
 20
108.3634741549956
 30
0.0
 40
28.0
 50
269.99999999999972
 51
359.99999999999972
  0
ARC
  5
4CB
  8
1外形線
 10
334.74596410624463
 20
107.3634741549954
 30
0.0
 40
25.0
 50
269.99999999999972
 51
359.99999999999932
  0
LINE
  5
4CC
  8
1外形線
 10
290.74596410624451
 20
65.817510835790245
 30
0.0
 11
332.74596410624451
 21
65.817510835790245
 31
0.0
  0
LINE
  5
4CD
  8
1外形線
 10
290.74596410624451
 20
67.231724398163351
 30
0.0
 11
332.74596410624451
 21
67.231724398163578
 31
0.0
  0
LINE
  5
4CE
  8
1外形線
 10
290.74596410624451
 20
68.645937960536685
 30
0.0
 11
332.74596410624451
 21
68.645937960536457
 31
0.0
  0
LINE
  5
4CF
  8
1外形線
 10
290.74596410624451
 20
70.060151522909791
 30
0.0
 11
332.74596410624451
 21
70.060151522909791
 31
0.0
  0
LINE
  5
4D0
  8
1外形線
 10
290.74596410624463
 20
79.863474154995629
 30
0.0
 11
331.87993870246009
 21
79.863474154995401
 31
0.0
  0
LINE
  5
4D1
  8
1外形線
 10
290.74596410624451
 20
58.655932618663648
 30
0.0
 11
363.24596410624463
 21
58.655932618663648
 31
0.0
  0
LINE
  5
4D2
  8
1外形線
 10
334.74596410624468
 20
80.363474154995615
 30
0.0
 11
290.74596410624451
 21
80.363474154995615
 31
0.0
  0
LINE
  5
4D3
  8
1外形線
 10
290.74596410624451
 20
163.8634741549956
 30
0.0
 11
334.74596410624491
 21
163.86347415499509
 31
0.0
  0
LINE
  5
4D4
  8
1外形線
 10
334.74596410624463
 20
82.363474154995401
 30
0.0
 11
290.74596410624451
 21
82.363474154995629
 31
0.0
  0
LINE
  5
4D5
  8
1外形線
 10
334.7459641062448
 20
161.36347415499549
 30
0.0
 11
290.74596410624463
 21
161.3634741549956
 31
0.0
  0
LINE
  5
4D6
  8
1外形線
 10
363.24596410624463
 20
56.888165665697208
 30
0.0
 11
290.74596410624451
 21
56.888165665696981
 31
0.0
  0
LINE
  5
4D7
  8
1外形線
 10
246.74596410624429
 20
82.363474154995629
 30
0.0
 11
290.74596410624451
 21
82.363474154995629
 31
0.0
  0
LINE
  5
4D8
  8
1外形線
 10
246.7459641062442
 20
80.363474154995615
 30
0.0
 11
290.74596410624451
 21
80.363474154995615
 31
0.0
  0
LINE
  5
4D9
  8
1外形線
 10
290.7459641062444
 20
70.060151522909791
 30
0.0
 11
248.74596410624429
 21
70.060151522909791
 31
0.0
  0
LINE
  5
4DA
  8
1外形線
 10
290.7459641062444
 20
68.645937960536685
 30
0.0
 11
248.74596410624429
 21
68.645937960536685
 31
0.0
  0
LINE
  5
4DB
  8
1外形線
 10
290.7459641062444
 20
67.231724398163351
 30
0.0
 11
248.74596410624429
 21
67.231724398163578
 31
0.0
  0
LINE
  5
4DC
  8
1外形線
 10
290.7459641062444
 20
65.817510835790245
 30
0.0
 11
248.74596410624429
 21
65.817510835790245
 31
0.0
  0
LINE
  5
4DD
  8
1外形線
 10
290.7459641062444
 20
79.863474154995629
 30
0.0
 11
249.61198951002891
 21
79.863474154995629
 31
0.0
  0
LINE
  5
4DE
  8
1外形線
 10
290.74596410624463
 20
163.8634741549956
 30
0.0
 11
246.74596410624409
 21
163.8634741549952
 31
0.0
  0
LINE
  5
4DF
  8
1外形線
 10
246.7459641062442
 20
161.3634741549956
 30
0.0
 11
290.74596410624451
 21
161.3634741549956
 31
0.0
  0
LINE
  5
4E0
  8
1外形線
 10
236.38538219969621
 20
82.350816802127838
 30
0.0
 11
236.38538219969621
 21
58.655932618663883
 31
0.0
  0
LINE
  5
4E1
  8
1外形線
 10
248.74596410624429
 20
67.231724398163578
 30
0.0
 11
248.74596410624429
 21
65.817510835790245
 31
0.0
  0
LINE
  5
4E2
  8
1外形線
 10
248.74596410624429
 20
70.060151522909791
 30
0.0
 11
248.74596410624429
 21
68.645937960536685
 31
0.0
  0
LINE
  5
4E3
  8
1外形線
 10
249.61198951002891
 20
79.863474154995629
 30
0.0
 11
248.74596410624429
 21
80.363474154995615
 31
0.0
  0
LINE
  5
4E4
  8
1外形線
 10
362.74596410624463
 20
58.655932618663648
 30
0.0
 11
362.74596410624468
 21
128.3634741549954
 31
0.0
  0
LINE
  5
4E5
  8
1外形線
 10
353.24596410624468
 20
134.4325428119632
 30
0.0
 11
353.24596410624468
 21
90.548302434195435
 31
0.0
  0
LINE
  5
4E6
  8
1外形線
 10
359.74596410624468
 20
136.3634741549954
 30
0.0
 11
359.74596410624463
 21
107.3634741549951
 31
0.0
  0
LINE
  5
4E7
  8
1外形線
 10
345.10654601279282
 20
82.350816802127611
 30
0.0
 11
345.10654601279271
 21
58.655932618663648
 31
0.0
  0
LINE
  5
4E8
  8
1外形線
 10
332.74596410624451
 20
70.060151522909791
 30
0.0
 11
332.74596410624451
 21
68.645937960536457
 31
0.0
  0
LINE
  5
4E9
  8
1外形線
 10
332.74596410624451
 20
67.231724398163578
 30
0.0
 11
332.74596410624451
 21
65.817510835790245
 31
0.0
  0
LINE
  5
4EA
  8
1外形線
 10
331.87993870246009
 20
79.863474154995401
 30
0.0
 11
332.74596410624463
 21
80.363474154995615
 31
0.0
  0
LINE
  5
4EB
  8
1外形線
 10
354.03863951913411
 20
88.070798742105808
 30
0.0
 11
354.03863951913388
 21
58.655932618663648
 31
0.0
  0
LINE
  5
4EC
  8
1外形線
 10
360.2469519963343
 20
96.800619117008409
 30
0.0
 11
360.24695199633419
 21
58.655932618663648
 31
0.0
  0
LINE
  5
4ED
  8
1外形線
 10
363.24596410624463
 20
56.888165665697208
 30
0.0
 11
363.24596410624463
 21
58.655932618663648
 31
0.0
  0
LINE
  5
4EE
  8
1外形線
 10
353.2459641062448
 20
153.1786458757957
 30
0.0
 11
353.24596410624468
 21
135.47489385551941
 31
0.0
  0
ARC
  5
4EF
  8
1外形線
 10
358.74596410624468
 20
116.24600933249
 30
0.0
 40
20.0
 50
87.182063401005863
 51
105.9620141628471
  0
ARC
  5
4F0
  8
1外形線
 10
358.74596410624468
 20
116.24600933249
 30
0.0
 40
19.0
 50
87.182063401005863
 51
106.8264488927409
  0
LINE
  5
4F1
  8
1外形線
 10
361.24596410624463
 20
133.3634741549954
 30
0.0
 11
359.8409765441325
 21
133.3634741549954
 31
0.0
  0
LINE
  5
4F2
  8
1外形線
 10
359.8409765441325
 20
133.3634741549954
 30
0.0
 11
359.74596410624468
 21
133.3634741549954
 31
0.0
  0
LINE
  5
4F3
  8
1外形線
 10
356.74596410624468
 20
136.14575807462251
 30
0.0
 11
356.74596410624468
 21
135.14045296018139
 31
0.0
  0
LINE
  5
4F4
  8
1外形線
 10
363.24596410624468
 20
128.3634741549954
 30
0.0
 11
361.24596410624463
 21
128.3634741549954
 31
0.0
  0
LINE
  5
4F5
  8
1外形線
 10
363.24596410624463
 20
135.36347415499509
 30
0.0
 11
363.24596410624468
 21
128.3634741549954
 31
0.0
  0
LINE
  5
4F6
  8
1外形線
 10
361.24596410624463
 20
133.3634741549954
 30
0.0
 11
361.24596410624463
 21
128.3634741549954
 31
0.0
  0
ARC
  5
4F7
  8
1外形線
 10
291.62464376320241
 20
324.85350127026959
 30
0.0
 40
25.0
 50
359.99999999999972
 51
90.0
  0
ARC
  5
4F8
  8
1外形線
 10
291.62464376320241
 20
305.85350127026959
 30
0.0
 40
28.0
 50
269.99999999999972
 51
359.99999999999972
  0
ARC
  5
4F9
  8
1外形線
 10
291.62464376320219
 20
304.85350127026959
 30
0.0
 40
25.0
 50
269.99999999999972
 51
359.99999999999972
  0
ARC
  5
4FA
  8
1外形線
 10
291.6246437632027
 20
323.85350127026942
 30
0.0
 40
28.5
 50
359.99999999999972
 51
89.999999999999389
  0
LINE
  5
4FB
  8
1外形線
 10
320.12464376320241
 20
253.8634741549958
 30
0.0
 11
266.62464376320241
 21
253.86347415499549
 31
0.0
  0
LINE
  5
4FC
  8
1外形線
 10
266.62464376320241
 20
255.6312411079621
 30
0.0
 11
320.12464376320241
 21
255.63124110796221
 31
0.0
  0
LINE
  5
4FD
  8
1外形線
 10
266.62464376320241
 20
263.30753795106432
 30
0.0
 11
245.12464376320241
 21
263.30753795106432
 31
0.0
  0
LINE
  5
4FE
  8
1外形線
 10
266.62464376320241
 20
264.72175151343748
 30
0.0
 11
245.12464376320241
 21
264.7217515134376
 31
0.0
  0
LINE
  5
4FF
  8
1外形線
 10
266.62464376320241
 20
266.13596507581059
 30
0.0
 11
245.12464376320241
 21
266.13596507581059
 31
0.0
  0
LINE
  5
500
  8
1外形線
 10
266.62464376320241
 20
267.5501786381837
 30
0.0
 11
245.12464376320241
 21
267.55017863818392
 31
0.0
  0
LINE
  5
501
  8
1外形線
 10
266.62464376320241
 20
277.35350127026959
 30
0.0
 11
245.99066916698669
 21
277.35350127026959
 31
0.0
  0
LINE
  5
502
  8
1外形線
 10
241.62464376320241
 20
277.85350127026959
 30
0.0
 11
266.62464376320241
 21
277.85350127026959
 31
0.0
  0
LINE
  5
503
  8
1外形線
 10
241.6246437632027
 20
279.85350127026959
 30
0.0
 11
266.62464376320241
 21
279.85350127026959
 31
0.0
  0
LINE
  5
504
  8
1外形線
 10
245.12464376320241
 20
267.55017863818392
 30
0.0
 11
245.12464376320241
 21
266.13596507581059
 31
0.0
  0
LINE
  5
505
  8
1外形線
 10
245.12464376320241
 20
264.7217515134376
 30
0.0
 11
245.12464376320241
 21
263.30753795106432
 31
0.0
  0
LINE
  5
506
  8
1外形線
 10
245.99066916698669
 20
277.35350127026959
 30
0.0
 11
245.12464376320241
 21
277.85350127026959
 31
0.0
  0
LINE
  5
507
  8
1外形線
 10
291.62464376320219
 20
279.85350127026959
 30
0.0
 11
266.62464376320241
 21
279.85350127026959
 31
0.0
  0
LINE
  5
508
  8
1外形線
 10
291.62464376320241
 20
277.85350127026959
 30
0.0
 11
266.62464376320241
 21
277.85350127026959
 31
0.0
  0
LINE
  5
509
  8
1外形線
 10
266.62464376320241
 20
277.35350127026959
 30
0.0
 11
287.25861835941811
 21
277.35350127026959
 31
0.0
  0
LINE
  5
50A
  8
1外形線
 10
266.62464376320241
 20
267.5501786381837
 30
0.0
 11
288.12464376320241
 21
267.55017863818392
 31
0.0
  0
LINE
  5
50B
  8
1外形線
 10
266.62464376320241
 20
266.13596507581059
 30
0.0
 11
288.12464376320241
 21
266.13596507581059
 31
0.0
  0
LINE
  5
50C
  8
1外形線
 10
266.62464376320241
 20
264.72175151343748
 30
0.0
 11
288.12464376320241
 21
264.7217515134376
 31
0.0
  0
LINE
  5
50D
  8
1外形線
 10
266.62464376320241
 20
263.30753795106432
 30
0.0
 11
288.12464376320241
 21
263.30753795106432
 31
0.0
  0
LINE
  5
50E
  8
1外形線
 10
288.12464376320241
 20
267.55017863818392
 30
0.0
 11
288.12464376320241
 21
266.13596507581059
 31
0.0
  0
LINE
  5
50F
  8
1外形線
 10
288.12464376320241
 20
264.7217515134376
 30
0.0
 11
288.12464376320241
 21
263.30753795106432
 31
0.0
  0
LINE
  5
510
  8
1外形線
 10
287.25861835941811
 20
277.35350127026959
 30
0.0
 11
288.12464376320241
 21
277.85350127026959
 31
0.0
  0
LINE
  5
511
  8
1外形線
 10
266.6246437632027
 20
352.35350127026959
 30
0.0
 11
241.62464376320219
 21
352.35350127026942
 31
0.0
  0
LINE
  5
512
  8
1外形線
 10
241.62464376320241
 20
349.85350127026959
 30
0.0
 11
266.62464376320241
 21
349.85350127026959
 31
0.0
  0
LINE
  5
513
  8
1外形線
 10
291.62464376320241
 20
349.85350127026959
 30
0.0
 11
266.62464376320241
 21
349.85350127026959
 31
0.0
  0
LINE
  5
514
  8
1外形線
 10
266.62464376320241
 20
352.35350127026959
 30
0.0
 11
291.62464376320293
 21
352.35350127026942
 31
0.0
  0
LINE
  5
515
  8
1外形線
 10
319.62464376320241
 20
255.63124110796221
 30
0.0
 11
319.62464376320258
 21
314.85350127026959
 31
0.0
  0
LINE
  5
516
  8
1外形線
 10
310.91731917609178
 20
285.56082585737579
 30
0.0
 11
310.91731917609178
 21
255.6312411079621
 31
0.0
  0
LINE
  5
517
  8
1外形線
 10
317.12563165329198
 20
294.2906462322772
 30
0.0
 11
317.12563165329198
 21
255.63124110796221
 31
0.0
  0
LINE
  5
518
  8
1外形線
 10
301.98522566975049
 20
279.84084391739958
 30
0.0
 11
301.98522566975032
 21
255.6312411079621
 31
0.0
  0
LINE
  5
519
  8
1外形線
 10
320.12464376320241
 20
253.8634741549958
 30
0.0
 11
320.12464376320241
 21
255.63124110796221
 31
0.0
  0
LINE
  5
51A
  8
1外形線
 10
310.1246437632027
 20
341.66867299106968
 30
0.0
 11
310.12464376320241
 21
288.03832954946949
 31
0.0
  0
ARC
  5
51B
  8
1外形線
 10
315.62464376320241
 20
302.73603644776421
 30
0.0
 40
20.0
 50
87.182063401005863
 51
105.9620141628471
  0
ARC
  5
51C
  8
1外形線
 10
315.62464376320241
 20
302.73603644776421
 30
0.0
 40
19.0
 50
87.182063401005863
 51
106.8264488927409
  0
LINE
  5
51D
  8
1外形線
 10
313.62464376320258
 20
322.63578518989658
 30
0.0
 11
313.62464376320258
 21
321.63048007545541
 31
0.0
  0
LINE
  5
51E
  8
1外形線
 10
316.62464376320241
 20
324.85350127026959
 30
0.0
 11
316.62464376320219
 21
304.85350127026959
 31
0.0
  0
LINE
  5
51F
  8
1外形線
 10
320.12464376320258
 20
314.85350127026959
 30
0.0
 11
318.12464376320241
 21
314.85350127026959
 31
0.0
  0
LINE
  5
520
  8
1外形線
 10
318.12464376320241
 20
319.85350127026948
 30
0.0
 11
318.12464376320241
 21
314.85350127026959
 31
0.0
  0
LINE
  5
521
  8
1外形線
 10
316.71965620109052
 20
319.85350127026948
 30
0.0
 11
316.6246437632027
 21
319.85350127026948
 31
0.0
  0
LINE
  5
522
  8
1外形線
 10
318.12464376320241
 20
319.85350127026948
 30
0.0
 11
316.71965620109052
 21
319.85350127026948
 31
0.0
  0
LINE
  5
523
  8
1外形線
 10
320.12464376320258
 20
323.85350127026942
 30
0.0
 11
320.12464376320258
 21
314.85350127026959
 31
0.0
  0
LINE
  5
524
  8
1外形線
 10
263.15647292092638
 20
655.81437132207236
 30
0.0
 11
263.15647292092729
 21
625.54022752681226
 31
0.0
  0
LINE
  5
525
  8
1外形線
 10
257.43602618091529
 20
651.00493485038805
 30
0.0
 11
257.43602618091597
 21
625.54022752681215
 31
0.0
  0
LINE
  5
526
  8
1外形線
 10
269.3888249667724
 20
625.54022752681135
 30
0.0
 11
269.38882496677252
 21
677.33028456563864
 31
0.0
  0
LINE
  5
527
  8
1外形線
 10
267.54658327847051
 20
662.91124905360243
 30
0.0
 11
267.54658327847159
 21
625.54022752681237
 31
0.0
  0
ARC
  5
528
  8
1外形線
 10
263.50332342004612
 20
508.27246057384519
 30
0.0
 40
23.0
 50
359.99999999999972
 51
90.000000000000185
  0
ARC
  5
529
  8
1外形線
 10
263.50332342004629
 20
507.27246057384502
 30
0.0
 40
26.5
 50
359.99999999999972
 51
89.999999999999588
  0
LINE
  5
52A
  8
1外形線
 10
280.00332342004629
 20
524.29588093280699
 30
0.0
 11
280.00332342004612
 21
475.24904021488311
 31
0.0
  0
LINE
  5
52B
  8
1外形線
 10
249.00332342004609
 20
444.1212682232362
 30
0.0
 11
290.00332342004612
 21
444.1212682232362
 31
0.0
  0
LINE
  5
52C
  8
1外形線
 10
290.00332342004612
 20
442.35350127026982
 30
0.0
 11
249.00332342004609
 21
442.35350127026959
 31
0.0
  0
ARC
  5
52D
  8
1外形線
 10
263.50332342004612
 20
492.27246057384508
 30
0.0
 40
26.0
 50
269.99999999999972
 51
359.99999999999972
  0
ARC
  5
52E
  8
1外形線
 10
263.50332342004612
 20
491.27246057384508
 30
0.0
 40
23.0
 50
269.99999999999972
 51
359.99999999999972
  0
LINE
  5
52F
  8
1外形線
 10
265.50332342004612
 20
455.96913794175941
 30
0.0
 11
265.50332342004612
 21
454.55492437938608
 31
0.0
  0
LINE
  5
530
  8
1外形線
 10
249.00332342004609
 20
451.72649725463981
 30
0.0
 11
265.50332342004612
 21
451.72649725463981
 31
0.0
  0
LINE
  5
531
  8
1外形線
 10
249.00332342004609
 20
453.14071081701292
 30
0.0
 11
265.50332342004612
 21
453.14071081701297
 31
0.0
  0
LINE
  5
532
  8
1外形線
 10
249.00332342004609
 20
454.55492437938608
 30
0.0
 11
265.50332342004612
 21
454.55492437938608
 31
0.0
  0
LINE
  5
533
  8
1外形線
 10
265.50332342004612
 20
453.14071081701297
 30
0.0
 11
265.50332342004612
 21
451.72649725463981
 31
0.0
  0
LINE
  5
534
  8
1外形線
 10
249.00332342004609
 20
455.9691379417593
 30
0.0
 11
265.50332342004612
 21
455.96913794175941
 31
0.0
  0
LINE
  5
535
  8
1外形線
 10
249.00332342004609
 20
465.77246057384508
 30
0.0
 11
264.50386566075821
 21
465.77246057384508
 31
0.0
  0
LINE
  5
536
  8
1外形線
 10
263.50332342004612
 20
466.27246057384508
 30
0.0
 11
249.00332342004609
 21
466.27246057384519
 31
0.0
  0
LINE
  5
537
  8
1外形線
 10
263.50332342004612
 20
468.27246057384502
 30
0.0
 11
249.00332342004609
 21
468.27246057384508
 31
0.0
  0
LINE
  5
538
  8
1外形線
 10
234.50332342004609
 20
466.27246057384508
 30
0.0
 11
249.00332342004631
 21
466.27246057384508
 31
0.0
  0
LINE
  5
539
  8
1外形線
 10
234.50332342004631
 20
468.27246057384508
 30
0.0
 11
249.00332342004631
 21
468.27246057384508
 31
0.0
  0
LINE
  5
53A
  8
1外形線
 10
249.00332342004609
 20
465.77246057384508
 30
0.0
 11
233.50278117933399
 21
465.77246057384508
 31
0.0
  0
LINE
  5
53B
  8
1外形線
 10
265.50332342004612
 20
466.34949778021371
 30
0.0
 11
264.50386566075821
 21
465.77246057384508
 31
0.0
  0
LINE
  5
53C
  8
1外形線
 10
289.50332342004612
 20
444.1212682232362
 30
0.0
 11
289.50332342004612
 21
500.27246057384502
 31
0.0
  0
LINE
  5
53D
  8
1外形線
 10
287.15546807492609
 20
481.47542147857803
 30
0.0
 11
287.15546807492609
 21
444.12126822323631
 31
0.0
  0
LINE
  5
53E
  8
1外形線
 10
281.38129936953499
 20
473.39448462435229
 30
0.0
 11
281.38129936953499
 21
444.12126822323631
 31
0.0
  0
LINE
  5
53F
  8
1外形線
 10
273.09846146850799
 20
468.10774816440278
 30
0.0
 11
273.09846146850799
 21
444.1212682232362
 31
0.0
  0
LINE
  5
540
  8
1外形線
 10
290.00332342004612
 20
442.35350127026982
 30
0.0
 11
290.00332342004612
 21
444.1212682232362
 31
0.0
  0
ARC
  5
541
  8
1外形線
 10
285.50332342004612
 20
488.1549957513397
 30
0.0
 40
19.0
 50
87.182063401005863
 51
106.8264488927409
  0
ARC
  5
542
  8
1外形線
 10
285.50332342004612
 20
488.1549957513397
 30
0.0
 40
20.0
 50
87.182063401005863
 51
105.9620141628471
  0
LINE
  5
543
  8
1外形線
 10
286.50332342004612
 20
508.27246057384508
 30
0.0
 11
286.50332342004612
 21
491.27246057384502
 31
0.0
  0
LINE
  5
544
  8
1外形線
 10
288.00332342004612
 20
505.27246057384502
 30
0.0
 11
286.59833585793422
 21
505.27246057384491
 31
0.0
  0
LINE
  5
545
  8
1外形線
 10
286.59833585793422
 20
505.27246057384502
 30
0.0
 11
286.50332342004629
 21
505.27246057384491
 31
0.0
  0
LINE
  5
546
  8
1外形線
 10
283.5033234200464
 20
508.05474449347213
 30
0.0
 11
283.5033234200464
 21
507.04943937903079
 31
0.0
  0
LINE
  5
547
  8
1外形線
 10
290.00332342004629
 20
507.27246057384491
 30
0.0
 11
290.00332342004612
 21
500.27246057384502
 31
0.0
  0
LINE
  5
548
  8
1外形線
 10
288.00332342004612
 20
505.27246057384502
 30
0.0
 11
288.00332342004612
 21
500.27246057384502
 31
0.0
  0
LINE
  5
549
  8
1外形線
 10
290.00332342004612
 20
500.27246057384502
 30
0.0
 11
288.00332342004612
 21
500.27246057384502
 31
0.0
  0
LINE
  5
54A
  8
1外形線
 10
269.8888249667724
 20
623.77246057384502
 30
0.0
 11
236.3888249667724
 21
623.77246057384491
 31
0.0
  0
LINE
  5
54B
  8
1外形線
 10
236.3888249667724
 20
625.54022752681135
 30
0.0
 11
269.8888249667724
 21
625.54022752681135
 31
0.0
  0
LINE
  5
54C
  8
1外形線
 10
249.00332342004609
 20
533.77246057384514
 30
0.0
 11
263.50332342004629
 21
533.77246057384502
 31
0.0
  0
LINE
  5
54D
  8
1外形線
 10
263.50332342004612
 20
531.27246057384514
 30
0.0
 11
249.00332342004609
 21
531.27246057384514
 31
0.0
  0
LINE
  5
54E
  8
1外形線
 10
234.50332342004631
 20
531.27246057384525
 30
0.0
 11
249.00332342004631
 21
531.27246057384514
 31
0.0
  0
LINE
  5
54F
  8
1外形線
 10
249.00332342004631
 20
533.77246057384514
 30
0.0
 11
234.50332342004609
 21
533.77246057384502
 31
0.0
  0
LINE
  5
550
  8
1外形線
 10
268.8888249667724
 20
625.54022752681135
 30
0.0
 11
269.3888249667724
 21
625.54022752681135
 31
0.0
  0
LINE
  5
551
  8
1外形線
 10
269.8888249667724
 20
623.77246057384502
 30
0.0
 11
269.8888249667724
 21
625.54022752681135
 31
0.0
  0
ARC
  5
552
  8
1外形線
 10
265.38882496677252
 20
665.21281974313308
 30
0.0
 40
19.0
 50
87.182063401005863
 51
106.8264488927406
  0
ARC
  5
553
  8
1外形線
 10
265.38882496677252
 20
665.21281974313308
 30
0.0
 40
20.0
 50
87.182063401005863
 51
105.9620141628471
  0
ARC
  5
554
  8
1外形線
 10
244.38882496677249
 20
684.33028456563852
 30
0.0
 40
22.0
 50
0.0
 51
90.0
  0
ARC
  5
555
  8
1外形線
 10
244.38882496677249
 20
683.33028456563864
 30
0.0
 40
25.5
 50
0.0
 51
90.0
  0
ARC
  5
556
  8
1外形線
 10
244.38882496677249
 20
671.33028456563852
 30
0.0
 40
22.0
 50
270.0
 51
0.0
  0
ARC
  5
557
  8
1外形線
 10
244.3888249667724
 20
672.33028456563852
 30
0.0
 40
25.0
 50
270.0
 51
359.99999999999852
  0
LINE
  5
558
  8
1外形線
 10
259.88882496677257
 20
699.76161490901575
 30
0.0
 11
259.88882496677257
 21
684.44170426616245
 31
0.0
  0
LINE
  5
559
  8
1外形線
 10
236.3888249667724
 20
649.33028456563852
 30
0.0
 11
244.38882496677249
 21
649.33028456563852
 31
0.0
  0
LINE
  5
55A
  8
1外形線
 10
245.38882496677229
 20
646.83028456563852
 30
0.0
 11
236.3888249667724
 21
646.83028456563852
 31
0.0
  0
LINE
  5
55B
  8
1外形線
 10
236.3888249667724
 20
647.33028456563852
 30
0.0
 11
244.3888249667724
 21
647.33028456563852
 31
0.0
  0
LINE
  5
55C
  8
1外形線
 10
236.3888249667724
 20
635.61274837117946
 30
0.0
 11
246.38882496677249
 21
635.61274837117946
 31
0.0
  0
LINE
  5
55D
  8
1外形線
 10
236.3888249667724
 20
637.0269619335528
 30
0.0
 11
246.38882496677249
 21
637.0269619335528
 31
0.0
  0
LINE
  5
55E
  8
1外形線
 10
236.3888249667724
 20
632.78432124643325
 30
0.0
 11
246.38882496677249
 21
632.78432124643325
 31
0.0
  0
LINE
  5
55F
  8
1外形線
 10
236.3888249667724
 20
634.19853480880647
 30
0.0
 11
246.38882496677249
 21
634.19853480880647
 31
0.0
  0
LINE
  5
560
  8
1外形線
 10
246.38882496677249
 20
637.0269619335528
 30
0.0
 11
246.38882496677249
 21
635.61274837117946
 31
0.0
  0
LINE
  5
561
  8
1外形線
 10
246.38882496677249
 20
634.19853480880647
 30
0.0
 11
246.38882496677249
 21
632.78432124643325
 31
0.0
  0
LINE
  5
562
  8
1外形線
 10
246.3888249667724
 20
647.45312948473952
 30
0.0
 11
245.38882496677229
 21
646.83028456563852
 31
0.0
  0
LINE
  5
563
  8
1外形線
 10
259.88882496677257
 20
683.39935322260635
 30
0.0
 11
259.88882496677229
 21
655.81437132207543
 31
0.0
  0
LINE
  5
564
  8
1外形線
 10
263.38882496677257
 20
685.11256848526557
 30
0.0
 11
263.38882496677257
 21
684.10726337082428
 31
0.0
  0
LINE
  5
565
  8
1外形線
 10
236.38882496677249
 20
706.33028456563852
 30
0.0
 11
244.3888249667724
 21
706.33028456563852
 31
0.0
  0
LINE
  5
566
  8
1外形線
 10
244.38882496677249
 20
708.83028456563864
 30
0.0
 11
236.38882496677249
 21
708.83028456563852
 31
0.0
  0
LINE
  5
567
  8
1外形線
 10
266.3888249667724
 20
684.33028456563864
 30
0.0
 11
266.3888249667724
 21
671.33028456563852
 31
0.0
  0
ARC
  5
568
  8
1外形線
 10
266.48383740466039
 20
681.33028456563864
 30
0.0
 40
1.0
 50
5.7105931374997843
 51
90.000000000001023
  0
LINE
  5
569
  8
1外形線
 10
269.8888249667724
 20
683.33028456563864
 30
0.0
 11
269.8888249667724
 21
677.33028456563864
 31
0.0
  0
LINE
  5
56A
  8
1外形線
 10
267.88882496677229
 20
682.33028456563852
 30
0.0
 11
266.48383740466028
 21
682.33028456563852
 31
0.0
  0
LINE
  5
56B
  8
1外形線
 10
266.48383740466028
 20
682.33028456563852
 30
0.0
 11
266.38882496677252
 21
682.33028456563864
 31
0.0
  0
LINE
  5
56C
  8
1外形線
 10
269.8888249667724
 20
677.33028456563864
 30
0.0
 11
267.88882496677229
 21
677.33028456563852
 31
0.0
  0
LINE
  5
56D
  8
1外形線
 10
267.47887459487032
 20
681.42978828465948
 30
0.0
 11
267.88882496677229
 21
677.33028456563852
 31
0.0
  0
LINE
  5
56E
  8
1外形線
 10
267.88882496677229
 20
682.33028456563852
 30
0.0
 11
267.88882496677229
 21
677.33028456563852
 31
0.0
  0
ENDSEC
  0
EOF
