  0
SECTION
  2
HEADER
  9
$ACADVER
  1
AC1015
  9
$ACADMAINTVER
 70
    20
  9
$DWGCODEPAGE
  3
ANSI_932
  9
$INSBASE
 10
0.0
 20
0.0
 30
0.0
  9
$EXTMIN
 10
22.67395119959724
 20
21.94910535517579
 30
-0.0015258207003583
  9
$EXTMAX
 10
350.2862557795438
 20
547.0780950771074
 30
0.0000000349246037
  9
$LIMMIN
 10
0.0
 20
0.0
  9
$LIMMAX
 10
420.0
 20
297.0
  9
$ORTHOMODE
 70
     1
  9
$REGENMODE
 70
     1
  9
$FILLMODE
 70
     1
  9
$QTEXTMODE
 70
     0
  9
$MIRRTEXT
 70
     1
  9
$LTSCALE
 40
1.0
  9
$ATTMODE
 70
     1
  9
$TEXTSIZE
 40
2.5
  9
$TRACEWID
 40
1.0
  9
$TEXTSTYLE
  7
STANDARD
  9
$CLAYER
  8
0
  9
$CELTYPE
  6
BYLAYER
  9
$CECOLOR
 62
   256
  9
$CELTSCALE
 40
1.0
  9
$DISPSILH
 70
     0
  9
$DIMSCALE
 40
1.0
  9
$DIMASZ
 40
2.5
  9
$DIMEXO
 40
0.625
  9
$DIMDLI
 40
3.75
  9
$DIMRND
 40
0.0
  9
$DIMDLE
 40
0.0
  9
$DIMEXE
 40
1.25
  9
$DIMTP
 40
0.0
  9
$DIMTM
 40
0.0
  9
$DIMTXT
 40
2.5
  9
$DIMCEN
 40
2.5
  9
$DIMTSZ
 40
0.0
  9
$DIMTOL
 70
     0
  9
$DIMLIM
 70
     0
  9
$DIMTIH
 70
     0
  9
$DIMTOH
 70
     0
  9
$DIMSE1
 70
     0
  9
$DIMSE2
 70
     0
  9
$DIMTAD
 70
     1
  9
$DIMZIN
 70
     8
  9
$DIMBLK
  1

  9
$DIMASO
 70
     1
  9
$DIMSHO
 70
     1
  9
$DIMPOST
  1

  9
$DIMAPOST
  1

  9
$DIMALT
 70
     0
  9
$DIMALTD
 70
     3
  9
$DIMALTF
 40
0.03937007874016
  9
$DIMLFAC
 40
1.0
  9
$DIMTOFL
 70
     1
  9
$DIMTVP
 40
0.0
  9
$DIMTIX
 70
     0
  9
$DIMSOXD
 70
     0
  9
$DIMSAH
 70
     0
  9
$DIMBLK1
  1

  9
$DIMBLK2
  1

  9
$DIMSTYLE
  2
ISO-25
  9
$DIMCLRD
 70
     0
  9
$DIMCLRE
 70
     0
  9
$DIMCLRT
 70
     0
  9
$DIMTFAC
 40
1.0
  9
$DIMGAP
 40
0.625
  9
$DIMJUST
 70
     0
  9
$DIMSD1
 70
     0
  9
$DIMSD2
 70
     0
  9
$DIMTOLJ
 70
     0
  9
$DIMTZIN
 70
     8
  9
$DIMALTZ
 70
     0
  9
$DIMALTTZ
 70
     0
  9
$DIMUPT
 70
     0
  9
$DIMDEC
 70
     2
  9
$DIMTDEC
 70
     2
  9
$DIMALTU
 70
     2
  9
$DIMALTTD
 70
     3
  9
$DIMTXSTY
  7
STANDARD
  9
$DIMAUNIT
 70
     0
  9
$DIMADEC
 70
     0
  9
$DIMALTRND
 40
0.0
  9
$DIMAZIN
 70
     0
  9
$DIMDSEP
 70
    46
  9
$DIMATFIT
 70
     3
  9
$DIMFRAC
 70
     0
  9
$DIMLDRBLK
  1

  9
$DIMLUNIT
 70
     2
  9
$DIMLWD
 70
    -2
  9
$DIMLWE
 70
    -2
  9
$DIMTMOVE
 70
     0
  9
$LUNITS
 70
     2
  9
$LUPREC
 70
     4
  9
$SKETCHINC
 40
1.0
  9
$FILLETRAD
 40
10.0
  9
$AUNITS
 70
     0
  9
$AUPREC
 70
     0
  9
$MENU
  1
.
  9
$ELEVATION
 40
0.0
  9
$PELEVATION
 40
0.0
  9
$THICKNESS
 40
0.0
  9
$LIMCHECK
 70
     0
  9
$CHAMFERA
 40
10.0
  9
$CHAMFERB
 40
10.0
  9
$CHAMFERC
 40
20.0
  9
$CHAMFERD
 40
0.0
  9
$SKPOLY
 70
     0
  9
$TDCREATE
 40
2452216.483357847
  9
$TDUCREATE
 40
2452216.108357847
  9
$TDUPDATE
 40
2455502.675850741
  9
$TDUUPDATE
 40
2455502.300850741
  9
$TDINDWG
 40
0.0018271181
  9
$TDUSRTIMER
 40
0.0018268287
  9
$USRTIMER
 70
     1
  9
$ANGBASE
 50
0.0
  9
$ANGDIR
 70
     0
  9
$PDMODE
 70
     0
  9
$PDSIZE
 40
0.0
  9
$PLINEWID
 40
0.0
  9
$SPLFRAME
 70
     0
  9
$SPLINETYPE
 70
     6
  9
$SPLINESEGS
 70
     8
  9
$HANDSEED
  5
767
  9
$SURFTAB1
 70
     6
  9
$SURFTAB2
 70
     6
  9
$SURFTYPE
 70
     6
  9
$SURFU
 70
     6
  9
$SURFV
 70
     6
  9
$UCSBASE
  2

  9
$UCSNAME
  2

  9
$UCSORG
 10
0.0
 20
0.0
 30
0.0
  9
$UCSXDIR
 10
1.0
 20
0.0
 30
0.0
  9
$UCSYDIR
 10
0.0
 20
1.0
 30
0.0
  9
$UCSORTHOREF
  2

  9
$UCSORTHOVIEW
 70
     0
  9
$UCSORGTOP
 10
0.0
 20
0.0
 30
0.0
  9
$UCSORGBOTTOM
 10
0.0
 20
0.0
 30
0.0
  9
$UCSORGLEFT
 10
0.0
 20
0.0
 30
0.0
  9
$UCSORGRIGHT
 10
0.0
 20
0.0
 30
0.0
  9
$UCSORGFRONT
 10
0.0
 20
0.0
 30
0.0
  9
$UCSORGBACK
 10
0.0
 20
0.0
 30
0.0
  9
$PUCSBASE
  2

  9
$PUCSNAME
  2

  9
$PUCSORG
 10
0.0
 20
0.0
 30
0.0
  9
$PUCSXDIR
 10
1.0
 20
0.0
 30
0.0
  9
$PUCSYDIR
 10
0.0
 20
1.0
 30
0.0
  9
$PUCSORTHOREF
  2

  9
$PUCSORTHOVIEW
 70
     0
  9
$PUCSORGTOP
 10
0.0
 20
0.0
 30
0.0
  9
$PUCSORGBOTTOM
 10
0.0
 20
0.0
 30
0.0
  9
$PUCSORGLEFT
 10
0.0
 20
0.0
 30
0.0
  9
$PUCSORGRIGHT
 10
0.0
 20
0.0
 30
0.0
  9
$PUCSORGFRONT
 10
0.0
 20
0.0
 30
0.0
  9
$PUCSORGBACK
 10
0.0
 20
0.0
 30
0.0
  9
$USERI1
 70
     0
  9
$USERI2
 70
     0
  9
$USERI3
 70
     0
  9
$USERI4
 70
     0
  9
$USERI5
 70
     0
  9
$USERR1
 40
0.0
  9
$USERR2
 40
0.0
  9
$USERR3
 40
0.0
  9
$USERR4
 40
0.0
  9
$USERR5
 40
0.0
  9
$WORLDVIEW
 70
     1
  9
$SHADEDGE
 70
     3
  9
$SHADEDIF
 70
    70
  9
$TILEMODE
 70
     1
  9
$MAXACTVP
 70
    64
  9
$PINSBASE
 10
0.0
 20
0.0
 30
0.0
  9
$PLIMCHECK
 70
     0
  9
$PEXTMIN
 10
1.000000000000000E+20
 20
1.000000000000000E+20
 30
1.000000000000000E+20
  9
$PEXTMAX
 10
-1.000000000000000E+20
 20
-1.000000000000000E+20
 30
-1.000000000000000E+20
  9
$PLIMMIN
 10
0.0
 20
0.0
  9
$PLIMMAX
 10
420.0
 20
297.0
  9
$UNITMODE
 70
     0
  9
$VISRETAIN
 70
     1
  9
$PLINEGEN
 70
     0
  9
$PSLTSCALE
 70
     1
  9
$TREEDEPTH
 70
  3020
  9
$CMLSTYLE
  2
STANDARD
  9
$CMLJUST
 70
     0
  9
$CMLSCALE
 40
20.0
  9
$PROXYGRAPHICS
 70
     1
  9
$MEASUREMENT
 70
     1
  9
$CELWEIGHT
370
    -1
  9
$ENDCAPS
280
     0
  9
$JOINSTYLE
280
     0
  9
$LWDISPLAY
290
     0
  9
$INSUNITS
 70
     4
  9
$HYPERLINKBASE
  1

  9
$STYLESHEET
  1

  9
$XEDIT
290
     1
  9
$CEPSNTYPE
380
     0
  9
$PSTYLEMODE
290
     1
  9
$FINGERPRINTGUID
  2
{2D5E288E-5EEC-48B6-882D-67CCBBAA5F6A}
  9
$VERSIONGUID
  2
{AB7B08B7-2013-4F2F-8918-98D2FC572C94}
  9
$EXTNAMES
290
     1
  9
$PSVPSCALE
 40
0.0
  9
$OLESTARTUP
290
     0
  0
ENDSEC
  0
SECTION
  2
CLASSES
  0
CLASS
  1
ACDBDICTIONARYWDFLT
  2
AcDbDictionaryWithDefault
  3
ObjectDBX Classes
 90
        0
280
     0
281
     0
  0
CLASS
  1
ACDBPLACEHOLDER
  2
AcDbPlaceHolder
  3
ObjectDBX Classes
 90
        0
280
     0
281
     0
  0
CLASS
  1
LAYOUT
  2
AcDbLayout
  3
ObjectDBX Classes
 90
        0
280
     0
281
     0
  0
CLASS
  1
TABLESTYLE
  2
AcDbTableStyle
  3
ObjectDBX Classes
 90
     2047
280
     0
281
     0
  0
CLASS
  1
DICTIONARYVAR
  2
AcDbDictionaryVar
  3
ObjectDBX Classes
 90
        0
280
     0
281
     0
  0
ENDSEC
  0
SECTION
  2
TABLES
  0
TABLE
  2
VPORT
  5
8
330
0
100
AcDbSymbolTable
 70
     2
  0
VPORT
  5
761
330
8
100
AcDbSymbolTableRecord
100
AcDbViewportTableRecord
  2
*Active
 70
     0
 10
0.0
 20
0.0
 11
1.0
 21
1.0
 12
186.4801034895705
 22
284.5136002161416
 13
0.0
 23
0.0
 14
10.0
 24
10.0
 15
10.0
 25
10.0
 16
0.0
 26
0.0
 36
1.0
 17
0.0
 27
0.0
 37
0.0
 40
529.2911745810222
 41
1.617724867724867
 42
50.0
 43
0.0
 44
0.0
 50
0.0
 51
0.0
 71
     0
 72
   100
 73
     1
 74
     3
 75
     0
 76
     0
 77
     0
 78
     0
281
     0
 65
     1
110
0.0
120
0.0
130
0.0
111
1.0
121
0.0
131
0.0
112
0.0
122
1.0
132
0.0
 79
     0
146
0.0
  0
ENDTAB
  0
TABLE
  2
LTYPE
  5
5
330
0
100
AcDbSymbolTable
 70
     1
  0
LTYPE
  5
14
330
5
100
AcDbSymbolTableRecord
100
AcDbLinetypeTableRecord
  2
BYBLOCK
 70
     0
  3

 72
    65
 73
     0
 40
0.0
  0
LTYPE
  5
15
330
5
100
AcDbSymbolTableRecord
100
AcDbLinetypeTableRecord
  2
BYLAYER
 70
     0
  3

 72
    65
 73
     0
 40
0.0
  0
LTYPE
  5
16
330
5
100
AcDbSymbolTableRecord
100
AcDbLinetypeTableRecord
  2
CONTINUOUS
 70
     0
  3
Solid line
 72
    65
 73
     0
 40
0.0
  0
ENDTAB
  0
TABLE
  2
LAYER
  5
2
330
0
100
AcDbSymbolTable
 70
     2
  0
LAYER
  5
10
330
2
100
AcDbSymbolTableRecord
100
AcDbLayerTableRecord
  2
0
 70
     0
 62
     7
  6
CONTINUOUS
370
    -3
390
F
  0
LAYER
  5
33
330
2
100
AcDbSymbolTableRecord
100
AcDbLayerTableRecord
  2
1外形線
 70
     0
 62
     3
  6
CONTINUOUS
370
    -3
390
F
  0
ENDTAB
  0
TABLE
  2
STYLE
  5
3
330
0
100
AcDbSymbolTable
 70
     2
  0
STYLE
  5
11
330
3
100
AcDbSymbolTableRecord
100
AcDbTextStyleTableRecord
  2
STANDARD
 70
     0
 40
0.0
 41
1.0
 50
0.0
 71
     0
 42
2.5
  3
txt
  4

  0
STYLE
  5
34
330
3
100
AcDbSymbolTableRecord
100
AcDbTextStyleTableRecord
  2
KANJI
 70
     0
 40
0.0
 41
1.0
 50
0.0
 71
     0
 42
2.5
  3
simplex.shx
  4
extfont.shx
  0
ENDTAB
  0
TABLE
  2
VIEW
  5
6
330
0
100
AcDbSymbolTable
 70
     0
  0
ENDTAB
  0
TABLE
  2
UCS
  5
7
330
0
100
AcDbSymbolTable
 70
     0
  0
ENDTAB
  0
TABLE
  2
APPID
  5
9
330
0
100
AcDbSymbolTable
 70
     1
  0
APPID
  5
12
330
9
100
AcDbSymbolTableRecord
100
AcDbRegAppTableRecord
  2
ACAD
 70
     0
  0
ENDTAB
  0
TABLE
  2
DIMSTYLE
  5
A
330
0
100
AcDbSymbolTable
 70
     2
100
AcDbDimStyleTable
 71
     0
  0
DIMSTYLE
105
27
330
A
100
AcDbSymbolTableRecord
100
AcDbDimStyleTableRecord
  2
ISO-25
 70
     0
 41
2.5
 42
0.625
 43
3.75
 44
1.25
 73
     0
 74
     0
 77
     1
 78
     8
140
2.5
141
2.5
143
0.03937007874016
147
0.625
171
     3
172
     1
271
     2
272
     2
274
     3
283
     0
284
     8
340
11
  0
DIMSTYLE
105
35
330
A
100
AcDbSymbolTableRecord
100
AcDbDimStyleTableRecord
  2
STANDARD
 70
     0
340
11
  0
ENDTAB
  0
TABLE
  2
BLOCK_RECORD
  5
1
330
0
100
AcDbSymbolTable
 70
     1
  0
BLOCK_RECORD
  5
1F
102
{ACAD_XDICTIONARY
360
74E
102
}
330
1
100
AcDbSymbolTableRecord
100
AcDbBlockTableRecord
  2
*MODEL_SPACE
340
75A
  0
BLOCK_RECORD
  5
1B
102
{ACAD_XDICTIONARY
360
74C
102
}
330
1
100
AcDbSymbolTableRecord
100
AcDbBlockTableRecord
  2
*PAPER_SPACE
340
75B
  0
BLOCK_RECORD
  5
2B
330
1
100
AcDbSymbolTableRecord
100
AcDbBlockTableRecord
  2
2
340
0
  0
ENDTAB
  0
ENDSEC
  0
SECTION
  2
BLOCKS
  0
BLOCK
  5
20
330
1F
100
AcDbEntity
  8
0
100
AcDbBlockBegin
  2
*MODEL_SPACE
 70
     0
 10
0.0
 20
0.0
 30
0.0
  3
*MODEL_SPACE
  1

  0
ENDBLK
  5
21
330
1F
100
AcDbEntity
  8
0
100
AcDbBlockEnd
  0
BLOCK
  5
1C
330
1B
100
AcDbEntity
 67
     1
  8
0
100
AcDbBlockBegin
  2
*PAPER_SPACE
 70
     0
 10
0.0
 20
0.0
 30
0.0
  3
*PAPER_SPACE
  1

  0
ENDBLK
  5
1D
330
1B
100
AcDbEntity
 67
     1
  8
0
100
AcDbBlockEnd
  0
BLOCK
  5
31
330
2B
100
AcDbEntity
  8
0
 48
3.0
100
AcDbBlockBegin
  2
2
 70
     0
 10
0.0
 20
0.0
 30
0.0
  3
2
  1

  0
HATCH
  5
2C
330
2B
100
AcDbEntity
  8
0
 48
3.0
100
AcDbHatch
 10
0.0
 20
0.0
 30
0.0
210
0.0
220
0.0
230
1.0
  2
SOLID
 70
     1
 71
     1
 91
        1
 92
        7
 72
     0
 73
     1
 93
        3
 10
0.0000000000000284
 20
0.0
 10
-0.899999999998343
 20
0.2411542731875897
 10
-0.8999999999983572
 20
-0.2411542731875613
 97
        3
330
2F
330
2D
330
30
 75
     0
 76
     1
 47
0.0028941747346077
 98
        1
 10
-0.5303136156475148
 20
-0.0796654556697263
  0
LINE
  5
2D
102
{ACAD_REACTORS
330
2C
102
}
330
2B
100
AcDbEntity
  8
0
 48
3.0
100
AcDbLine
 10
-0.8999999999983572
 20
0.2411542731879876
 30
0.0
 11
-0.8999999999983572
 21
-0.2411542731880445
 31
0.0
  0
LINE
  5
2E
330
2B
100
AcDbEntity
  8
0
 48
3.0
100
AcDbLine
 10
-0.9999999999983517
 20
0.0
 30
0.0
 11
0.0
 21
0.0
 31
0.0
  0
LINE
  5
2F
102
{ACAD_REACTORS
330
2C
102
}
330
2B
100
AcDbEntity
  8
0
 48
3.0
100
AcDbLine
 10
-0.8999999999984423
 20
0.2411542731875897
 30
0.0
 11
0.0
 21
0.0
 31
0.0
  0
LINE
  5
30
102
{ACAD_REACTORS
330
2C
102
}
330
2B
100
AcDbEntity
  8
0
 48
3.0
100
AcDbLine
 10
-0.8999999999984423
 20
-0.2411542731875897
 30
0.0
 11
0.0
 21
0.0
 31
0.0
  0
ENDBLK
  5
32
330
2B
100
AcDbEntity
  8
0
 48
3.0
100
AcDbBlockEnd
  0
ENDSEC
  0
SECTION
  2
ENTITIES
  0
TEXT
  5
3B3
330
1F
100
AcDbEntity
  8
1外形線
 48
3.0
100
AcDbText
 10
72.67848595355566
 20
259.1674543830882
 30
0.0
 40
10.0
  1
SDR140-100
  7
KANJI
100
AcDbText
  0
TEXT
  5
3B4
330
1F
100
AcDbEntity
  8
1外形線
 48
3.0
100
AcDbText
 10
72.67848595355566
 20
517.0600366979278
 30
0.0
 40
10.0
  1
SDR100-77
  7
KANJI
100
AcDbText
  0
LINE
  5
3B7
330
1F
100
AcDbEntity
  8
1外形線
 48
3.0
100
AcDbLine
 10
22.67848564897701
 20
21.96745415318463
 30
0.0
 11
350.278485648977
 21
21.96745415318463
 31
0.0
  0
LINE
  5
3B8
330
1F
100
AcDbEntity
  8
1外形線
 48
3.0
100
AcDbLine
 10
22.67848564897701
 20
289.1674541531846
 30
0.0
 11
350.278485648977
 21
289.1674541531846
 31
0.0
  0
LINE
  5
3B9
330
1F
100
AcDbEntity
  8
1外形線
 48
3.0
100
AcDbLine
 10
22.67848564897701
 20
547.0600364680241
 30
0.0
 11
350.278485648977
 21
547.0600364680241
 31
0.0
  0
LINE
  5
3C1
330
1F
100
AcDbEntity
  8
1外形線
100
AcDbLine
 10
131.478485648977
 20
53.56745415318467
 30
0.0
 11
117.2784856489769
 21
53.56745415318467
 31
0.0
  0
LINE
  5
3C2
330
1F
100
AcDbEntity
  8
1外形線
100
AcDbLine
 10
102.3738204332595
 20
55.16745415318458
 30
0.0
 11
131.478485648977
 21
55.16745415318458
 31
0.0
  0
LINE
  5
3C3
330
1F
100
AcDbEntity
  8
1外形線
100
AcDbLine
 10
131.478485648977
 20
51.96745415318464
 30
0.0
 11
95.07848564897699
 21
51.96745415318464
 31
0.0
  0
LINE
  5
3C4
330
1F
100
AcDbEntity
  8
1外形線
100
AcDbLine
 10
95.07848564897699
 20
118.3674541531846
 30
0.0
 11
131.478485648977
 21
118.3674541531846
 31
0.0
  0
LINE
  5
3C5
330
1F
100
AcDbEntity
  8
1外形線
100
AcDbLine
 10
131.478485648977
 20
119.1674541531845
 30
0.0
 11
95.07848564897699
 21
119.1674541531845
 31
0.0
  0
LINE
  5
3C6
330
1F
100
AcDbEntity
  8
1外形線
100
AcDbLine
 10
110.278485648977
 20
111.9674541531846
 30
0.0
 11
131.478485648977
 21
111.9674541531846
 31
0.0
  0
LINE
  5
3C7
330
1F
100
AcDbEntity
  8
1外形線
100
AcDbLine
 10
111.478485648977
 20
109.5674541531846
 30
0.0
 11
131.478485648977
 21
109.5674541531846
 31
0.0
  0
LINE
  5
3C8
330
1F
100
AcDbEntity
  8
1外形線
100
AcDbLine
 10
174.2784856489768
 20
168.4564581842619
 30
0.0
 11
88.67848564897713
 21
168.4564581842614
 31
0.0
  0
LINE
  5
3C9
330
1F
100
AcDbEntity
  8
1外形線
100
AcDbLine
 10
131.478485648977
 20
152.3674541531845
 30
0.0
 11
88.67848564897702
 21
152.3674541531845
 31
0.0
  0
LINE
  5
3CA
330
1F
100
AcDbEntity
  8
1外形線
100
AcDbLine
 10
88.67848564897702
 20
149.1674541531845
 30
0.0
 11
131.478485648977
 21
149.1674541531845
 31
0.0
  0
LINE
  5
3CB
330
1F
100
AcDbEntity
  8
1外形線
100
AcDbLine
 10
131.478485648977
 20
229.1674541531846
 30
0.0
 11
73.47848564897708
 21
229.1674541531846
 31
0.0
  0
LINE
  5
3CC
330
1F
100
AcDbEntity
  8
1外形線
100
AcDbLine
 10
73.47848564897708
 20
225.9674541531846
 30
0.0
 11
131.478485648977
 21
225.9674541531846
 31
0.0
  0
LINE
  5
3CD
330
1F
100
AcDbEntity
  8
1外形線
100
AcDbLine
 10
189.4784856489769
 20
196.456458184263
 30
0.0
 11
73.47848564897708
 21
196.4564581842628
 31
0.0
  0
LINE
  5
3CE
330
1F
100
AcDbEntity
  8
1外形線
100
AcDbLine
 10
102.5133342590652
 20
323.1674541531846
 30
0.0
 11
127.178485648977
 21
323.1674541531846
 31
0.0
  0
LINE
  5
3CF
330
1F
100
AcDbEntity
  8
1外形線
100
AcDbLine
 10
97.67848564897697
 20
319.1674541531846
 30
0.0
 11
127.1784856489769
 21
319.1674541531846
 31
0.0
  0
LINE
  5
3D0
330
1F
100
AcDbEntity
  8
1外形線
100
AcDbLine
 10
127.178485648977
 20
382.1674541531847
 30
0.0
 11
113.6784910437734
 21
382.1674541531847
 31
0.0
  0
LINE
  5
3D1
330
1F
100
AcDbEntity
  8
1外形線
100
AcDbLine
 10
113.5509990372764
 20
385.1674541531847
 30
0.0
 11
127.178485648977
 21
385.1674541531847
 31
0.0
  0
LINE
  5
3D2
330
1F
100
AcDbEntity
  8
1外形線
100
AcDbLine
 10
100.678485648977
 20
393.1674541531847
 30
0.0
 11
127.178485648977
 21
393.1674541531847
 31
0.0
  0
LINE
  5
3D3
330
1F
100
AcDbEntity
  8
1外形線
100
AcDbLine
 10
127.178485648977
 20
394.1674541531847
 30
0.0
 11
100.6784856489769
 21
394.1674541531847
 31
0.0
  0
LINE
  5
3D4
330
1F
100
AcDbEntity
  8
1外形線
100
AcDbLine
 10
125.928485648977
 20
417.5600364680239
 30
0.0
 11
128.428485648977
 21
417.5600364680239
 31
0.0
  0
LINE
  5
3D5
330
1F
100
AcDbEntity
  8
1外形線
100
AcDbLine
 10
128.428485648977
 20
417.5600364680239
 30
0.0
 11
125.928485648977
 21
417.5600364680239
 31
0.0
  0
LINE
  5
3D6
330
1F
100
AcDbEntity
  8
1外形線
100
AcDbLine
 10
86.17848564897702
 20
441.0562496755915
 30
0.0
 11
127.1372355276531
 21
441.0562496755915
 31
0.0
  0
LINE
  5
3D7
330
1F
100
AcDbEntity
  8
1外形線
100
AcDbLine
 10
127.178485648977
 20
421.0600364680241
 30
0.0
 11
86.17848564897702
 21
421.0600364680241
 31
0.0
  0
LINE
  5
3D8
330
1F
100
AcDbEntity
  8
1外形線
100
AcDbLine
 10
86.17848564897702
 20
425.0600364680241
 30
0.0
 11
127.178485648977
 21
425.0600364680241
 31
0.0
  0
LINE
  5
3D9
330
1F
100
AcDbEntity
  8
1外形線
100
AcDbLine
 10
127.178485648977
 20
487.0600364680241
 30
0.0
 11
73.67848564897702
 21
487.0600364680241
 31
0.0
  0
LINE
  5
3DA
330
1F
100
AcDbEntity
  8
1外形線
100
AcDbLine
 10
73.67848564897702
 20
483.0600364680241
 30
0.0
 11
127.178485648977
 21
483.0600364680241
 31
0.0
  0
LINE
  5
3DB
330
1F
100
AcDbEntity
  8
1外形線
100
AcDbLine
 10
73.67848564897702
 20
461.0562496755918
 30
0.0
 11
127.4847071378636
 21
461.0562496755918
 31
0.0
  0
LINE
  5
3E2
330
1F
100
AcDbEntity
  8
1外形線
 48
3.0
100
AcDbLine
 10
22.67848564897701
 20
547.0600364680241
 30
0.0
 11
22.67848564897701
 21
21.96745415318457
 31
0.0
  0
LINE
  5
3E3
330
1F
100
AcDbEntity
  8
1外形線
100
AcDbLine
 10
88.67848564897713
 20
168.4564581842617
 30
0.0
 11
88.67848564897713
 21
152.3674541531845
 31
0.0
  0
LINE
  5
3E4
330
1F
100
AcDbEntity
  8
1外形線
100
AcDbLine
 10
94.72213646287263
 20
152.3674541531845
 30
0.0
 11
94.72213646287263
 21
168.4564581842615
 31
0.0
  0
LINE
  5
3E5
330
1F
100
AcDbEntity
  8
1外形線
100
AcDbLine
 10
95.29315949303304
 20
152.3674541531845
 30
0.0
 11
95.29315949303304
 21
168.4564581842615
 31
0.0
  0
LINE
  5
3E6
330
1F
100
AcDbEntity
  8
1外形線
100
AcDbLine
 10
101.6409290838046
 20
152.3674541531845
 30
0.0
 11
101.6409290838046
 21
168.4564581842615
 31
0.0
  0
LINE
  5
3E7
330
1F
100
AcDbEntity
  8
1外形線
100
AcDbLine
 10
102.3870066271038
 20
152.3674541531845
 30
0.0
 11
102.3870066271038
 21
168.4564581842615
 31
0.0
  0
LINE
  5
3E8
330
1F
100
AcDbEntity
  8
1外形線
100
AcDbLine
 10
89.95313593372634
 20
152.3674541531845
 30
0.0
 11
89.95313593372634
 21
168.4564581842615
 31
0.0
  0
LINE
  5
3E9
330
1F
100
AcDbEntity
  8
1外形線
100
AcDbLine
 10
90.48069242388692
 20
152.3674541531845
 30
0.0
 11
90.48069242388692
 21
168.4564581842615
 31
0.0
  0
LINE
  5
3EA
330
1F
100
AcDbEntity
  8
1外形線
100
AcDbLine
 10
87.18700662710148
 20
53.46062549107871
 30
0.0
 11
100.9060766619958
 21
53.22217440285097
 31
0.0
  0
LINE
  5
3EB
330
1F
100
AcDbEntity
  8
1外形線
100
AcDbLine
 10
86.44092908380299
 20
53.76966092809468
 30
0.0
 11
100.1591084509311
 21
53.51721795756129
 31
0.0
  0
LINE
  5
3EC
330
1F
100
AcDbEntity
  8
1外形線
100
AcDbLine
 10
91.47848564897707
 20
83.16745415318456
 30
0.0
 11
93.078485648977
 21
83.16745415318456
 31
0.0
  0
LINE
  5
3ED
330
1F
100
AcDbEntity
  8
1外形線
100
AcDbLine
 10
91.47848564897707
 20
85.56745415318465
 30
0.0
 11
93.078485648977
 21
85.56745415318465
 31
0.0
  0
LINE
  5
3EE
330
1F
100
AcDbEntity
  8
1外形線
100
AcDbLine
 10
80.09315949303459
 20
58.01110496707936
 30
0.0
 11
94.59089745548068
 21
57.0195446003392
 31
0.0
  0
LINE
  5
3EF
330
1F
100
AcDbEntity
  8
1外形線
100
AcDbLine
 10
79.52213646287294
 20
58.58212799724089
 30
0.0
 11
94.01919273772069
 21
57.54802281904353
 31
0.0
  0
ARC
  5
3F0
330
1F
100
AcDbEntity
  8
1外形線
100
AcDbCircle
 10
95.07848564897694
 20
73.56745415318474
 30
0.0
 40
21.6
100
AcDbArc
 50
180.0
 51
270.0
  0
ARC
  5
3F1
330
1F
100
AcDbEntity
  8
1外形線
100
AcDbCircle
 10
95.07848564897694
 20
74.36745415318469
 30
0.0
 40
22.4
100
AcDbArc
 50
180.0
 51
270.0
  0
ARC
  5
3F2
330
1F
100
AcDbEntity
  8
1外形線
100
AcDbCircle
 10
107.878485648977
 20
71.96745415318471
 30
0.0
 40
20.0
100
AcDbArc
 50
180.0
 51
270.0
  0
ARC
  5
3F3
330
1F
100
AcDbEntity
  8
1外形線
100
AcDbCircle
 10
109.8784856489769
 20
71.96745415318471
 30
0.0
 40
18.4
100
AcDbArc
 50
180.0
 51
270.0
  0
LINE
  5
3F4
330
1F
100
AcDbEntity
  8
1外形線
100
AcDbLine
 10
87.18700662710148
 20
116.8742828152909
 30
0.0
 11
102.3870066271038
 21
110.5313411698455
 31
0.0
  0
LINE
  5
3F5
330
1F
100
AcDbEntity
  8
1外形線
100
AcDbLine
 10
86.4409290838031
 20
116.5652473782748
 30
0.0
 11
101.6409290838042
 21
110.2351249601102
 31
0.0
  0
ARC
  5
3F6
330
1F
100
AcDbEntity
  8
1外形線
100
AcDbCircle
 10
111.478485648977
 20
89.5674541531847
 30
0.0
 40
20.0
100
AcDbArc
 50
90.0
 51
180.0
  0
ARC
  5
3F7
330
1F
100
AcDbEntity
  8
1外形線
100
AcDbCircle
 10
110.2784856489769
 20
89.5674541531847
 30
0.0
 40
22.4
100
AcDbArc
 50
90.0
 51
180.0
  0
LINE
  5
3F8
330
1F
100
AcDbEntity
  8
1外形線
100
AcDbLine
 10
85.89969842386642
 20
109.9908640175056
 30
0.0
 11
95.2931594930318
 21
106.2167784637966
 31
0.0
  0
LINE
  5
3F9
330
1F
100
AcDbEntity
  8
1外形線
100
AcDbLine
 10
85.56851678595419
 20
109.3389004162209
 30
0.0
 11
94.72213646287263
 21
105.6845258475084
 31
0.0
  0
ARC
  5
3FA
330
1F
100
AcDbEntity
  8
1外形線
100
AcDbCircle
 10
95.07848564897699
 20
96.76745415318466
 30
0.0
 40
21.6
100
AcDbArc
 50
90.0
 51
180.0
  0
ARC
  5
3FB
330
1F
100
AcDbEntity
  8
1外形線
100
AcDbCircle
 10
95.07848564897699
 20
96.76745415318466
 30
0.0
 40
22.4
100
AcDbArc
 50
90.0
 51
180.0
  0
ARC
  5
3FC
330
1F
100
AcDbEntity
  8
1外形線
100
AcDbCircle
 10
94.32976462879759
 20
95.0274326935545
 30
0.0
 40
19.03302623025074
100
AcDbArc
 50
127.9609694381302
 51
166.8525763905189
  0
ARC
  5
3FD
330
1F
100
AcDbEntity
  8
1外形線
100
AcDbCircle
 10
98.23833605736886
 20
95.12850210893033
 30
0.0
 40
19.03302623025074
100
AcDbArc
 50
131.7917206190032
 51
166.8525763905072
  0
LINE
  5
3FE
330
1F
100
AcDbEntity
  8
1外形線
100
AcDbLine
 10
73.47848564897697
 20
92.76745415318458
 30
0.0
 11
74.67848564897701
 21
90.36745415318462
 31
0.0
  0
LINE
  5
3FF
330
1F
100
AcDbEntity
  8
1外形線
100
AcDbLine
 10
73.47848564897697
 20
87.96745415318451
 30
0.0
 11
74.67848564897701
 21
90.36745415318462
 31
0.0
  0
LINE
  5
400
330
1F
100
AcDbEntity
  8
1外形線
100
AcDbLine
 10
73.47848564897708
 20
92.76745415318458
 30
0.0
 11
87.87848564897705
 21
88.22008573213198
 31
0.0
  0
LINE
  5
401
330
1F
100
AcDbEntity
  8
1外形線
100
AcDbLine
 10
73.47848564897708
 20
87.96745415318451
 30
0.0
 11
88.67848564897702
 21
83.16745415318456
 31
0.0
  0
LINE
  5
402
330
1F
100
AcDbEntity
  8
1外形線
100
AcDbLine
 10
72.67848564897701
 20
87.96745415318451
 30
0.0
 11
72.67848564897701
 21
74.36745415318462
 31
0.0
  0
LINE
  5
403
330
1F
100
AcDbEntity
  8
1外形線
100
AcDbLine
 10
73.47848564897708
 20
73.56745415318467
 30
0.0
 11
73.47848564897708
 21
87.96745415318451
 31
0.0
  0
LINE
  5
404
330
1F
100
AcDbEntity
  8
1外形線
100
AcDbLine
 10
72.67848564897701
 20
87.96745415318451
 30
0.0
 11
73.47848564897697
 21
87.96745415318451
 31
0.0
  0
LINE
  5
405
330
1F
100
AcDbEntity
  8
1外形線
100
AcDbLine
 10
72.67848564897701
 20
92.76745415318458
 30
0.0
 11
73.47848564897697
 21
92.76745415318458
 31
0.0
  0
LINE
  5
406
330
1F
100
AcDbEntity
  8
1外形線
100
AcDbLine
 10
72.67848564897701
 20
92.76745415318458
 30
0.0
 11
72.67848564897701
 21
94.36745415318462
 31
0.0
  0
LINE
  5
407
330
1F
100
AcDbEntity
  8
1外形線
100
AcDbLine
 10
73.47848564897708
 20
92.76745415318458
 30
0.0
 11
73.47848564897708
 21
96.76745415318459
 31
0.0
  0
LINE
  5
408
330
1F
100
AcDbEntity
  8
1外形線
100
AcDbLine
 10
72.67848564897701
 20
96.76745415318459
 30
0.0
 11
72.67848564897701
 21
92.76745415318458
 31
0.0
  0
LINE
  5
409
330
1F
100
AcDbEntity
  8
1外形線
100
AcDbLine
 10
87.87848564897705
 20
71.96745415318464
 30
0.0
 11
87.87848564897705
 21
83.16745415318456
 31
0.0
  0
LINE
  5
40A
330
1F
100
AcDbEntity
  8
1外形線
100
AcDbLine
 10
91.47848564897707
 20
71.96745415318464
 30
0.0
 11
91.47848564897707
 21
89.56745415318469
 31
0.0
  0
LINE
  5
40B
330
1F
100
AcDbEntity
  8
1外形線
100
AcDbLine
 10
74.75313593372721
 20
66.25717652830537
 30
0.0
 11
89.77044681175561
 21
63.47634530512069
 31
0.0
  0
LINE
  5
40C
330
1F
100
AcDbEntity
  8
1外形線
100
AcDbLine
 10
75.28069242388858
 20
64.92989758800725
 30
0.0
 11
90.29863309913194
 21
62.43074694756542
 31
0.0
  0
LINE
  5
40D
330
1F
100
AcDbEntity
  8
1外形線
100
AcDbLine
 10
80.54264053510099
 20
102.1369575353856
 30
0.0
 11
89.95313593372634
 21
98.98234443150291
 31
0.0
  0
LINE
  5
40E
330
1F
100
AcDbEntity
  8
1外形線
100
AcDbLine
 10
81.07796328077382
 20
103.3612230230463
 30
0.0
 11
90.48069242388692
 21
100.0463559762085
 31
0.0
  0
LINE
  5
40F
330
1F
100
AcDbEntity
  8
1外形線
100
AcDbLine
 10
74.6784856489769
 20
90.36745415318462
 30
0.0
 11
89.87848564897708
 21
85.56745415318465
 31
0.0
  0
LINE
  5
410
330
1F
100
AcDbEntity
  8
1外形線
100
AcDbLine
 10
75.48108783727662
 20
92.35490346270621
 30
0.0
 11
79.38965926584784
 21
92.35490346270609
 31
0.0
  0
ARC
  5
411
330
1F
100
AcDbEntity
  8
1外形線
100
AcDbCircle
 10
87.48108783727664
 20
96.6271464681645
 30
0.0
 40
12.0
100
AcDbArc
 50
166.8525763905189
 51
180.0
  0
LINE
  5
412
330
1F
100
AcDbEntity
  8
1外形線
100
AcDbLine
 10
75.48108783727662
 20
92.35490346270621
 30
0.0
 11
75.48108783727662
 21
96.62714646816445
 31
0.0
  0
LINE
  5
413
330
1F
100
AcDbEntity
  8
1外形線
100
AcDbLine
 10
75.28069242388858
 20
105.405010718362
 30
0.0
 11
77.82582997715133
 21
104.5077400986761
 31
0.0
  0
LINE
  5
414
330
1F
100
AcDbEntity
  8
1外形線
100
AcDbLine
 10
74.75313593372731
 20
104.0777317780626
 30
0.0
 11
77.17253165323246
 21
103.2666950454645
 31
0.0
  0
ARC
  5
415
330
1F
100
AcDbEntity
  8
1外形線
100
AcDbCircle
 10
91.38965926584786
 20
96.72821588354182
 30
0.0
 40
12.0
100
AcDbArc
 50
166.8525763905072
 51
180.0
  0
LINE
  5
416
330
1F
100
AcDbEntity
  8
1外形線
100
AcDbLine
 10
79.38965926584784
 20
92.35490346270609
 30
0.0
 11
79.38965926584784
 21
96.72821588354178
 31
0.0
  0
LINE
  5
417
330
1F
100
AcDbEntity
  8
1外形線
100
AcDbLine
 10
87.87848564897705
 20
83.16745415318456
 30
0.0
 11
88.67848564897702
 21
83.16745415318456
 31
0.0
  0
LINE
  5
418
330
1F
100
AcDbEntity
  8
1外形線
100
AcDbLine
 10
88.67848564897702
 20
83.16745415318456
 30
0.0
 11
89.87848564897708
 21
85.56745415318465
 31
0.0
  0
LINE
  5
419
330
1F
100
AcDbEntity
  8
1外形線
100
AcDbLine
 10
89.87848564897708
 20
85.56745415318465
 30
0.0
 11
90.27848564897706
 21
85.56745415318465
 31
0.0
  0
ARC
  5
41A
330
1F
100
AcDbEntity
  8
1外形線
100
AcDbCircle
 10
90.67848564897696
 20
89.16745415318464
 30
0.0
 40
0.4
100
AcDbArc
 50
90.0
 51
180.0
  0
LINE
  5
41B
330
1F
100
AcDbEntity
  8
1外形線
100
AcDbLine
 10
90.67848564897699
 20
89.56745415318469
 30
0.0
 11
91.47848564897707
 21
89.56745415318469
 31
0.0
  0
LINE
  5
41C
330
1F
100
AcDbEntity
  8
1外形線
100
AcDbLine
 10
87.87848564897705
 20
87.96745415318467
 30
0.0
 11
87.87848564897705
 21
89.56745415318469
 31
0.0
  0
LINE
  5
41D
330
1F
100
AcDbEntity
  8
1外形線
100
AcDbLine
 10
87.87848564897705
 20
87.96745415318467
 30
0.0
 11
88.67848564897702
 21
87.96745415318467
 31
0.0
  0
LINE
  5
41E
330
1F
100
AcDbEntity
  8
1外形線
100
AcDbLine
 10
90.27848564897706
 20
85.56745415318465
 30
0.0
 11
90.27848564897706
 21
89.16745415318457
 31
0.0
  0
LINE
  5
41F
330
1F
100
AcDbEntity
  8
1外形線
100
AcDbLine
 10
88.67848564897702
 20
87.96745415318467
 30
0.0
 11
89.87848564897708
 21
85.56745415318465
 31
0.0
  0
ARC
  5
420
330
1F
100
AcDbEntity
  8
1外形線
100
AcDbCircle
 10
84.94711531384089
 20
106.9801671813567
 30
0.0
 40
3.837899913889494
100
AcDbArc
 50
82.98574540791163
 51
128.9753244974316
  0
LINE
  5
421
330
1F
100
AcDbEntity
  8
1外形線
100
AcDbLine
 10
80.09315949303459
 20
112.3238033392895
 30
0.0
 11
84.08497694181665
 21
110.7199790986222
 31
0.0
  0
LINE
  5
422
330
1F
100
AcDbEntity
  8
1外形線
100
AcDbLine
 10
79.52213646287294
 20
111.752780309128
 30
0.0
 11
83.07906464643838
 21
110.3327575907343
 31
0.0
  0
ARC
  5
423
330
1F
100
AcDbEntity
  8
1外形線
100
AcDbCircle
 10
85.33761675634695
 20
110.1540181100143
 30
0.0
 40
0.6401161354041344
100
AcDbArc
 50
8.443078644037521
 51
82.98574540791246
  0
ARC
  5
424
330
1F
100
AcDbEntity
  8
1外形線
100
AcDbCircle
 10
83.5302221502833
 20
110.7844023759638
 30
0.0
 40
2.498823910845731
100
AcDbArc
 50
324.0954223070645
 51
347.6044065189419
  0
LINE
  5
425
330
1F
100
AcDbEntity
  8
1外形線
100
AcDbLine
 10
87.87848564897705
 20
151.5674541531846
 30
0.0
 11
87.87848564897705
 21
149.9674541531845
 31
0.0
  0
ARC
  5
426
330
1F
100
AcDbEntity
  8
1外形線
100
AcDbCircle
 10
88.67848564897702
 20
149.9674541531845
 30
0.0
 40
0.8
100
AcDbArc
 50
180.0
 51
270.0
  0
ARC
  5
427
330
1F
100
AcDbEntity
  8
1外形線
100
AcDbCircle
 10
88.67848564897702
 20
151.5674541531846
 30
0.0
 40
0.8
100
AcDbArc
 50
90.0
 51
180.0
  0
LINE
  5
428
330
1F
100
AcDbEntity
  8
1外形線
100
AcDbLine
 10
93.078485648977
 20
83.16745415318456
 30
0.0
 11
93.078485648977
 21
64.46278893746769
 31
0.0
  0
LINE
  5
429
330
1F
100
AcDbEntity
  8
1外形線
100
AcDbLine
 10
93.078485648977
 20
85.56745415318465
 30
0.0
 11
93.078485648977
 21
97.40582133009077
 31
0.0
  0
LINE
  5
42A
330
1F
100
AcDbEntity
  8
1外形線
100
AcDbLine
 10
113.678485648977
 20
55.16745415318458
 30
0.0
 11
113.678485648977
 21
51.96745415318464
 31
0.0
  0
LINE
  5
42B
330
1F
100
AcDbEntity
  8
1外形線
100
AcDbLine
 10
113.678485648977
 20
53.56745415318467
 30
0.0
 11
109.878485648977
 21
53.56745415318467
 31
0.0
  0
LINE
  5
42C
330
1F
100
AcDbEntity
  8
1外形線
100
AcDbLine
 10
117.2784856489769
 20
55.16745415318458
 30
0.0
 11
117.2784856489769
 21
51.96745415318464
 31
0.0
  0
ARC
  5
42D
330
1F
100
AcDbEntity
  8
1外形線
100
AcDbCircle
 10
114.478485648977
 20
147.1674541531845
 30
0.0
 40
0.8
100
AcDbArc
 50
180.0
 51
270.0
  0
LINE
  5
42E
330
1F
100
AcDbEntity
  8
1外形線
100
AcDbLine
 10
113.678485648977
 20
147.1674541531845
 30
0.0
 11
113.678485648977
 21
149.1674541531845
 31
0.0
  0
ARC
  5
42F
330
1F
100
AcDbEntity
  8
1外形線
100
AcDbCircle
 10
116.478485648977
 20
147.1674541531845
 30
0.0
 40
0.8
100
AcDbArc
 50
270.0
 51
0.0
  0
LINE
  5
430
330
1F
100
AcDbEntity
  8
1外形線
100
AcDbLine
 10
116.478485648977
 20
146.3674541531846
 30
0.0
 11
114.478485648977
 21
146.3674541531846
 31
0.0
  0
LINE
  5
431
330
1F
100
AcDbEntity
  8
1外形線
100
AcDbLine
 10
117.278485648977
 20
149.1674541531845
 30
0.0
 11
117.278485648977
 21
147.1674541531845
 31
0.0
  0
LINE
  5
432
330
1F
100
AcDbEntity
  8
1外形線
100
AcDbLine
 10
85.35624712936623
 20
186.7612967489113
 30
0.0
 11
95.29315949303304
 21
168.4564581842617
 31
0.0
  0
LINE
  5
433
330
1F
100
AcDbEntity
  8
1外形線
100
AcDbLine
 10
84.9812203322458
 20
186.4002510564701
 30
0.0
 11
94.72213646287263
 21
168.4564581842615
 31
0.0
  0
LINE
  5
434
330
1F
100
AcDbEntity
  8
1外形線
100
AcDbLine
 10
87.18700662710388
 20
196.456458184263
 30
0.0
 11
102.3870066271038
 21
168.4564581842617
 31
0.0
  0
LINE
  5
435
330
1F
100
AcDbEntity
  8
1外形線
100
AcDbLine
 10
101.6409290838046
 20
168.4564581842617
 30
0.0
 11
86.44092908380299
 21
196.456458184263
 31
0.0
  0
LINE
  5
436
330
1F
100
AcDbEntity
  8
1外形線
100
AcDbLine
 10
73.47848564897777
 20
225.9674541531846
 30
0.0
 11
73.47848564897777
 21
196.456458184263
 31
0.0
  0
LINE
  5
437
330
1F
100
AcDbEntity
  8
1外形線
100
AcDbLine
 10
79.52213646287281
 20
196.456458184263
 30
0.0
 11
79.52213646287281
 21
225.9674541531846
 31
0.0
  0
LINE
  5
438
330
1F
100
AcDbEntity
  8
1外形線
100
AcDbLine
 10
80.09315949303255
 20
196.456458184263
 30
0.0
 11
80.09315949303255
 21
225.9674541531846
 31
0.0
  0
LINE
  5
439
330
1F
100
AcDbEntity
  8
1外形線
100
AcDbLine
 10
86.44092908380299
 20
196.456458184263
 30
0.0
 11
86.44092908380299
 21
225.9674541531846
 31
0.0
  0
LINE
  5
43A
330
1F
100
AcDbEntity
  8
1外形線
100
AcDbLine
 10
87.18700662710388
 20
196.456458184263
 30
0.0
 11
87.18700662710388
 21
225.9674541531846
 31
0.0
  0
LINE
  5
43B
330
1F
100
AcDbEntity
  8
1外形線
100
AcDbLine
 10
74.75313593372856
 20
196.456458184263
 30
0.0
 11
74.75313593372856
 21
225.9674541531846
 31
0.0
  0
LINE
  5
43C
330
1F
100
AcDbEntity
  8
1外形線
100
AcDbLine
 10
75.28069242388743
 20
196.456458184263
 30
0.0
 11
75.28069242388743
 21
225.9674541531846
 31
0.0
  0
LINE
  5
43D
330
1F
100
AcDbEntity
  8
1外形線
100
AcDbLine
 10
73.47848564897708
 20
196.456458184263
 30
0.0
 11
88.67848564897702
 21
168.4564581842617
 31
0.0
  0
LINE
  5
43E
330
1F
100
AcDbEntity
  8
1外形線
100
AcDbLine
 10
80.09315949303266
 20
196.4564581842629
 30
0.0
 11
82.0957616813323
 21
192.7674541531845
 31
0.0
  0
LINE
  5
43F
330
1F
100
AcDbEntity
  8
1外形線
100
AcDbLine
 10
79.52213646287281
 20
196.4564581842629
 30
0.0
 11
81.52473865117235
 21
192.7674541531846
 31
0.0
  0
LINE
  5
440
330
1F
100
AcDbEntity
  8
1外形線
100
AcDbLine
 10
74.75313593372856
 20
196.456458184263
 30
0.0
 11
76.75573812202788
 21
192.7674541531845
 31
0.0
  0
LINE
  5
441
330
1F
100
AcDbEntity
  8
1外形線
100
AcDbLine
 10
77.28329461218698
 20
192.7674541531845
 30
0.0
 11
75.28069242388743
 21
196.456458184263
 31
0.0
  0
LINE
  5
442
330
1F
100
AcDbEntity
  8
1外形線
100
AcDbLine
 10
80.66430955059855
 20
185.5674541531846
 30
0.0
 11
89.95313593372634
 21
168.4564581842615
 31
0.0
  0
LINE
  5
443
330
1F
100
AcDbEntity
  8
1外形線
100
AcDbLine
 10
90.48069242388692
 20
168.4564581842615
 30
0.0
 11
81.1918660407581
 21
185.5674541531846
 31
0.0
  0
CIRCLE
  5
444
330
1F
100
AcDbEntity
  8
1外形線
100
AcDbCircle
 10
82.67848564897702
 20
189.1674541531846
 30
0.0
 40
1.28
  0
CIRCLE
  5
445
330
1F
100
AcDbEntity
  8
1外形線
100
AcDbCircle
 10
82.67848564897702
 20
189.1674541531846
 30
0.0
 40
1.6
  0
ARC
  5
446
330
1F
100
AcDbEntity
  8
1外形線
100
AcDbCircle
 10
82.67848564897702
 20
189.1674541531846
 30
0.0
 40
3.600000000000021
100
AcDbArc
 50
270.0
 51
90.0
  0
LINE
  5
447
330
1F
100
AcDbEntity
  8
1外形線
100
AcDbLine
 10
82.67848564897702
 20
192.7674541531846
 30
0.0
 11
75.48108783727662
 21
192.7674541531845
 31
0.0
  0
LINE
  5
448
330
1F
100
AcDbEntity
  8
1外形線
100
AcDbLine
 10
82.67848564897702
 20
185.5674541531846
 30
0.0
 11
79.38965926584796
 21
185.5674541531846
 31
0.0
  0
ARC
  5
449
330
1F
100
AcDbEntity
  8
1外形線
100
AcDbCircle
 10
73.47848564897708
 20
226.7674541531845
 30
0.0
 40
0.8
100
AcDbArc
 50
180.0
 51
270.0
  0
ARC
  5
44A
330
1F
100
AcDbEntity
  8
1外形線
100
AcDbCircle
 10
73.47848564897708
 20
228.3674541531846
 30
0.0
 40
0.8
100
AcDbArc
 50
90.0
 51
180.0
  0
LINE
  5
44B
330
1F
100
AcDbEntity
  8
1外形線
100
AcDbLine
 10
72.67848564897701
 20
228.3674541531846
 30
0.0
 11
72.67848564897701
 21
226.7674541531845
 31
0.0
  0
LINE
  5
44C
330
1F
100
AcDbEntity
  8
1外形線
100
AcDbLine
 10
80.3543695099067
 20
326.5579689113111
 30
0.0
 11
93.14726272871912
 21
325.8661578646568
 31
0.0
  0
LINE
  5
44D
330
1F
100
AcDbEntity
  8
1外形線
100
AcDbLine
 10
81.06900040710312
 20
325.8433380141152
 30
0.0
 11
93.86158638843069
 21
325.2265249647529
 31
0.0
  0
ARC
  5
44E
330
1F
100
AcDbEntity
  8
1外形線
100
AcDbCircle
 10
110.1784856489769
 20
344.1674541531847
 30
0.0
 40
25.0
100
AcDbArc
 50
180.0
 51
270.0
  0
ARC
  5
44F
330
1F
100
AcDbEntity
  8
1外形線
100
AcDbCircle
 10
111.6784856489769
 20
343.1674541531846
 30
0.0
 40
22.0
100
AcDbArc
 50
180.0
 51
270.0
  0
ARC
  5
450
330
1F
100
AcDbEntity
  8
1外形線
100
AcDbCircle
 10
97.67848564897697
 20
343.1674541531846
 30
0.0
 40
24.0
100
AcDbArc
 50
180.0
 51
270.0
  0
ARC
  5
451
330
1F
100
AcDbEntity
  8
1外形線
100
AcDbCircle
 10
97.67848564897697
 20
344.1674541531847
 30
0.0
 40
25.0
100
AcDbArc
 50
180.0
 51
270.0
  0
LINE
  5
452
330
1F
100
AcDbEntity
  8
1外形線
100
AcDbLine
 10
88.96297441525431
 20
320.7358544652664
 30
0.0
 11
102.0800071324586
 21
320.5155061209924
 31
0.0
  0
LINE
  5
453
330
1F
100
AcDbEntity
  8
1外形線
100
AcDbLine
 10
88.02926415141991
 20
321.1926384658779
 30
0.0
 11
101.1466982937502
 21
320.8559373177237
 31
0.0
  0
LINE
  5
454
330
1F
100
AcDbEntity
  8
1外形線
100
AcDbLine
 10
88.13502145687351
 20
381.823873685517
 30
0.0
 11
94.42909048239611
 21
377.9700293910303
 31
0.0
  0
LINE
  5
455
330
1F
100
AcDbEntity
  8
1外形線
100
AcDbLine
 10
87.85699348100244
 20
380.8687875823051
 30
0.0
 11
93.70340770768342
 21
377.3115497785965
 31
0.0
  0
LINE
  5
456
330
1F
100
AcDbEntity
  8
1外形線
100
AcDbLine
 10
90.81413687163657
 20
391.3009899808185
 30
0.0
 11
103.8531890104057
 21
383.4978825296206
 31
0.0
  0
LINE
  5
457
330
1F
100
AcDbEntity
  8
1外形線
100
AcDbLine
 10
89.8815399425111
 20
390.9146956845473
 30
0.0
 11
102.9120060713397
 21
383.1454386437111
 31
0.0
  0
ARC
  5
458
330
1F
100
AcDbEntity
  8
1外形線
100
AcDbCircle
 10
113.6784856489769
 20
357.1674541531847
 30
0.0
 40
25.0
100
AcDbArc
 50
89.99998763603732
 51
163.739795291688
  0
ARC
  5
459
330
1F
100
AcDbEntity
  8
1外形線
100
AcDbCircle
 10
113.5510075671987
 20
356.1674541531847
 30
0.0
 40
29.0
100
AcDbArc
 50
90.00001685270911
 51
168.0594560393917
  0
ARC
  5
45A
330
1F
100
AcDbEntity
  8
1外形線
100
AcDbCircle
 10
100.678485648977
 20
366.1674541531847
 30
0.0
 40
27.0
100
AcDbArc
 50
90.0
 51
180.0
  0
ARC
  5
45B
330
1F
100
AcDbEntity
  8
1外形線
100
AcDbCircle
 10
100.6784856489769
 20
366.1674541531847
 30
0.0
 40
28.0
100
AcDbArc
 50
90.0
 51
180.0
  0
LINE
  5
45C
330
1F
100
AcDbEntity
  8
1外形線
100
AcDbLine
 10
89.67848564897707
 20
364.1674541531847
 30
0.0
 11
89.67848564897696
 21
343.1674541531846
 31
0.0
  0
LINE
  5
45D
330
1F
100
AcDbEntity
  8
1外形線
100
AcDbLine
 10
85.17848564897708
 20
344.1674541531847
 30
0.0
 11
85.17848564897708
 21
356.1674541531847
 31
0.0
  0
LINE
  5
45E
330
1F
100
AcDbEntity
  8
1外形線
100
AcDbLine
 10
73.67848564897705
 20
343.1674541531847
 30
0.0
 11
73.67848564897705
 21
358.1674541531847
 31
0.0
  0
LINE
  5
45F
330
1F
100
AcDbEntity
  8
1外形線
100
AcDbLine
 10
72.67848564897696
 20
358.1674541531847
 30
0.0
 11
72.67848564897708
 21
344.1674541531847
 31
0.0
  0
LINE
  5
460
330
1F
100
AcDbEntity
  8
1外形線
100
AcDbLine
 10
91.67848564897708
 20
356.1674541531847
 30
0.0
 11
91.67848564897708
 21
334.0023027632728
 31
0.0
  0
LINE
  5
461
330
1F
100
AcDbEntity
  8
1外形線
100
AcDbLine
 10
75.70366996167212
 20
333.5182326556243
 30
0.0
 11
88.27950657873197
 21
332.1078224970775
 31
0.0
  0
LINE
  5
462
330
1F
100
AcDbEntity
  8
1外形線
100
AcDbLine
 10
75.04343710245024
 20
335.1890722811273
 30
0.0
 11
87.61955756993728
 21
333.392726132267
 31
0.0
  0
LINE
  5
463
330
1F
100
AcDbEntity
  8
1外形線
100
AcDbLine
 10
73.67848564897705
 20
364.1674541531847
 30
0.0
 11
75.17848564897708
 21
361.1674541531847
 31
0.0
  0
LINE
  5
464
330
1F
100
AcDbEntity
  8
1外形線
100
AcDbLine
 10
73.67848564897705
 20
358.1674541531847
 30
0.0
 11
75.17848564897708
 21
361.1674541531847
 31
0.0
  0
LINE
  5
465
330
1F
100
AcDbEntity
  8
1外形線
100
AcDbLine
 10
73.67848564897705
 20
358.1674541531847
 30
0.0
 11
86.17848564897707
 21
356.1674541531847
 31
0.0
  0
LINE
  5
466
330
1F
100
AcDbEntity
  8
1外形線
100
AcDbLine
 10
73.67848564897696
 20
364.1674541531847
 30
0.0
 11
85.21164048410486
 21
362.3221493795641
 31
0.0
  0
ARC
  5
467
330
1F
100
AcDbEntity
  8
1外形線
100
AcDbCircle
 10
93.96883849311057
 20
366.6920430457148
 30
0.0
 40
18.31273159920024
100
AcDbArc
 50
117.3443690493245
 51
171.7267476957468
  0
LINE
  5
468
330
1F
100
AcDbEntity
  8
1外形線
100
AcDbLine
 10
72.67848564897708
 20
358.1674541531847
 30
0.0
 11
73.67848564897705
 21
358.1674541531847
 31
0.0
  0
LINE
  5
469
330
1F
100
AcDbEntity
  8
1外形線
100
AcDbLine
 10
73.67848564897705
 20
364.1674541531847
 30
0.0
 11
73.67848564897705
 21
366.1674541531847
 31
0.0
  0
LINE
  5
46A
330
1F
100
AcDbEntity
  8
1外形線
100
AcDbLine
 10
72.67848564897696
 20
366.1674541531847
 30
0.0
 11
72.67848564897696
 21
364.1674541531847
 31
0.0
  0
LINE
  5
46B
330
1F
100
AcDbEntity
  8
1外形線
100
AcDbLine
 10
72.67848564897708
 20
364.1674541531847
 30
0.0
 11
73.67848564897705
 21
364.1674541531847
 31
0.0
  0
ARC
  5
46C
330
1F
100
AcDbEntity
  8
1外形線
100
AcDbCircle
 10
99.59383849311059
 20
366.6920430457147
 30
0.0
 40
18.31273159920024
100
AcDbArc
 50
131.1528770544208
 51
171.7267476957468
  0
LINE
  5
46D
330
1F
100
AcDbEntity
  8
1外形線
100
AcDbLine
 10
75.17848564897708
 20
361.1674541531847
 30
0.0
 11
87.67848564897708
 21
359.1674541531847
 31
0.0
  0
LINE
  5
46E
330
1F
100
AcDbEntity
  8
1外形線
100
AcDbLine
 10
82.43644318249851
 20
373.0935994798735
 30
0.0
 11
87.95902625639421
 21
369.8074868726254
 31
0.0
  0
LINE
  5
46F
330
1F
100
AcDbEntity
  8
1外形線
100
AcDbLine
 10
81.9301385806014
 20
371.5242106778648
 30
0.0
 11
87.29378026525974
 21
368.4783442271907
 31
0.0
  0
LINE
  5
470
330
1F
100
AcDbEntity
  8
1外形線
100
AcDbLine
 10
75.23861890370681
 20
364.3879795791161
 30
0.0
 11
80.8636189037068
 21
364.3879795791161
 31
0.0
  0
LINE
  5
471
330
1F
100
AcDbEntity
  8
1外形線
100
AcDbLine
 10
75.27179850491659
 20
375.3053011842866
 30
0.0
 11
77.25624505003196
 21
374.178387883532
 31
0.0
  0
LINE
  5
472
330
1F
100
AcDbEntity
  8
1外形線
100
AcDbLine
 10
75.23861890370681
 20
364.3879795791164
 30
0.0
 11
75.84668617646042
 21
369.327139635307
 31
0.0
  0
LINE
  5
473
330
1F
100
AcDbEntity
  8
1外形線
100
AcDbLine
 10
81.64368995840147
 20
369.302909590672
 30
0.0
 11
81.64368995840147
 21
369.302909590672
 31
0.0
  0
LINE
  5
474
330
1F
100
AcDbEntity
  8
1外形線
100
AcDbLine
 10
80.8636189037068
 20
364.3879795791161
 30
0.0
 11
81.47168617646043
 21
369.3271396353069
 31
0.0
  0
LINE
  5
475
330
1F
100
AcDbEntity
  8
1外形線
100
AcDbLine
 10
86.17848564897707
 20
362.1674541531847
 30
0.0
 11
87.67848564897708
 21
359.1674541531847
 31
0.0
  0
LINE
  5
476
330
1F
100
AcDbEntity
  8
1外形線
100
AcDbLine
 10
88.17848564897706
 20
359.1674541531847
 30
0.0
 11
88.17848564897706
 21
364.1674541531847
 31
0.0
  0
LINE
  5
477
330
1F
100
AcDbEntity
  8
1外形線
100
AcDbLine
 10
91.67848564897708
 20
359.1674541531847
 30
0.0
 11
91.67848564897708
 21
369.0417962402226
 31
0.0
  0
LINE
  5
478
330
1F
100
AcDbEntity
  8
1外形線
100
AcDbLine
 10
86.17848564897707
 20
356.1674541531847
 30
0.0
 11
87.67848564897708
 21
359.1674541531847
 31
0.0
  0
LINE
  5
479
330
1F
100
AcDbEntity
  8
1外形線
100
AcDbLine
 10
85.17848564897708
 20
356.1674541531847
 30
0.0
 11
86.17848564897707
 21
356.1674541531847
 31
0.0
  0
LINE
  5
47A
330
1F
100
AcDbEntity
  8
1外形線
100
AcDbLine
 10
89.67848564897707
 20
356.1674541531847
 30
0.0
 11
91.67848564897695
 21
356.1674541531847
 31
0.0
  0
LINE
  5
47B
330
1F
100
AcDbEntity
  8
1外形線
100
AcDbLine
 10
87.67848564897708
 20
359.1674541531847
 30
0.0
 11
88.17848564897706
 21
359.1674541531847
 31
0.0
  0
LINE
  5
47C
330
1F
100
AcDbEntity
  8
1外形線
100
AcDbLine
 10
89.67848564897707
 20
359.1674541531847
 30
0.0
 11
91.67848564897708
 21
359.1674541531847
 31
0.0
  0
LINE
  5
47D
330
1F
100
AcDbEntity
  8
1外形線
100
AcDbLine
 10
85.17848564897708
 20
362.1674541531847
 30
0.0
 11
86.17848564897707
 21
362.1674541531847
 31
0.0
  0
LINE
  5
47E
330
1F
100
AcDbEntity
  8
1外形線
100
AcDbLine
 10
88.17848564897706
 20
364.1674541531847
 30
0.0
 11
89.67848564897707
 21
364.1674541531847
 31
0.0
  0
LINE
  5
47F
330
1F
100
AcDbEntity
  8
1外形線
100
AcDbLine
 10
81.94682795404782
 20
385.6128906358138
 30
0.0
 11
85.9839835651382
 21
383.1409493439938
 31
0.0
  0
LINE
  5
480
330
1F
100
AcDbEntity
  8
1外形線
100
AcDbLine
 10
81.23304916634646
 20
384.8991118481127
 30
0.0
 11
84.95647092226789
 21
382.6336041170884
 31
0.0
  0
LINE
  5
481
330
1F
100
AcDbEntity
  8
1外形線
100
AcDbLine
 10
75.93124411761408
 20
376.9643998596489
 30
0.0
 11
78.03268777162628
 21
375.7139740367196
 31
0.0
  0
ARC
  5
482
330
1F
100
AcDbEntity
  8
1外形線
100
AcDbCircle
 10
86.2290158225532
 20
381.865768589833
 30
0.0
 40
1.909000362945792
100
AcDbArc
 50
309.2593325329349
 51
352.6695204594627
  0
ARC
  5
483
330
1F
100
AcDbEntity
  8
1外形線
100
AcDbCircle
 10
86.58455337445122
 20
381.1447995338961
 30
0.0
 40
2.084537876887137
100
AcDbArc
 50
58.71619934046478
 51
119.5304662580586
  0
ARC
  5
484
330
1F
100
AcDbEntity
  8
1外形線
100
AcDbCircle
 10
86.59154144781981
 20
381.8191319558657
 30
0.0
 40
1.543487292587506
100
AcDbArc
 50
352.6695204594627
 51
45.83105491011254
  0
LINE
  5
485
330
1F
100
AcDbEntity
  8
1外形線
100
AcDbLine
 10
111.6784856489769
 20
321.1674541531846
 30
0.0
 11
124.9284856489769
 21
321.1674541531846
 31
0.0
  0
LINE
  5
486
330
1F
100
AcDbEntity
  8
1外形線
100
AcDbLine
 10
124.9284856489769
 20
323.1674541531846
 30
0.0
 11
124.9284856489769
 21
319.1674541531846
 31
0.0
  0
LINE
  5
489
330
1F
100
AcDbEntity
  8
1外形線
100
AcDbLine
 10
93.70340770768335
 20
441.0562496755915
 30
0.0
 11
87.49306149488701
 21
451.01642233977
 31
0.0
  0
LINE
  5
48A
330
1F
100
AcDbEntity
  8
1外形線
100
AcDbLine
 10
87.89592614482522
 20
451.524166566033
 30
0.0
 11
94.42909048239618
 21
441.0562496755915
 31
0.0
  0
LINE
  5
48B
330
1F
100
AcDbEntity
  8
1外形線
100
AcDbLine
 10
90.8141368716366
 20
461.0562496755918
 30
0.0
 11
103.8531890104058
 21
441.0562496755915
 31
0.0
  0
LINE
  5
48C
330
1F
100
AcDbEntity
  8
1外形線
100
AcDbLine
 10
102.9120060713397
 20
441.0562496755915
 30
0.0
 11
89.88153994251105
 21
461.0562496755918
 31
0.0
  0
LINE
  5
48D
330
1F
100
AcDbEntity
  8
1外形線
100
AcDbLine
 10
73.67848564897702
 20
483.0600364680241
 30
0.0
 11
73.67848564897702
 21
461.0562496755918
 31
0.0
  0
LINE
  5
48E
330
1F
100
AcDbEntity
  8
1外形線
100
AcDbLine
 10
90.8141368716366
 20
483.0600364680241
 30
0.0
 11
90.8141368716366
 21
461.0562496755918
 31
0.0
  0
LINE
  5
48F
330
1F
100
AcDbEntity
  8
1外形線
100
AcDbLine
 10
89.88153994251105
 20
461.0562496755918
 30
0.0
 11
89.88153994251105
 21
483.0600364680241
 31
0.0
  0
LINE
  5
490
330
1F
100
AcDbEntity
  8
1外形線
100
AcDbLine
 10
81.94682795404776
 20
483.0600364680241
 30
0.0
 11
81.94682795404776
 21
461.0562496755918
 31
0.0
  0
LINE
  5
491
330
1F
100
AcDbEntity
  8
1外形線
100
AcDbLine
 10
81.23304916634664
 20
461.0562496755918
 30
0.0
 11
81.23304916634664
 21
483.0600364680241
 31
0.0
  0
LINE
  5
492
330
1F
100
AcDbEntity
  8
1外形線
100
AcDbLine
 10
75.93124411761403
 20
483.0600364680241
 30
0.0
 11
75.93124411761403
 21
461.0562496755918
 31
0.0
  0
LINE
  5
493
330
1F
100
AcDbEntity
  8
1外形線
100
AcDbLine
 10
75.27179850491655
 20
461.0562496755918
 30
0.0
 11
75.27179850491655
 21
483.0600364680241
 31
0.0
  0
LINE
  5
494
330
1F
100
AcDbEntity
  8
1外形線
100
AcDbLine
 10
73.67848564897702
 20
461.0562496755918
 30
0.0
 11
86.17848564897702
 21
441.0562496755915
 31
0.0
  0
LINE
  5
495
330
1F
100
AcDbEntity
  8
1外形線
100
AcDbLine
 10
86.17848564897702
 20
441.0562496755915
 30
0.0
 11
86.17848564897702
 21
425.0600364680241
 31
0.0
  0
LINE
  5
496
330
1F
100
AcDbEntity
  8
1外形線
100
AcDbLine
 10
87.95902625639419
 20
441.0562496755915
 30
0.0
 11
87.95902625639419
 21
425.0600364680241
 31
0.0
  0
LINE
  5
497
330
1F
100
AcDbEntity
  8
1外形線
100
AcDbLine
 10
87.29378026525967
 20
425.0600364680241
 30
0.0
 11
87.29378026525967
 21
441.0562496755915
 31
0.0
  0
LINE
  5
498
330
1F
100
AcDbEntity
  8
1外形線
100
AcDbLine
 10
85.17848564897702
 20
422.0600364680241
 30
0.0
 11
85.17848564897702
 21
424.0600364680241
 31
0.0
  0
ARC
  5
499
330
1F
100
AcDbEntity
  8
1外形線
100
AcDbCircle
 10
86.17848564897702
 20
424.0600364680241
 30
0.0
 40
1.0
100
AcDbArc
 50
90.0
 51
180.0
  0
ARC
  5
49A
330
1F
100
AcDbEntity
  8
1外形線
100
AcDbCircle
 10
86.17848564897702
 20
422.0600364680241
 30
0.0
 40
1.0
100
AcDbArc
 50
180.0
 51
270.0
  0
LINE
  5
49B
330
1F
100
AcDbEntity
  8
1外形線
100
AcDbLine
 10
84.17848564897701
 20
449.5600364680241
 30
0.0
 11
80.86361890370666
 21
449.560036468024
 31
0.0
  0
LINE
  5
49C
330
1F
100
AcDbEntity
  8
1外形線
100
AcDbLine
 10
84.17848564897701
 20
458.5600364680238
 30
0.0
 11
75.23861890370688
 21
458.5600364680241
 31
0.0
  0
CIRCLE
  5
49D
330
1F
100
AcDbEntity
  8
1外形線
100
AcDbCircle
 10
84.17848564897701
 20
454.0600364680241
 30
0.0
 40
1.6
  0
CIRCLE
  5
49E
330
1F
100
AcDbEntity
  8
1外形線
100
AcDbCircle
 10
84.17848564897701
 20
454.0600364680241
 30
0.0
 40
2.0
  0
LINE
  5
49F
330
1F
100
AcDbEntity
  8
1外形線
100
AcDbLine
 10
87.29378026525967
 20
441.0562496755915
 30
0.0
 11
82.1821617796362
 21
449.5600364680241
 31
0.0
  0
LINE
  5
4A0
330
1F
100
AcDbEntity
  8
1外形線
100
AcDbLine
 10
82.84494151169349
 20
449.5600364680241
 30
0.0
 11
87.95902625639419
 21
441.0562496755915
 31
0.0
  0
LINE
  5
4A1
330
1F
100
AcDbEntity
  8
1外形線
100
AcDbLine
 10
81.94682795404776
 20
461.0562496755918
 30
0.0
 11
83.5047473832277
 21
458.5600364680238
 31
0.0
  0
LINE
  5
4A2
330
1F
100
AcDbEntity
  8
1外形線
100
AcDbLine
 10
75.93124411761403
 20
461.0562496755918
 30
0.0
 11
77.43243954924264
 21
458.560036468024
 31
0.0
  0
LINE
  5
4A3
330
1F
100
AcDbEntity
  8
1外形線
100
AcDbLine
 10
76.77226998748199
 20
458.560036468024
 30
0.0
 11
75.27179850491655
 21
461.0562496755918
 31
0.0
  0
LINE
  5
4A4
330
1F
100
AcDbEntity
  8
1外形線
100
AcDbLine
 10
82.78948285104627
 20
458.5600364680238
 30
0.0
 11
81.23304916634664
 21
461.0562496755918
 31
0.0
  0
ARC
  5
4A5
330
1F
100
AcDbEntity
  8
1外形線
100
AcDbCircle
 10
84.17848564897701
 20
454.0600364680241
 30
0.0
 40
4.5
100
AcDbArc
 50
270.0
 51
90.0
  0
LINE
  5
4A6
330
1F
100
AcDbEntity
  8
1外形線
100
AcDbLine
 10
72.67848564897701
 20
486.0600364680241
 30
0.0
 11
72.67848564897701
 21
484.060036468024
 31
0.0
  0
ARC
  5
4A7
330
1F
100
AcDbEntity
  8
1外形線
100
AcDbCircle
 10
73.67848564897702
 20
486.0600364680241
 30
0.0
 40
1.0
100
AcDbArc
 50
90.0
 51
180.0
  0
ARC
  5
4A8
330
1F
100
AcDbEntity
  8
1外形線
100
AcDbCircle
 10
73.67848564897702
 20
484.060036468024
 30
0.0
 40
1.0
100
AcDbArc
 50
180.0
 51
270.0
  0
LINE
  5
4A9
330
1F
100
AcDbEntity
  8
1外形線
100
AcDbLine
 10
103.8531890104058
 20
441.0562496755915
 30
0.0
 11
103.8531890104058
 21
425.0600364680241
 31
0.0
  0
LINE
  5
4AA
330
1F
100
AcDbEntity
  8
1外形線
100
AcDbLine
 10
102.9120060713397
 20
425.0600364680241
 30
0.0
 11
102.9120060713397
 21
441.0562496755915
 31
0.0
  0
LINE
  5
4AB
330
1F
100
AcDbEntity
  8
1外形線
100
AcDbLine
 10
94.42909048239618
 20
441.0562496755915
 30
0.0
 11
94.42909048239618
 21
425.0600364680241
 31
0.0
  0
LINE
  5
4AC
330
1F
100
AcDbEntity
  8
1外形線
100
AcDbLine
 10
93.70340770768335
 20
425.0600364680241
 30
0.0
 11
93.70340770768335
 21
441.0562496755915
 31
0.0
  0
LINE
  5
4AD
330
1F
100
AcDbEntity
  8
1外形線
100
AcDbLine
 10
124.928485648977
 20
421.0600364680241
 30
0.0
 11
124.928485648977
 21
418.5600364680241
 31
0.0
  0
ARC
  5
4AE
330
1F
100
AcDbEntity
  8
1外形線
100
AcDbCircle
 10
125.928485648977
 20
418.5600364680241
 30
0.0
 40
1.0
100
AcDbArc
 50
180.0
 51
270.0
  0
LINE
  5
510
330
1F
100
AcDbEntity
  8
1外形線
 48
3.0
100
AcDbLine
 10
350.278485648977
 20
547.0600364680241
 30
0.0
 11
350.278485648977
 21
21.96745415318457
 31
0.0
  0
LINE
  5
511
330
1F
100
AcDbEntity
  8
1外形線
100
AcDbLine
 10
267.5674896800524
 20
112.3238033392885
 30
0.0
 11
261.6660209025277
 21
110.8062827964963
 31
0.0
  0
LINE
  5
512
330
1F
100
AcDbEntity
  8
1外形線
100
AcDbLine
 10
267.5674896800524
 20
111.7527803091283
 30
0.0
 11
262.2721170230386
 21
110.3911130544674
 31
0.0
  0
LINE
  5
513
330
1F
100
AcDbEntity
  8
1外形線
100
AcDbLine
 10
267.5674896800524
 20
105.4050107183583
 30
0.0
 11
263.878485648977
 21
104.4564096817959
 31
0.0
  0
LINE
  5
514
330
1F
100
AcDbEntity
  8
1外形線
100
AcDbLine
 10
267.5674896800524
 20
104.6589331750584
 30
0.0
 11
263.878485648977
 21
103.7103321384958
 31
0.0
  0
LINE
  5
515
330
1F
100
AcDbEntity
  8
1外形線
100
AcDbLine
 10
267.5674896800525
 20
118.3674541531845
 30
0.0
 11
239.567489680057
 21
111.1674541531844
 31
0.0
  0
LINE
  5
516
330
1F
100
AcDbEntity
  8
1外形線
100
AcDbLine
 10
267.5674896800524
 20
90.36745415318451
 30
0.0
 11
239.5674896800568
 21
85.56745415318443
 31
0.0
  0
LINE
  5
517
330
1F
100
AcDbEntity
  8
1外形線
100
AcDbLine
 10
267.5674896800524
 20
92.76745415318449
 30
0.0
 11
239.5674896800568
 21
87.96745415318442
 31
0.0
  0
LINE
  5
518
330
1F
100
AcDbEntity
  8
1外形線
100
AcDbLine
 10
267.5674896800524
 20
87.96745415318442
 30
0.0
 11
239.5674896800568
 21
83.16745415318447
 31
0.0
  0
LINE
  5
519
330
1F
100
AcDbEntity
  8
1外形線
100
AcDbLine
 10
267.5674896800524
 20
117.0928038684327
 30
0.0
 11
239.5674896800568
 21
109.8928038684334
 31
0.0
  0
LINE
  5
51A
330
1F
100
AcDbEntity
  8
1外形線
100
AcDbLine
 10
267.5674896800524
 20
116.5652473782736
 30
0.0
 11
239.5674896800568
 21
109.3652473782769
 31
0.0
  0
LINE
  5
51B
330
1F
100
AcDbEntity
  8
1外形線
100
AcDbLine
 10
299.478485648977
 20
51.96745415318453
 30
0.0
 11
220.278485648977
 21
51.96745415318453
 31
0.0
  0
LINE
  5
51C
330
1F
100
AcDbEntity
  8
1外形線
100
AcDbLine
 10
267.5674896800524
 20
58.58212799724102
 30
0.0
 11
239.5674896800568
 21
57.87986595968661
 31
0.0
  0
LINE
  5
51D
330
1F
100
AcDbEntity
  8
1外形線
100
AcDbLine
 10
267.5674896800524
 20
58.0111049670805
 30
0.0
 11
239.5674896800568
 21
57.30816124192831
 31
0.0
  0
LINE
  5
51E
330
1F
100
AcDbEntity
  8
1外形線
100
AcDbLine
 10
267.5674896800524
 20
53.76966092809353
 30
0.0
 11
239.5674896800568
 21
53.58760160334073
 31
0.0
  0
LINE
  5
51F
330
1F
100
AcDbEntity
  8
1外形線
100
AcDbLine
 10
267.5674896800524
 20
53.2421044379375
 30
0.0
 11
239.5674896800568
 21
53.05941531596314
 31
0.0
  0
LINE
  5
520
330
1F
100
AcDbEntity
  8
1外形線
100
AcDbLine
 10
267.5674896800524
 20
65.67597513130927
 30
0.0
 11
239.5674896800568
 21
64.19504516620527
 31
0.0
  0
LINE
  5
521
330
1F
100
AcDbEntity
  8
1外形線
100
AcDbLine
 10
267.5674896800524
 20
64.9290069202421
 30
0.0
 11
239.5674896800568
 21
63.448076955138
 31
0.0
  0
LINE
  5
522
330
1F
100
AcDbEntity
  8
1外形線
100
AcDbLine
 10
273.678485648977
 20
393.1674541531847
 30
0.0
 11
251.6746988565521
 21
393.1674541531847
 31
0.0
  0
LINE
  5
523
330
1F
100
AcDbEntity
  8
1外形線
100
AcDbLine
 10
252.678485648977
 20
391.5741412972455
 30
0.0
 11
273.6784856489859
 21
391.5741412972455
 31
0.0
  0
LINE
  5
524
330
1F
100
AcDbEntity
  8
1外形線
100
AcDbLine
 10
252.678485648977
 20
390.9146956845485
 30
0.0
 11
273.6784856489858
 21
390.9146956845485
 31
0.0
  0
LINE
  5
525
330
1F
100
AcDbEntity
  8
1外形線
100
AcDbLine
 10
252.678485648977
 20
385.6128906358152
 30
0.0
 11
273.6784856489851
 21
385.6128906358152
 31
0.0
  0
LINE
  5
526
330
1F
100
AcDbEntity
  8
1外形線
100
AcDbLine
 10
252.678485648977
 20
384.8991118481137
 30
0.0
 11
273.6784856489851
 21
384.8991118481137
 31
0.0
  0
LINE
  5
527
330
1F
100
AcDbEntity
  8
1外形線
100
AcDbLine
 10
252.678485648977
 20
376.9643998596508
 30
0.0
 11
273.6784856489842
 21
376.9643998596508
 31
0.0
  0
LINE
  5
528
330
1F
100
AcDbEntity
  8
1外形線
100
AcDbLine
 10
252.678485648977
 20
376.031802930527
 30
0.0
 11
273.678485648984
 21
376.031802930527
 31
0.0
  0
LINE
  5
529
330
1F
100
AcDbEntity
  8
1外形線
100
AcDbLine
 10
277.678485648977
 20
361.1674541531847
 30
0.0
 11
251.6746988565521
 21
361.1674541531847
 31
0.0
  0
LINE
  5
52A
330
1F
100
AcDbEntity
  8
1外形線
100
AcDbLine
 10
277.678485648977
 20
364.1674541531847
 30
0.0
 11
251.5250719932112
 21
364.1674541531847
 31
0.0
  0
LINE
  5
52B
330
1F
100
AcDbEntity
  8
1外形線
100
AcDbLine
 10
277.678485648977
 20
358.1674541531847
 30
0.0
 11
251.6746988565521
 21
358.1674541531847
 31
0.0
  0
LINE
  5
52C
330
1F
100
AcDbEntity
  8
1外形線
100
AcDbLine
 10
273.678485648979
 20
334.4519429194609
 30
0.0
 11
252.678485648977
 21
334.4519429194609
 31
0.0
  0
LINE
  5
52D
330
1F
100
AcDbEntity
  8
1外形線
100
AcDbLine
 10
252.678485648977
 20
333.5182326556274
 30
0.0
 11
273.6784856489787
 21
333.5182326556274
 31
0.0
  0
LINE
  5
52E
330
1F
100
AcDbEntity
  8
1外形線
100
AcDbLine
 10
273.678485648978
 20
326.5579689113132
 30
0.0
 11
252.678485648977
 21
326.5579689113132
 31
0.0
  0
LINE
  5
52F
330
1F
100
AcDbEntity
  8
1外形線
100
AcDbLine
 10
252.678485648977
 20
325.8433380141142
 30
0.0
 11
273.6784856489778
 21
325.8433380141142
 31
0.0
  0
LINE
  5
530
330
1F
100
AcDbEntity
  8
1外形線
100
AcDbLine
 10
273.6784856489772
 20
321.1926384658783
 30
0.0
 11
252.678485648977
 21
321.1926384658783
 31
0.0
  0
LINE
  5
531
330
1F
100
AcDbEntity
  8
1外形線
100
AcDbLine
 10
276.678485648977
 20
319.1674541531846
 30
0.0
 11
208.178485648977
 21
319.1674541531846
 31
0.0
  0
LINE
  5
532
330
1F
100
AcDbEntity
  8
1外形線
100
AcDbLine
 10
215.6784856489769
 20
320.6085260741478
 30
0.0
 11
273.6784856489772
 21
320.5324056066578
 31
0.0
  0
LINE
  5
533
330
1F
100
AcDbEntity
  8
1外形線
100
AcDbLine
 10
172.4762788740671
 20
152.3674541531845
 30
0.0
 11
172.4762788740671
 21
168.4564581842615
 31
0.0
  0
LINE
  5
534
330
1F
100
AcDbEntity
  8
1外形線
100
AcDbLine
 10
173.0038353642276
 20
152.3674541531845
 30
0.0
 11
173.0038353642276
 21
168.4564581842615
 31
0.0
  0
LINE
  5
535
330
1F
100
AcDbEntity
  8
1外形線
100
AcDbLine
 10
160.5699646708501
 20
152.3674541531845
 30
0.0
 11
160.5699646708501
 21
168.4564581842615
 31
0.0
  0
LINE
  5
536
330
1F
100
AcDbEntity
  8
1外形線
100
AcDbLine
 10
161.3160422141493
 20
152.3674541531845
 30
0.0
 11
161.3160422141493
 21
168.4564581842615
 31
0.0
  0
LINE
  5
537
330
1F
100
AcDbEntity
  8
1外形線
100
AcDbLine
 10
167.6638118049208
 20
152.3674541531845
 30
0.0
 11
167.6638118049208
 21
168.4564581842615
 31
0.0
  0
LINE
  5
538
330
1F
100
AcDbEntity
  8
1外形線
100
AcDbLine
 10
168.2348348350813
 20
152.3674541531845
 30
0.0
 11
168.2348348350813
 21
168.4564581842615
 31
0.0
  0
LINE
  5
539
330
1F
100
AcDbEntity
  8
1外形線
100
AcDbLine
 10
174.2784856489768
 20
168.4564581842617
 30
0.0
 11
174.2784856489769
 21
152.3674541531845
 31
0.0
  0
LINE
  5
53A
330
1F
100
AcDbEntity
  8
1外形線
100
AcDbLine
 10
176.5160422141509
 20
116.5652473782748
 30
0.0
 11
161.3160422141497
 21
110.2351249601102
 31
0.0
  0
LINE
  5
53B
330
1F
100
AcDbEntity
  8
1外形線
100
AcDbLine
 10
175.7699646708525
 20
116.8742828152909
 30
0.0
 11
160.5699646708503
 21
110.5313411698455
 31
0.0
  0
LINE
  5
53C
330
1F
100
AcDbEntity
  8
1外形線
100
AcDbLine
 10
131.478485648977
 20
51.96745415318464
 30
0.0
 11
167.878485648977
 21
51.96745415318464
 31
0.0
  0
ARC
  5
53D
330
1F
100
AcDbEntity
  8
1外形線
100
AcDbCircle
 10
152.6784856489769
 20
89.5674541531847
 30
0.0
 40
22.4
100
AcDbArc
 50
0.0
 51
90.0
  0
ARC
  5
53E
330
1F
100
AcDbEntity
  8
1外形線
100
AcDbCircle
 10
151.478485648977
 20
89.5674541531847
 30
0.0
 40
20.0
100
AcDbArc
 50
0.0
 51
90.0
  0
ARC
  5
53F
330
1F
100
AcDbEntity
  8
1外形線
100
AcDbCircle
 10
153.0784856489769
 20
71.96745415318471
 30
0.0
 40
18.4
100
AcDbArc
 50
270.0
 51
0.0
  0
ARC
  5
540
330
1F
100
AcDbEntity
  8
1外形線
100
AcDbCircle
 10
155.0784856489769
 20
71.96745415318471
 30
0.0
 40
20.0
100
AcDbArc
 50
270.0
 51
0.0
  0
LINE
  5
541
330
1F
100
AcDbEntity
  8
1外形線
100
AcDbLine
 10
131.4784856489769
 20
119.1674541531845
 30
0.0
 11
167.878485648977
 21
119.1674541531845
 31
0.0
  0
LINE
  5
542
330
1F
100
AcDbEntity
  8
1外形線
100
AcDbLine
 10
167.878485648977
 20
118.3674541531846
 30
0.0
 11
131.4784856489769
 21
118.3674541531846
 31
0.0
  0
LINE
  5
543
330
1F
100
AcDbEntity
  8
1外形線
100
AcDbLine
 10
174.2784856489769
 20
149.1674541531845
 30
0.0
 11
131.4784856489769
 21
149.1674541531845
 31
0.0
  0
LINE
  5
544
330
1F
100
AcDbEntity
  8
1外形線
100
AcDbLine
 10
131.4784856489769
 20
152.3674541531845
 30
0.0
 11
174.2784856489769
 21
152.3674541531845
 31
0.0
  0
LINE
  5
545
330
1F
100
AcDbEntity
  8
1外形線
100
AcDbLine
 10
131.478485648977
 20
53.56745415318467
 30
0.0
 11
145.6784856489769
 21
53.56745415318467
 31
0.0
  0
LINE
  5
546
330
1F
100
AcDbEntity
  8
1外形線
100
AcDbLine
 10
160.5831508646944
 20
55.16745415318458
 30
0.0
 11
131.4784856489769
 21
55.16745415318458
 31
0.0
  0
LINE
  5
547
330
1F
100
AcDbEntity
  8
1外形線
100
AcDbLine
 10
145.6784856489769
 20
55.16745415318458
 30
0.0
 11
145.6784856489769
 21
51.96745415318464
 31
0.0
  0
LINE
  5
548
330
1F
100
AcDbEntity
  8
1外形線
100
AcDbLine
 10
149.2784856489769
 20
55.16745415318458
 30
0.0
 11
149.2784856489769
 21
51.96745415318464
 31
0.0
  0
LINE
  5
549
330
1F
100
AcDbEntity
  8
1外形線
100
AcDbLine
 10
149.2784856489769
 20
53.56745415318467
 30
0.0
 11
153.0784856489769
 21
53.56745415318467
 31
0.0
  0
LINE
  5
54A
330
1F
100
AcDbEntity
  8
1外形線
100
AcDbLine
 10
151.478485648977
 20
109.5674541531846
 30
0.0
 11
131.478485648977
 21
109.5674541531846
 31
0.0
  0
LINE
  5
54B
330
1F
100
AcDbEntity
  8
1外形線
100
AcDbLine
 10
152.6784856489769
 20
111.9674541531846
 30
0.0
 11
131.4784856489769
 21
111.9674541531846
 31
0.0
  0
ARC
  5
54C
330
1F
100
AcDbEntity
  8
1外形線
100
AcDbCircle
 10
148.4784856489769
 20
147.1674541531845
 30
0.0
 40
0.8
100
AcDbArc
 50
270.0
 51
0.0
  0
LINE
  5
54D
330
1F
100
AcDbEntity
  8
1外形線
100
AcDbLine
 10
146.4784856489769
 20
146.3674541531846
 30
0.0
 11
148.4784856489769
 21
146.3674541531846
 31
0.0
  0
ARC
  5
54E
330
1F
100
AcDbEntity
  8
1外形線
100
AcDbCircle
 10
146.4784856489769
 20
147.1674541531845
 30
0.0
 40
0.8
100
AcDbArc
 50
180.0
 51
270.0
  0
LINE
  5
54F
330
1F
100
AcDbEntity
  8
1外形線
100
AcDbLine
 10
145.6784856489768
 20
149.1674541531845
 30
0.0
 11
145.6784856489768
 21
147.1674541531845
 31
0.0
  0
LINE
  5
550
330
1F
100
AcDbEntity
  8
1外形線
100
AcDbLine
 10
149.2784856489769
 20
147.1674541531845
 30
0.0
 11
149.2784856489769
 21
149.1674541531845
 31
0.0
  0
ARC
  5
551
330
1F
100
AcDbEntity
  8
1外形線
100
AcDbCircle
 10
168.6272066691563
 20
95.02743269355445
 30
0.0
 40
19.03302623025074
100
AcDbArc
 50
13.14742360948107
 51
52.03903056186971
  0
LINE
  5
552
330
1F
100
AcDbEntity
  8
1外形線
100
AcDbLine
 10
177.3884545120005
 20
109.338900416221
 30
0.0
 11
168.2348348350813
 21
105.6845258475084
 31
0.0
  0
ARC
  5
553
330
1F
100
AcDbEntity
  8
1外形線
100
AcDbCircle
 10
164.7186352405851
 20
95.12850210893027
 30
0.0
 40
19.03302623025074
100
AcDbArc
 50
13.14742360949278
 51
48.20827938099677
  0
ARC
  5
554
330
1F
100
AcDbEntity
  8
1外形線
100
AcDbCircle
 10
167.878485648977
 20
96.76745415318459
 30
0.0
 40
22.4
100
AcDbArc
 50
0.0
 51
90.0
  0
ARC
  5
555
330
1F
100
AcDbEntity
  8
1外形線
100
AcDbCircle
 10
167.878485648977
 20
96.76745415318459
 30
0.0
 40
21.6
100
AcDbArc
 50
0.0
 51
90.0
  0
LINE
  5
556
330
1F
100
AcDbEntity
  8
1外形線
100
AcDbLine
 10
188.2038353642268
 20
66.25717652830537
 30
0.0
 11
173.1865244861984
 21
63.47634530512069
 31
0.0
  0
LINE
  5
557
330
1F
100
AcDbEntity
  8
1外形線
100
AcDbLine
 10
187.6762788740654
 20
64.92989758800725
 30
0.0
 11
172.658338198822
 21
62.43074694756542
 31
0.0
  0
LINE
  5
558
330
1F
100
AcDbEntity
  8
1外形線
100
AcDbLine
 10
183.434834835081
 20
58.58212799724089
 30
0.0
 11
168.9377785602333
 21
57.54802281904353
 31
0.0
  0
LINE
  5
559
330
1F
100
AcDbEntity
  8
1外形線
100
AcDbLine
 10
182.8638118049195
 20
58.01110496707936
 30
0.0
 11
168.3660738424733
 21
57.0195446003392
 31
0.0
  0
ARC
  5
55A
330
1F
100
AcDbEntity
  8
1外形線
100
AcDbCircle
 10
167.878485648977
 20
74.36745415318462
 30
0.0
 40
22.4
100
AcDbArc
 50
270.0
 51
0.0
  0
ARC
  5
55B
330
1F
100
AcDbEntity
  8
1外形線
100
AcDbCircle
 10
167.878485648977
 20
73.56745415318467
 30
0.0
 40
21.6
100
AcDbArc
 50
270.0
 51
0.0
  0
LINE
  5
55C
330
1F
100
AcDbEntity
  8
1外形線
100
AcDbLine
 10
189.478485648977
 20
92.76745415318458
 30
0.0
 11
175.0784856489769
 21
88.22008573213198
 31
0.0
  0
LINE
  5
55D
330
1F
100
AcDbEntity
  8
1外形線
100
AcDbLine
 10
181.8790080171798
 20
103.361223023046
 30
0.0
 11
172.4762788740672
 21
100.0463559762085
 31
0.0
  0
LINE
  5
55E
330
1F
100
AcDbEntity
  8
1外形線
100
AcDbLine
 10
182.4143307628526
 20
102.1369575353855
 30
0.0
 11
173.0038353642276
 21
98.98234443150291
 31
0.0
  0
LINE
  5
55F
330
1F
100
AcDbEntity
  8
1外形線
100
AcDbLine
 10
188.278485648977
 20
90.36745415318462
 30
0.0
 11
173.0784856489769
 21
85.56745415318465
 31
0.0
  0
LINE
  5
560
330
1F
100
AcDbEntity
  8
1外形線
100
AcDbLine
 10
189.478485648977
 20
87.96745415318451
 30
0.0
 11
174.2784856489769
 21
83.16745415318456
 31
0.0
  0
LINE
  5
561
330
1F
100
AcDbEntity
  8
1外形線
100
AcDbLine
 10
175.0784856489769
 20
71.96745415318464
 30
0.0
 11
175.0784856489769
 21
83.16745415318456
 31
0.0
  0
LINE
  5
562
330
1F
100
AcDbEntity
  8
1外形線
100
AcDbLine
 10
169.878485648977
 20
83.16745415318456
 30
0.0
 11
169.878485648977
 21
64.46278893746769
 31
0.0
  0
LINE
  5
563
330
1F
100
AcDbEntity
  8
1外形線
100
AcDbLine
 10
171.478485648977
 20
71.96745415318464
 30
0.0
 11
171.478485648977
 21
89.56745415318469
 31
0.0
  0
LINE
  5
564
330
1F
100
AcDbEntity
  8
1外形線
100
AcDbLine
 10
176.516042214151
 20
53.76966092809468
 30
0.0
 11
162.7978628470228
 21
53.51721795756129
 31
0.0
  0
LINE
  5
565
330
1F
100
AcDbEntity
  8
1外形線
100
AcDbLine
 10
175.7699646708525
 20
53.46062549107871
 30
0.0
 11
162.0508946359581
 21
53.22217440285097
 31
0.0
  0
LINE
  5
566
330
1F
100
AcDbEntity
  8
1外形線
100
AcDbLine
 10
171.478485648977
 20
83.16745415318456
 30
0.0
 11
169.878485648977
 21
83.16745415318456
 31
0.0
  0
LINE
  5
567
330
1F
100
AcDbEntity
  8
1外形線
100
AcDbLine
 10
171.478485648977
 20
85.56745415318465
 30
0.0
 11
169.878485648977
 21
85.56745415318465
 31
0.0
  0
LINE
  5
568
330
1F
100
AcDbEntity
  8
1外形線
100
AcDbLine
 10
169.878485648977
 20
85.56745415318465
 30
0.0
 11
169.878485648977
 21
97.40582133009077
 31
0.0
  0
LINE
  5
569
330
1F
100
AcDbEntity
  8
1外形線
100
AcDbLine
 10
175.0784856489769
 20
83.16745415318456
 30
0.0
 11
174.2784856489769
 21
83.16745415318456
 31
0.0
  0
LINE
  5
56A
330
1F
100
AcDbEntity
  8
1外形線
100
AcDbLine
 10
175.0784856489769
 20
87.96745415318467
 30
0.0
 11
174.2784856489769
 21
87.96745415318467
 31
0.0
  0
LINE
  5
56B
330
1F
100
AcDbEntity
  8
1外形線
100
AcDbLine
 10
174.2784856489769
 20
83.16745415318456
 30
0.0
 11
173.0784856489769
 21
85.56745415318465
 31
0.0
  0
LINE
  5
56C
330
1F
100
AcDbEntity
  8
1外形線
100
AcDbLine
 10
173.0784856489769
 20
85.56745415318465
 30
0.0
 11
172.6784856489769
 21
85.56745415318465
 31
0.0
  0
LINE
  5
56D
330
1F
100
AcDbEntity
  8
1外形線
100
AcDbLine
 10
172.2784856489769
 20
89.56745415318469
 30
0.0
 11
171.478485648977
 21
89.56745415318469
 31
0.0
  0
ARC
  5
56E
330
1F
100
AcDbEntity
  8
1外形線
100
AcDbCircle
 10
172.2784856489769
 20
89.16745415318457
 30
0.0
 40
0.4
100
AcDbArc
 50
0.0
 51
90.0
  0
LINE
  5
56F
330
1F
100
AcDbEntity
  8
1外形線
100
AcDbLine
 10
174.2784856489769
 20
87.96745415318467
 30
0.0
 11
173.0784856489769
 21
85.56745415318465
 31
0.0
  0
LINE
  5
570
330
1F
100
AcDbEntity
  8
1外形線
100
AcDbLine
 10
172.6784856489769
 20
85.56745415318465
 30
0.0
 11
172.6784856489769
 21
89.16745415318457
 31
0.0
  0
LINE
  5
571
330
1F
100
AcDbEntity
  8
1外形線
100
AcDbLine
 10
175.0784856489769
 20
87.96745415318467
 30
0.0
 11
175.0784856489769
 21
89.56745415318469
 31
0.0
  0
LINE
  5
572
330
1F
100
AcDbEntity
  8
1外形線
100
AcDbLine
 10
189.478485648977
 20
73.56745415318467
 30
0.0
 11
189.478485648977
 21
87.96745415318451
 31
0.0
  0
LINE
  5
573
330
1F
100
AcDbEntity
  8
1外形線
100
AcDbLine
 10
190.2784856489769
 20
87.96745415318451
 30
0.0
 11
190.2784856489769
 21
74.36745415318462
 31
0.0
  0
LINE
  5
574
330
1F
100
AcDbEntity
  8
1外形線
100
AcDbLine
 10
188.2038353642266
 20
104.0777317780626
 30
0.0
 11
185.7844396447206
 21
103.2666950454643
 31
0.0
  0
LINE
  5
575
330
1F
100
AcDbEntity
  8
1外形線
100
AcDbLine
 10
187.4758834606773
 20
92.35490346270621
 30
0.0
 11
183.5673120321061
 21
92.35490346270609
 31
0.0
  0
ARC
  5
576
330
1F
100
AcDbEntity
  8
1外形線
100
AcDbCircle
 10
171.5673120321062
 20
96.72821588354178
 30
0.0
 40
12.0
100
AcDbArc
 50
0.0
 51
13.14742360949278
  0
LINE
  5
577
330
1F
100
AcDbEntity
  8
1外形線
100
AcDbLine
 10
183.5673120321061
 20
92.35490346270609
 30
0.0
 11
183.5673120321061
 21
96.72821588354178
 31
0.0
  0
ARC
  5
578
330
1F
100
AcDbEntity
  8
1外形線
100
AcDbCircle
 10
175.4758834606774
 20
96.62714646816445
 30
0.0
 40
12.0
100
AcDbArc
 50
0.0
 51
13.14742360948107
  0
LINE
  5
579
330
1F
100
AcDbEntity
  8
1外形線
100
AcDbLine
 10
187.4758834606773
 20
92.35490346270621
 30
0.0
 11
187.4758834606773
 21
96.62714646816445
 31
0.0
  0
LINE
  5
57A
330
1F
100
AcDbEntity
  8
1外形線
100
AcDbLine
 10
187.6762788740654
 20
105.405010718362
 30
0.0
 11
185.1311413208024
 21
104.507740098676
 31
0.0
  0
LINE
  5
57B
330
1F
100
AcDbEntity
  8
1外形線
100
AcDbLine
 10
189.478485648977
 20
92.76745415318458
 30
0.0
 11
188.2784856489769
 21
90.36745415318462
 31
0.0
  0
LINE
  5
57C
330
1F
100
AcDbEntity
  8
1外形線
100
AcDbLine
 10
189.478485648977
 20
87.96745415318451
 30
0.0
 11
188.2784856489769
 21
90.36745415318462
 31
0.0
  0
LINE
  5
57D
330
1F
100
AcDbEntity
  8
1外形線
100
AcDbLine
 10
190.2784856489769
 20
87.96745415318451
 30
0.0
 11
189.478485648977
 21
87.96745415318451
 31
0.0
  0
LINE
  5
57E
330
1F
100
AcDbEntity
  8
1外形線
100
AcDbLine
 10
190.2784856489769
 20
92.76745415318458
 30
0.0
 11
190.2784856489769
 21
94.36745415318462
 31
0.0
  0
LINE
  5
57F
330
1F
100
AcDbEntity
  8
1外形線
100
AcDbLine
 10
190.2784856489769
 20
96.76745415318459
 30
0.0
 11
190.2784856489769
 21
92.76745415318458
 31
0.0
  0
LINE
  5
580
330
1F
100
AcDbEntity
  8
1外形線
100
AcDbLine
 10
189.478485648977
 20
92.76745415318458
 30
0.0
 11
189.478485648977
 21
96.76745415318459
 31
0.0
  0
LINE
  5
581
330
1F
100
AcDbEntity
  8
1外形線
100
AcDbLine
 10
190.2784856489769
 20
92.76745415318458
 30
0.0
 11
189.478485648977
 21
92.76745415318458
 31
0.0
  0
LINE
  5
582
330
1F
100
AcDbEntity
  8
1外形線
100
AcDbLine
 10
182.8638118049195
 20
112.3238033392895
 30
0.0
 11
178.8719943561373
 21
110.7199790986222
 31
0.0
  0
ARC
  5
583
330
1F
100
AcDbEntity
  8
1外形線
100
AcDbCircle
 10
178.0098559841133
 20
106.9801671813566
 30
0.0
 40
3.837899913889494
100
AcDbArc
 50
51.02467550256834
 51
97.01425459208838
  0
LINE
  5
584
330
1F
100
AcDbEntity
  8
1外形線
100
AcDbLine
 10
177.0572728740904
 20
109.9908640175068
 30
0.0
 11
167.6638118049222
 21
106.2167784637966
 31
0.0
  0
ARC
  5
585
330
1F
100
AcDbEntity
  8
1外形線
100
AcDbCircle
 10
179.4267491476706
 20
110.7844023759638
 30
0.0
 40
2.498823910845731
100
AcDbArc
 50
192.395593481058
 51
215.9045776929354
  0
ARC
  5
586
330
1F
100
AcDbEntity
  8
1外形線
100
AcDbCircle
 10
177.619354541607
 20
110.1540181100143
 30
0.0
 40
0.6401161354041344
100
AcDbArc
 50
97.01425459208756
 51
171.5569213559624
  0
LINE
  5
587
330
1F
100
AcDbEntity
  8
1外形線
100
AcDbLine
 10
175.0784856489769
 20
151.5674541531846
 30
0.0
 11
175.0784856489769
 21
149.9674541531845
 31
0.0
  0
ARC
  5
588
330
1F
100
AcDbEntity
  8
1外形線
100
AcDbCircle
 10
174.2784856489769
 20
149.9674541531845
 30
0.0
 40
0.8
100
AcDbArc
 50
270.0
 51
0.0
  0
ARC
  5
589
330
1F
100
AcDbEntity
  8
1外形線
100
AcDbCircle
 10
174.2784856489769
 20
151.5674541531846
 30
0.0
 40
0.8
100
AcDbArc
 50
0.0
 51
90.0
  0
LINE
  5
58A
330
1F
100
AcDbEntity
  8
1外形線
100
AcDbLine
 10
183.434834835081
 20
111.752780309128
 30
0.0
 11
179.8779066515168
 21
110.3327575907349
 31
0.0
  0
LINE
  5
58B
330
1F
100
AcDbEntity
  8
1外形線
100
AcDbLine
 10
239.567489680057
 20
111.1674541531844
 30
0.0
 11
223.4784856489799
 21
111.1674541531844
 31
0.0
  0
LINE
  5
58C
330
1F
100
AcDbEntity
  8
1外形線
100
AcDbLine
 10
239.5674896800568
 20
109.8928038684334
 30
0.0
 11
223.478485648977
 21
109.8928038684334
 31
0.0
  0
LINE
  5
58D
330
1F
100
AcDbEntity
  8
1外形線
100
AcDbLine
 10
239.5674896800568
 20
109.3652473782769
 30
0.0
 11
223.478485648977
 21
109.3652473782769
 31
0.0
  0
LINE
  5
58E
330
1F
100
AcDbEntity
  8
1外形線
100
AcDbLine
 10
239.5674896800568
 20
85.56745415318443
 30
0.0
 11
220.278485648977
 21
85.56745415318443
 31
0.0
  0
LINE
  5
58F
330
1F
100
AcDbEntity
  8
1外形線
100
AcDbLine
 10
239.5674896800568
 20
87.96745415318442
 30
0.0
 11
220.278485648977
 21
87.96745415318442
 31
0.0
  0
LINE
  5
590
330
1F
100
AcDbEntity
  8
1外形線
100
AcDbLine
 10
239.5674896800568
 20
83.16745415318447
 30
0.0
 11
220.278485648977
 21
83.16745415318447
 31
0.0
  0
LINE
  5
591
330
1F
100
AcDbEntity
  8
1外形線
100
AcDbLine
 10
239.5674896800568
 20
105.1238033392889
 30
0.0
 11
223.478485648977
 21
105.1238033392889
 31
0.0
  0
LINE
  5
592
330
1F
100
AcDbEntity
  8
1外形線
100
AcDbLine
 10
239.5674896800568
 20
104.5527803091284
 30
0.0
 11
223.478485648977
 21
104.5527803091284
 31
0.0
  0
LINE
  5
593
330
1F
100
AcDbEntity
  8
1外形線
100
AcDbLine
 10
239.5674896800568
 20
98.20501071835787
 30
0.0
 11
223.478485648977
 21
98.20501071835787
 31
0.0
  0
LINE
  5
594
330
1F
100
AcDbEntity
  8
1外形線
100
AcDbLine
 10
239.5674896800568
 20
97.4589331750578
 30
0.0
 11
223.478485648977
 21
97.4589331750578
 31
0.0
  0
LINE
  5
595
330
1F
100
AcDbEntity
  8
1外形線
100
AcDbLine
 10
239.5674896800568
 20
64.19504516620527
 30
0.0
 11
223.478485648977
 21
64.19504516620527
 31
0.0
  0
LINE
  5
596
330
1F
100
AcDbEntity
  8
1外形線
100
AcDbLine
 10
239.5674896800568
 20
63.448076955138
 30
0.0
 11
223.478485648977
 21
63.448076955138
 31
0.0
  0
LINE
  5
597
330
1F
100
AcDbEntity
  8
1外形線
100
AcDbLine
 10
239.5674896800568
 20
57.87986595968661
 30
0.0
 11
223.478485648977
 21
57.87986595968661
 31
0.0
  0
LINE
  5
598
330
1F
100
AcDbEntity
  8
1外形線
100
AcDbLine
 10
239.5674896800568
 20
57.30816124192831
 30
0.0
 11
223.478485648977
 21
57.30816124192831
 31
0.0
  0
LINE
  5
599
330
1F
100
AcDbEntity
  8
1外形線
100
AcDbLine
 10
239.5674896800568
 20
53.58760160334073
 30
0.0
 11
223.478485648977
 21
53.58760160334073
 31
0.0
  0
LINE
  5
59A
330
1F
100
AcDbEntity
  8
1外形線
100
AcDbLine
 10
239.5674896800568
 20
53.05941531596314
 30
0.0
 11
223.478485648977
 21
53.05941531596314
 31
0.0
  0
LINE
  5
59B
330
1F
100
AcDbEntity
  8
1外形線
100
AcDbLine
 10
223.478485648977
 20
111.1674541531845
 30
0.0
 11
223.478485648977
 21
87.96745415318442
 31
0.0
  0
LINE
  5
59C
330
1F
100
AcDbEntity
  8
1外形線
100
AcDbLine
 10
220.278485648977
 20
51.96745415318453
 30
0.0
 11
220.278485648977
 21
111.1674541531845
 31
0.0
  0
LINE
  5
59D
330
1F
100
AcDbEntity
  8
1外形線
100
AcDbLine
 10
223.478485648977
 20
83.16745415318447
 30
0.0
 11
223.478485648977
 21
51.96745415318453
 31
0.0
  0
ARC
  5
59E
330
1F
100
AcDbEntity
  8
1外形線
100
AcDbCircle
 10
222.678485648977
 20
111.1674541531845
 30
0.0
 40
0.8
100
AcDbArc
 50
0.0
 51
90.0
  0
LINE
  5
59F
330
1F
100
AcDbEntity
  8
1外形線
100
AcDbLine
 10
221.078485648977
 20
111.9674541531845
 30
0.0
 11
222.678485648977
 21
111.9674541531846
 31
0.0
  0
ARC
  5
5A0
330
1F
100
AcDbEntity
  8
1外形線
100
AcDbCircle
 10
221.078485648977
 20
111.1674541531845
 30
0.0
 40
0.8
100
AcDbArc
 50
90.0
 51
180.0
  0
LINE
  5
5A1
330
1F
100
AcDbEntity
  8
1外形線
100
AcDbLine
 10
256.678485648977
 20
92.35490346270692
 30
0.0
 11
256.678485648977
 21
106.5687741184626
 31
0.0
  0
LINE
  5
5A2
330
1F
100
AcDbEntity
  8
1外形線
100
AcDbLine
 10
257.2709589972302
 20
109.1051009906879
 30
0.0
 11
239.5674896800568
 21
104.5527803091283
 31
0.0
  0
LINE
  5
5A3
330
1F
100
AcDbEntity
  8
1外形線
100
AcDbLine
 10
239.5674896800568
 20
111.1674541531844
 30
0.0
 11
239.5674896800568
 21
87.96745415318442
 31
0.0
  0
LINE
  5
5A4
330
1F
100
AcDbEntity
  8
1外形線
100
AcDbLine
 10
257.7080659441621
 20
109.7885229500593
 30
0.0
 11
239.5674896800568
 21
105.1238033392889
 31
0.0
  0
LINE
  5
5A5
330
1F
100
AcDbEntity
  8
1外形線
100
AcDbLine
 10
263.878485648977
 20
106.5687725925838
 30
0.0
 11
263.878485648977
 21
92.35490346270692
 31
0.0
  0
LINE
  5
5A6
330
1F
100
AcDbEntity
  8
1外形線
100
AcDbLine
 10
256.678485648977
 20
102.6049811103668
 30
0.0
 11
239.5674896800568
 21
98.20501071835787
 31
0.0
  0
LINE
  5
5A7
330
1F
100
AcDbEntity
  8
1外形線
100
AcDbLine
 10
256.678485648977
 20
101.8589035670668
 30
0.0
 11
239.5674896800568
 21
97.4589331750578
 31
0.0
  0
LINE
  5
5A8
330
1F
100
AcDbEntity
  8
1外形線
100
AcDbLine
 10
239.5674896800568
 20
83.16745415318447
 30
0.0
 11
239.5674896800568
 21
51.96745415318453
 31
0.0
  0
LINE
  5
5A9
330
1F
100
AcDbEntity
  8
1外形線
100
AcDbLine
 10
263.878485648977
 20
92.35490346270692
 30
0.0
 11
256.678485648977
 21
92.35490346270692
 31
0.0
  0
LWPOLYLINE
  5
5AA
330
1F
100
AcDbEntity
  8
1外形線
100
AcDbPolyline
 90
        9
 70
     0
 43
0.0
 10
256.678485648977
 20
106.5687725925838
 42
-0.0785515972126957
 10
256.9640326859359
 20
108.3751337672206
 42
-0.0878808885772801
 10
257.7329012367054
 20
109.820531508602
 42
-0.1053721122411802
 10
258.9481952314636
 20
110.8372022239519
 42
-0.1222719916333152
 10
260.278485648977
 20
111.1674541531844
 42
-0.1222719916333234
 10
261.6087760664904
 20
110.8372022239519
 42
-0.1053721122411854
 10
262.8240700612486
 20
109.820531508602
 42
-0.0878808885772706
 10
263.5929386120181
 20
108.3751337672208
 42
-0.0785515972126928
 10
263.878485648977
 20
106.5687725925838
 42
-0.0785515972126837
  0
LINE
  5
5AB
330
1F
100
AcDbEntity
  8
1外形線
100
AcDbLine
 10
161.3160422141494
 20
168.4564581842617
 30
0.0
 11
176.516042214151
 21
196.456458184263
 31
0.0
  0
LINE
  5
5AC
330
1F
100
AcDbEntity
  8
1外形線
100
AcDbLine
 10
175.7699646708501
 20
196.456458184263
 30
0.0
 11
160.5699646708501
 21
168.4564581842617
 31
0.0
  0
LINE
  5
5AD
330
1F
100
AcDbEntity
  8
1外形線
100
AcDbLine
 10
189.4784856489769
 20
225.9674541531846
 30
0.0
 11
131.4784856489769
 21
225.9674541531846
 31
0.0
  0
LINE
  5
5AE
330
1F
100
AcDbEntity
  8
1外形線
100
AcDbLine
 10
131.4784856489769
 20
229.1674541531846
 30
0.0
 11
189.4784856489769
 21
229.1674541531846
 31
0.0
  0
LINE
  5
5AF
330
1F
100
AcDbEntity
  8
1外形線
100
AcDbLine
 10
187.6762788740666
 20
196.456458184263
 30
0.0
 11
187.6762788740666
 21
225.9674541531846
 31
0.0
  0
LINE
  5
5B0
330
1F
100
AcDbEntity
  8
1外形線
100
AcDbLine
 10
188.2038353642253
 20
196.456458184263
 30
0.0
 11
188.2038353642253
 21
225.9674541531846
 31
0.0
  0
LINE
  5
5B1
330
1F
100
AcDbEntity
  8
1外形線
100
AcDbLine
 10
175.7699646708501
 20
196.456458184263
 30
0.0
 11
175.7699646708501
 21
225.9674541531846
 31
0.0
  0
LINE
  5
5B2
330
1F
100
AcDbEntity
  8
1外形線
100
AcDbLine
 10
176.516042214151
 20
196.456458184263
 30
0.0
 11
176.516042214151
 21
225.9674541531846
 31
0.0
  0
LINE
  5
5B3
330
1F
100
AcDbEntity
  8
1外形線
100
AcDbLine
 10
182.8638118049213
 20
196.456458184263
 30
0.0
 11
182.8638118049213
 21
225.9674541531846
 31
0.0
  0
LINE
  5
5B4
330
1F
100
AcDbEntity
  8
1外形線
100
AcDbLine
 10
183.4348348350811
 20
196.456458184263
 30
0.0
 11
183.4348348350811
 21
225.9674541531846
 31
0.0
  0
LINE
  5
5B5
330
1F
100
AcDbEntity
  8
1外形線
100
AcDbLine
 10
189.4784856489761
 20
225.9674541531846
 30
0.0
 11
189.4784856489761
 21
196.456458184263
 31
0.0
  0
LINE
  5
5B6
330
1F
100
AcDbEntity
  8
1外形線
100
AcDbLine
 10
182.2926617473553
 20
185.5674541531846
 30
0.0
 11
173.0038353642276
 21
168.4564581842615
 31
0.0
  0
LINE
  5
5B7
330
1F
100
AcDbEntity
  8
1外形線
100
AcDbLine
 10
172.4762788740671
 20
168.4564581842615
 30
0.0
 11
181.7651052571959
 21
185.5674541531846
 31
0.0
  0
CIRCLE
  5
5B8
330
1F
100
AcDbEntity
  8
1外形線
100
AcDbCircle
 10
180.2784856489769
 20
189.1674541531846
 30
0.0
 40
1.28
  0
ARC
  5
5B9
330
1F
100
AcDbEntity
  8
1外形線
100
AcDbCircle
 10
180.2784856489769
 20
189.1674541531846
 30
0.0
 40
3.600000000000021
100
AcDbArc
 50
90.0
 51
270.0
  0
CIRCLE
  5
5BA
330
1F
100
AcDbEntity
  8
1外形線
100
AcDbCircle
 10
180.2784856489769
 20
189.1674541531846
 30
0.0
 40
1.6
  0
LINE
  5
5BB
330
1F
100
AcDbEntity
  8
1外形線
100
AcDbLine
 10
189.4784856489769
 20
196.456458184263
 30
0.0
 11
174.2784856489769
 21
168.4564581842617
 31
0.0
  0
LINE
  5
5BC
330
1F
100
AcDbEntity
  8
1外形線
100
AcDbLine
 10
177.9757509657082
 20
186.4002510564701
 30
0.0
 11
168.2348348350814
 21
168.4564581842615
 31
0.0
  0
LINE
  5
5BD
330
1F
100
AcDbEntity
  8
1外形線
100
AcDbLine
 10
177.6007241685876
 20
186.7612967489113
 30
0.0
 11
167.663811804921
 21
168.4564581842617
 31
0.0
  0
LINE
  5
5BE
330
1F
100
AcDbEntity
  8
1外形線
100
AcDbLine
 10
185.673676685767
 20
192.7674541531845
 30
0.0
 11
187.6762788740666
 21
196.456458184263
 31
0.0
  0
LINE
  5
5BF
330
1F
100
AcDbEntity
  8
1外形線
100
AcDbLine
 10
188.2038353642253
 20
196.456458184263
 30
0.0
 11
186.201233175926
 21
192.7674541531845
 31
0.0
  0
LINE
  5
5C0
330
1F
100
AcDbEntity
  8
1外形線
100
AcDbLine
 10
183.4348348350811
 20
196.4564581842629
 30
0.0
 11
181.4322326467815
 21
192.7674541531846
 31
0.0
  0
LINE
  5
5C1
330
1F
100
AcDbEntity
  8
1外形線
100
AcDbLine
 10
182.8638118049213
 20
196.4564581842629
 30
0.0
 11
180.8612096166217
 21
192.7674541531845
 31
0.0
  0
LINE
  5
5C2
330
1F
100
AcDbEntity
  8
1外形線
100
AcDbLine
 10
180.2784856489769
 20
192.7674541531846
 30
0.0
 11
187.4758834606773
 21
192.7674541531845
 31
0.0
  0
LINE
  5
5C3
330
1F
100
AcDbEntity
  8
1外形線
100
AcDbLine
 10
180.2784856489769
 20
185.5674541531846
 30
0.0
 11
183.5673120321061
 21
185.5674541531846
 31
0.0
  0
LINE
  5
5C4
330
1F
100
AcDbEntity
  8
1外形線
100
AcDbLine
 10
190.278485648977
 20
228.3674541531846
 30
0.0
 11
190.278485648977
 21
226.7674541531845
 31
0.0
  0
ARC
  5
5C5
330
1F
100
AcDbEntity
  8
1外形線
100
AcDbCircle
 10
189.4784856489769
 20
226.7674541531845
 30
0.0
 40
0.8
100
AcDbArc
 50
270.0
 51
0.0
  0
ARC
  5
5C6
330
1F
100
AcDbEntity
  8
1外形線
100
AcDbCircle
 10
189.4784856489769
 20
228.3674541531846
 30
0.0
 40
0.8
100
AcDbArc
 50
0.0
 51
90.0
  0
LINE
  5
5C7
330
1F
100
AcDbEntity
  8
1外形線
100
AcDbLine
 10
174.0026017880473
 20
326.5579689113111
 30
0.0
 11
161.2097085692349
 21
325.8661578646568
 31
0.0
  0
LINE
  5
5C8
330
1F
100
AcDbEntity
  8
1外形線
100
AcDbLine
 10
173.2879708908508
 20
325.8433380141152
 30
0.0
 11
160.4953849095234
 21
325.2265249647529
 31
0.0
  0
LINE
  5
5C9
330
1F
100
AcDbEntity
  8
1外形線
100
AcDbLine
 10
166.3277071465341
 20
321.1926384658779
 30
0.0
 11
153.2102730042036
 21
320.8559373177237
 31
0.0
  0
LINE
  5
5CA
330
1F
100
AcDbEntity
  8
1外形線
100
AcDbLine
 10
165.3939968826995
 20
320.7358544652664
 30
0.0
 11
152.2769641654951
 21
320.5155061209924
 31
0.0
  0
ARC
  5
5CB
330
1F
100
AcDbEntity
  8
1外形線
100
AcDbCircle
 10
142.678485648977
 20
343.1674541531845
 30
0.0
 40
22.0
100
AcDbArc
 50
270.0
 51
0.0
  0
ARC
  5
5CC
330
1F
100
AcDbEntity
  8
1外形線
100
AcDbCircle
 10
144.1784856489769
 20
344.1674541531845
 30
0.0
 40
25.0
100
AcDbArc
 50
270.0
 51
0.0
  0
ARC
  5
5CD
330
1F
100
AcDbEntity
  8
1外形線
100
AcDbCircle
 10
156.6784856489769
 20
344.1674541531845
 30
0.0
 40
25.0
100
AcDbArc
 50
270.0
 51
0.0
  0
ARC
  5
5CE
330
1F
100
AcDbEntity
  8
1外形線
100
AcDbCircle
 10
156.6784856489769
 20
343.1674541531845
 30
0.0
 40
24.0
100
AcDbArc
 50
270.0
 51
0.0
  0
LINE
  5
5CF
330
1F
100
AcDbEntity
  8
1外形線
100
AcDbLine
 10
164.4754313554429
 20
390.9146956845473
 30
0.0
 11
151.4449652266142
 21
383.1454386437111
 31
0.0
  0
LINE
  5
5D0
330
1F
100
AcDbEntity
  8
1外形線
100
AcDbLine
 10
163.5428344263174
 20
391.3009899808185
 30
0.0
 11
150.5037822875481
 21
383.4978825296206
 31
0.0
  0
LINE
  5
5D1
330
1F
100
AcDbEntity
  8
1外形線
100
AcDbLine
 10
166.4999778169515
 20
380.8687875823051
 30
0.0
 11
160.6535635902706
 21
377.3115497785965
 31
0.0
  0
LINE
  5
5D2
330
1F
100
AcDbEntity
  8
1外形線
100
AcDbLine
 10
166.2219498410805
 20
381.823873685517
 30
0.0
 11
159.9278808155577
 21
377.9700293910303
 31
0.0
  0
ARC
  5
5D3
330
1F
100
AcDbEntity
  8
1外形線
100
AcDbCircle
 10
153.678485648977
 20
366.1674541531847
 30
0.0
 40
28.0
100
AcDbArc
 50
0.0
 51
90.0
  0
ARC
  5
5D4
330
1F
100
AcDbEntity
  8
1外形線
100
AcDbCircle
 10
153.6784856489769
 20
366.1674541531847
 30
0.0
 40
27.0
100
AcDbArc
 50
0.0
 51
90.0
  0
ARC
  5
5D5
330
1F
100
AcDbEntity
  8
1外形線
100
AcDbCircle
 10
140.8059637307552
 20
356.1674541531845
 30
0.0
 40
29.0
100
AcDbArc
 50
11.9405439606082
 51
89.99998314729088
  0
ARC
  5
5D6
330
1F
100
AcDbEntity
  8
1外形線
100
AcDbCircle
 10
140.6784856489769
 20
357.1674541531845
 30
0.0
 40
25.0
100
AcDbArc
 50
16.260204708312
 51
90.00001236396267
  0
LINE
  5
5D7
330
1F
100
AcDbEntity
  8
1外形線
100
AcDbLine
 10
156.6784856489769
 20
319.1674541531846
 30
0.0
 11
127.1784856489769
 21
319.1674541531846
 31
0.0
  0
LINE
  5
5D8
330
1F
100
AcDbEntity
  8
1外形線
100
AcDbLine
 10
151.8436370388887
 20
323.1674541531846
 30
0.0
 11
127.1784856489769
 21
323.1674541531846
 31
0.0
  0
LINE
  5
5D9
330
1F
100
AcDbEntity
  8
1外形線
100
AcDbLine
 10
142.678485648977
 20
321.1674541531846
 30
0.0
 11
129.4284856489769
 21
321.1674541531846
 31
0.0
  0
LINE
  5
5DA
330
1F
100
AcDbEntity
  8
1外形線
100
AcDbLine
 10
129.4284856489769
 20
323.1674541531846
 30
0.0
 11
129.4284856489769
 21
319.1674541531846
 31
0.0
  0
LINE
  5
5DB
330
1F
100
AcDbEntity
  8
1外形線
100
AcDbLine
 10
127.1784856489769
 20
394.1674541531847
 30
0.0
 11
153.678485648977
 21
394.1674541531847
 31
0.0
  0
LINE
  5
5DC
330
1F
100
AcDbEntity
  8
1外形線
100
AcDbLine
 10
153.6784856489769
 20
393.1674541531847
 30
0.0
 11
127.1784856489769
 21
393.1674541531847
 31
0.0
  0
LINE
  5
5DD
330
1F
100
AcDbEntity
  8
1外形線
100
AcDbLine
 10
140.8059722606777
 20
385.1674541531847
 30
0.0
 11
127.1784856489769
 21
385.1674541531847
 31
0.0
  0
LINE
  5
5DE
330
1F
100
AcDbEntity
  8
1外形線
100
AcDbLine
 10
127.1784856489769
 20
382.1674541531847
 30
0.0
 11
140.6784802541804
 21
382.1674541531847
 31
0.0
  0
LINE
  5
5DF
330
1F
100
AcDbEntity
  8
1外形線
100
AcDbLine
 10
180.6784856489769
 20
343.1674541531847
 30
0.0
 11
180.6784856489769
 21
358.1674541531847
 31
0.0
  0
LINE
  5
5E0
330
1F
100
AcDbEntity
  8
1外形線
100
AcDbLine
 10
169.1784856489769
 20
344.1674541531847
 30
0.0
 11
169.1784856489769
 21
356.1674541531847
 31
0.0
  0
LINE
  5
5E1
330
1F
100
AcDbEntity
  8
1外形線
100
AcDbLine
 10
164.6784856489769
 20
364.1674541531847
 30
0.0
 11
164.678485648977
 21
343.1674541531846
 31
0.0
  0
LINE
  5
5E2
330
1F
100
AcDbEntity
  8
1外形線
100
AcDbLine
 10
181.678485648977
 20
358.1674541531847
 30
0.0
 11
181.6784856489769
 21
344.1674541531847
 31
0.0
  0
LINE
  5
5E3
330
1F
100
AcDbEntity
  8
1外形線
100
AcDbLine
 10
162.6784856489769
 20
356.1674541531847
 30
0.0
 11
162.6784856489769
 21
334.0023027632728
 31
0.0
  0
LINE
  5
5E4
330
1F
100
AcDbEntity
  8
1外形線
100
AcDbLine
 10
179.3135341955037
 20
335.1890722811273
 30
0.0
 11
166.7374137280167
 21
333.392726132267
 31
0.0
  0
LINE
  5
5E5
330
1F
100
AcDbEntity
  8
1外形線
100
AcDbLine
 10
178.6533013362818
 20
333.5182326556243
 30
0.0
 11
166.0774647192219
 21
332.1078224970775
 31
0.0
  0
LINE
  5
5E6
330
1F
100
AcDbEntity
  8
1外形線
100
AcDbLine
 10
180.6784856489769
 20
364.1674541531847
 30
0.0
 11
179.1784856489769
 21
361.1674541531847
 31
0.0
  0
LINE
  5
5E7
330
1F
100
AcDbEntity
  8
1外形線
100
AcDbLine
 10
180.6784856489769
 20
358.1674541531847
 30
0.0
 11
179.1784856489769
 21
361.1674541531847
 31
0.0
  0
LINE
  5
5E8
330
1F
100
AcDbEntity
  8
1外形線
100
AcDbLine
 10
180.678485648977
 20
364.1674541531847
 30
0.0
 11
169.145330813849
 21
362.3221493795641
 31
0.0
  0
LINE
  5
5E9
330
1F
100
AcDbEntity
  8
1外形線
100
AcDbLine
 10
180.6784856489769
 20
358.1674541531847
 30
0.0
 11
168.1784856489769
 21
356.1674541531847
 31
0.0
  0
ARC
  5
5EA
330
1F
100
AcDbEntity
  8
1外形線
100
AcDbCircle
 10
160.3881328048435
 20
366.6920430457148
 30
0.0
 40
18.31273159920024
100
AcDbArc
 50
8.273252304253116
 51
62.65563095067542
  0
ARC
  5
5EB
330
1F
100
AcDbEntity
  8
1外形線
100
AcDbCircle
 10
154.7631328048435
 20
366.6920430457147
 30
0.0
 40
18.31273159920024
100
AcDbArc
 50
8.273252304253116
 51
48.84712294557921
  0
LINE
  5
5EC
330
1F
100
AcDbEntity
  8
1外形線
100
AcDbLine
 10
179.1784856489769
 20
361.1674541531847
 30
0.0
 11
166.6784856489769
 21
359.1674541531847
 31
0.0
  0
LINE
  5
5ED
330
1F
100
AcDbEntity
  8
1外形線
100
AcDbLine
 10
171.9205281154555
 20
373.0935994798735
 30
0.0
 11
166.3979450415598
 21
369.8074868726254
 31
0.0
  0
LINE
  5
5EE
330
1F
100
AcDbEntity
  8
1外形線
100
AcDbLine
 10
172.4268327173526
 20
371.5242106778648
 30
0.0
 11
167.0631910326943
 21
368.4783442271907
 31
0.0
  0
LINE
  5
5EF
330
1F
100
AcDbEntity
  8
1外形線
100
AcDbLine
 10
166.1784856489769
 20
359.1674541531847
 30
0.0
 11
166.1784856489769
 21
364.1674541531847
 31
0.0
  0
LINE
  5
5F0
330
1F
100
AcDbEntity
  8
1外形線
100
AcDbLine
 10
168.1784856489769
 20
362.1674541531847
 30
0.0
 11
166.6784856489769
 21
359.1674541531847
 31
0.0
  0
LINE
  5
5F1
330
1F
100
AcDbEntity
  8
1外形線
100
AcDbLine
 10
162.6784856489769
 20
359.1674541531847
 30
0.0
 11
162.6784856489769
 21
369.0417962402226
 31
0.0
  0
LINE
  5
5F2
330
1F
100
AcDbEntity
  8
1外形線
100
AcDbLine
 10
164.6784856489769
 20
356.1674541531847
 30
0.0
 11
162.678485648977
 21
356.1674541531847
 31
0.0
  0
LINE
  5
5F3
330
1F
100
AcDbEntity
  8
1外形線
100
AcDbLine
 10
164.6784856489769
 20
359.1674541531847
 30
0.0
 11
162.6784856489769
 21
359.1674541531847
 31
0.0
  0
LINE
  5
5F4
330
1F
100
AcDbEntity
  8
1外形線
100
AcDbLine
 10
169.1784856489769
 20
356.1674541531847
 30
0.0
 11
168.1784856489769
 21
356.1674541531847
 31
0.0
  0
LINE
  5
5F5
330
1F
100
AcDbEntity
  8
1外形線
100
AcDbLine
 10
166.6784856489769
 20
359.1674541531847
 30
0.0
 11
166.1784856489769
 21
359.1674541531847
 31
0.0
  0
LINE
  5
5F6
330
1F
100
AcDbEntity
  8
1外形線
100
AcDbLine
 10
168.1784856489769
 20
356.1674541531847
 30
0.0
 11
166.6784856489769
 21
359.1674541531847
 31
0.0
  0
LINE
  5
5F7
330
1F
100
AcDbEntity
  8
1外形線
100
AcDbLine
 10
166.1784856489769
 20
364.1674541531847
 30
0.0
 11
164.6784856489769
 21
364.1674541531847
 31
0.0
  0
LINE
  5
5F8
330
1F
100
AcDbEntity
  8
1外形線
100
AcDbLine
 10
169.1784856489769
 20
362.1674541531847
 30
0.0
 11
168.1784856489769
 21
362.1674541531847
 31
0.0
  0
LINE
  5
5F9
330
1F
100
AcDbEntity
  8
1外形線
100
AcDbLine
 10
179.1183523942472
 20
364.3879795791161
 30
0.0
 11
173.4933523942473
 21
364.3879795791161
 31
0.0
  0
LINE
  5
5FA
330
1F
100
AcDbEntity
  8
1外形線
100
AcDbLine
 10
172.7132813395525
 20
369.302909590672
 30
0.0
 11
172.7132813395525
 21
369.302909590672
 31
0.0
  0
LINE
  5
5FB
330
1F
100
AcDbEntity
  8
1外形線
100
AcDbLine
 10
173.4933523942473
 20
364.3879795791161
 30
0.0
 11
172.8852851214936
 21
369.3271396353069
 31
0.0
  0
LINE
  5
5FC
330
1F
100
AcDbEntity
  8
1外形線
100
AcDbLine
 10
179.0851727930374
 20
375.3053011842866
 30
0.0
 11
177.100726247922
 21
374.178387883532
 31
0.0
  0
LINE
  5
5FD
330
1F
100
AcDbEntity
  8
1外形線
100
AcDbLine
 10
179.1183523942472
 20
364.3879795791164
 30
0.0
 11
178.5102851214936
 21
369.327139635307
 31
0.0
  0
LINE
  5
5FE
330
1F
100
AcDbEntity
  8
1外形線
100
AcDbLine
 10
172.4101433439062
 20
385.6128906358138
 30
0.0
 11
168.3729877328158
 21
383.1409493439938
 31
0.0
  0
LINE
  5
5FF
330
1F
100
AcDbEntity
  8
1外形線
100
AcDbLine
 10
173.1239221316075
 20
384.8991118481127
 30
0.0
 11
169.4005003756861
 21
382.6336041170884
 31
0.0
  0
ARC
  5
600
330
1F
100
AcDbEntity
  8
1外形線
100
AcDbCircle
 10
168.1279554754008
 20
381.865768589833
 30
0.0
 40
1.909000362945792
100
AcDbArc
 50
187.3304795405373
 51
230.740667467065
  0
ARC
  5
601
330
1F
100
AcDbEntity
  8
1外形線
100
AcDbCircle
 10
167.7654298501341
 20
381.8191319558657
 30
0.0
 40
1.543487292587506
100
AcDbArc
 50
134.1689450898874
 51
187.3304795405373
  0
ARC
  5
602
330
1F
100
AcDbEntity
  8
1外形線
100
AcDbCircle
 10
167.7724179235027
 20
381.1447995338961
 30
0.0
 40
2.084537876887137
100
AcDbArc
 50
60.46953374194135
 51
121.2838006595352
  0
LINE
  5
603
330
1F
100
AcDbEntity
  8
1外形線
100
AcDbLine
 10
178.4257271803399
 20
376.9643998596489
 30
0.0
 11
176.3242835263277
 21
375.7139740367196
 31
0.0
  0
LINE
  5
604
330
1F
100
AcDbEntity
  8
1外形線
100
AcDbLine
 10
181.6784856489769
 20
358.1674541531847
 30
0.0
 11
180.6784856489769
 21
358.1674541531847
 31
0.0
  0
LINE
  5
605
330
1F
100
AcDbEntity
  8
1外形線
100
AcDbLine
 10
181.678485648977
 20
366.1674541531847
 30
0.0
 11
181.678485648977
 21
364.1674541531847
 31
0.0
  0
LINE
  5
606
330
1F
100
AcDbEntity
  8
1外形線
100
AcDbLine
 10
181.6784856489769
 20
364.1674541531847
 30
0.0
 11
180.6784856489769
 21
364.1674541531847
 31
0.0
  0
LINE
  5
607
330
1F
100
AcDbEntity
  8
1外形線
100
AcDbLine
 10
180.6784856489769
 20
364.1674541531847
 30
0.0
 11
180.6784856489769
 21
366.1674541531847
 31
0.0
  0
LINE
  5
608
330
1F
100
AcDbEntity
  8
1外形線
100
AcDbLine
 10
231.6746988565444
 20
384.1674541531847
 30
0.0
 11
215.6784856489769
 21
384.1674541531847
 31
0.0
  0
LINE
  5
609
330
1F
100
AcDbEntity
  8
1外形線
100
AcDbLine
 10
215.6784856489752
 20
382.7220181866362
 30
0.0
 11
232.678485648977
 21
382.7220181866362
 31
0.0
  0
LINE
  5
60A
330
1F
100
AcDbEntity
  8
1外形線
100
AcDbLine
 10
215.6784856489753
 20
382.076894423553
 30
0.0
 11
232.678485648977
 21
382.076894423553
 31
0.0
  0
LINE
  5
60B
330
1F
100
AcDbEntity
  8
1外形線
100
AcDbLine
 10
215.6784856489753
 20
376.6425320944782
 30
0.0
 11
232.678485648977
 21
376.6425320944782
 31
0.0
  0
LINE
  5
60C
330
1F
100
AcDbEntity
  8
1外形線
100
AcDbLine
 10
215.6784856489753
 20
375.9407339533139
 30
0.0
 11
232.678485648977
 21
375.9407339533139
 31
0.0
  0
LINE
  5
60D
330
1F
100
AcDbEntity
  8
1外形線
100
AcDbLine
 10
231.6746988565444
 20
359.1674541531847
 30
0.0
 11
211.678485648977
 21
359.1674541531847
 31
0.0
  0
LINE
  5
60E
330
1F
100
AcDbEntity
  8
1外形線
100
AcDbLine
 10
231.6746988565444
 20
362.1674541531847
 30
0.0
 11
211.678485648977
 21
362.1674541531847
 31
0.0
  0
LINE
  5
60F
330
1F
100
AcDbEntity
  8
1外形線
100
AcDbLine
 10
231.824325719901
 20
356.1674541531847
 30
0.0
 11
211.678485648977
 21
356.1674541531847
 31
0.0
  0
LINE
  5
610
330
1F
100
AcDbEntity
  8
1外形線
100
AcDbLine
 10
232.678485648977
 20
335.0689756366722
 30
0.0
 11
215.6784856489766
 21
335.0689756366722
 31
0.0
  0
LINE
  5
611
330
1F
100
AcDbEntity
  8
1外形線
100
AcDbLine
 10
215.6784856489766
 20
334.13566679796
 30
0.0
 11
232.678485648977
 21
334.13566679796
 31
0.0
  0
LINE
  5
612
330
1F
100
AcDbEntity
  8
1外形線
100
AcDbLine
 10
232.678485648977
 20
326.8505548926367
 30
0.0
 11
215.6784856489768
 21
326.8505548926367
 31
0.0
  0
LINE
  5
613
330
1F
100
AcDbEntity
  8
1外形線
100
AcDbLine
 10
215.6784856489768
 20
326.1362312329266
 30
0.0
 11
232.678485648977
 21
326.1362312329266
 31
0.0
  0
LINE
  5
614
330
1F
100
AcDbEntity
  8
1外形線
100
AcDbLine
 10
215.6784856489756
 20
367.5790176553666
 30
0.0
 11
232.678485648977
 21
367.5790176553666
 31
0.0
  0
LINE
  5
615
330
1F
100
AcDbEntity
  8
1外形線
100
AcDbLine
 10
215.6784856489756
 20
366.6501564018557
 30
0.0
 11
232.678485648977
 21
366.6501564018557
 31
0.0
  0
LINE
  5
616
330
1F
100
AcDbEntity
  8
1外形線
100
AcDbLine
 10
251.525071993211
 20
364.1674541531847
 30
0.0
 11
231.5250719932024
 21
362.1674541531845
 31
0.0
  0
LINE
  5
617
330
1F
100
AcDbEntity
  8
1外形線
100
AcDbLine
 10
232.678485648977
 20
321.2684750829414
 30
0.0
 11
215.6784856489769
 21
321.2684750829414
 31
0.0
  0
LINE
  5
618
330
1F
100
AcDbEntity
  8
1外形線
100
AcDbLine
 10
211.678485648977
 20
319.1674541531846
 30
0.0
 11
211.678485648977
 21
384.1674541531847
 31
0.0
  0
LINE
  5
619
330
1F
100
AcDbEntity
  8
1外形線
100
AcDbLine
 10
215.678485648976
 20
356.1674541531847
 30
0.0
 11
215.678485648977
 21
319.1674541531846
 31
0.0
  0
LINE
  5
61A
330
1F
100
AcDbEntity
  8
1外形線
100
AcDbLine
 10
209.178485648977
 20
323.1674541531846
 30
0.0
 11
211.678485648977
 21
323.1674541531846
 31
0.0
  0
ARC
  5
61B
330
1F
100
AcDbEntity
  8
1外形線
100
AcDbCircle
 10
209.178485648977
 20
322.1674541531846
 30
0.0
 40
1.0
100
AcDbArc
 50
90.0
 51
180.0
  0
LINE
  5
61C
330
1F
100
AcDbEntity
  8
1外形線
100
AcDbLine
 10
208.178485648977
 20
319.1674541531846
 30
0.0
 11
208.178485648977
 21
322.1674541531846
 31
0.0
  0
LINE
  5
61D
330
1F
100
AcDbEntity
  8
1外形線
100
AcDbLine
 10
214.678485648977
 20
385.1674541531847
 30
0.0
 11
212.678485648977
 21
385.1674541531847
 31
0.0
  0
ARC
  5
61E
330
1F
100
AcDbEntity
  8
1外形線
100
AcDbCircle
 10
212.678485648977
 20
384.1674541531847
 30
0.0
 40
1.0
100
AcDbArc
 50
90.0
 51
180.0
  0
LINE
  5
61F
330
1F
100
AcDbEntity
  8
1外形線
100
AcDbLine
 10
215.6784856489752
 20
384.1674541531847
 30
0.0
 11
215.6784856489758
 21
362.1674541531847
 31
0.0
  0
ARC
  5
620
330
1F
100
AcDbEntity
  8
1外形線
100
AcDbCircle
 10
214.678485648977
 20
384.1674541531847
 30
0.0
 40
1.0
100
AcDbArc
 50
0.0
 51
90.0
  0
LINE
  5
621
330
1F
100
AcDbEntity
  8
1外形線
100
AcDbLine
 10
252.678485648977
 20
319.1674541531846
 30
0.0
 11
252.678485648977
 21
358.1674541531847
 31
0.0
  0
LINE
  5
622
330
1F
100
AcDbEntity
  8
1外形線
100
AcDbLine
 10
232.678485648977
 20
319.1674541531846
 30
0.0
 11
232.678485648977
 21
356.2528701460922
 31
0.0
  0
LINE
  5
623
330
1F
100
AcDbEntity
  8
1外形線
100
AcDbLine
 10
252.678485648977
 20
334.4519429194609
 30
0.0
 11
232.678485648977
 21
335.0689756366722
 31
0.0
  0
LINE
  5
624
330
1F
100
AcDbEntity
  8
1外形線
100
AcDbLine
 10
232.678485648977
 20
334.13566679796
 30
0.0
 11
252.678485648977
 21
333.5182326556274
 31
0.0
  0
LINE
  5
625
330
1F
100
AcDbEntity
  8
1外形線
100
AcDbLine
 10
252.678485648977
 20
326.5579689113132
 30
0.0
 11
232.678485648977
 21
326.8505548926367
 31
0.0
  0
LINE
  5
626
330
1F
100
AcDbEntity
  8
1外形線
100
AcDbLine
 10
252.678485648977
 20
321.1926384658783
 30
0.0
 11
232.678485648977
 21
321.2684750829414
 31
0.0
  0
LINE
  5
627
330
1F
100
AcDbEntity
  8
1外形線
100
AcDbLine
 10
232.678485648977
 20
326.1362312329266
 30
0.0
 11
252.678485648977
 21
325.8433380141142
 31
0.0
  0
LWPOLYLINE
  5
628
330
1F
100
AcDbEntity
  8
1外形線
100
AcDbPolyline
 90
        9
 70
     0
 43
0.0
 10
240.178485648977
 20
377.5652616808991
 42
-0.076436157735182
 10
240.5368252076189
 20
379.895611447737
 42
-0.0864659161872275
 10
241.4965051336376
 20
381.7495899855547
 42
-0.1058626089830949
 10
243.1350583619776
 20
383.1571186864914
 42
-0.1464344516271443
 10
244.678485648977
 20
383.4827955187647
 42
-0.1253403410806691
 10
246.3334521878148
 20
383.0613056878485
 42
-0.1058626089830698
 10
247.8604661643164
 20
381.7495899855547
 42
-0.0864659161872402
 10
248.8201460903352
 20
379.8956114477368
 42
-0.0764361577351852
 10
249.1784856489769
 20
377.5652616808991
 42
-0.0764361577351737
  0
LINE
  5
629
330
1F
100
AcDbEntity
  8
1外形線
100
AcDbLine
 10
249.178485648977
 20
364.387979579116
 30
0.0
 11
240.178485648977
 21
364.3879795791161
 31
0.0
  0
LINE
  5
62A
330
1F
100
AcDbEntity
  8
1外形線
100
AcDbLine
 10
251.6746988565521
 20
393.1674541531847
 30
0.0
 11
231.6746988565444
 21
384.1674541531847
 31
0.0
  0
LINE
  5
62B
330
1F
100
AcDbEntity
  8
1外形線
100
AcDbLine
 10
251.6746988565521
 20
361.1674541531847
 30
0.0
 11
231.6746988565444
 21
359.1674541531847
 31
0.0
  0
LINE
  5
62C
330
1F
100
AcDbEntity
  8
1外形線
100
AcDbLine
 10
251.8243257199097
 20
358.1674541531847
 30
0.0
 11
231.824325719901
 21
356.1674541531847
 31
0.0
  0
LINE
  5
62D
330
1F
100
AcDbEntity
  8
1外形線
100
AcDbLine
 10
252.678485648977
 20
391.5741412972455
 30
0.0
 11
232.678485648977
 21
382.7220181866362
 31
0.0
  0
LINE
  5
62E
330
1F
100
AcDbEntity
  8
1外形線
100
AcDbLine
 10
252.678485648977
 20
390.9146956845485
 30
0.0
 11
232.678485648977
 21
382.076894423553
 31
0.0
  0
LINE
  5
62F
330
1F
100
AcDbEntity
  8
1外形線
100
AcDbLine
 10
252.678485648977
 20
385.6128906358152
 30
0.0
 11
246.61683088528
 21
382.8941298066069
 31
0.0
  0
LINE
  5
630
330
1F
100
AcDbEntity
  8
1外形線
100
AcDbLine
 10
252.678485648977
 20
384.8991118481137
 30
0.0
 11
247.2090071151931
 21
382.449229068457
 31
0.0
  0
LINE
  5
631
330
1F
100
AcDbEntity
  8
1外形線
100
AcDbLine
 10
232.678485648977
 20
384.6191582097791
 30
0.0
 11
232.678485648977
 21
362.2827955187619
 31
0.0
  0
LINE
  5
632
330
1F
100
AcDbEntity
  8
1外形線
100
AcDbLine
 10
240.178485648977
 20
377.5652616808991
 30
0.0
 11
240.1784856489769
 21
364.387979579116
 31
0.0
  0
LINE
  5
633
330
1F
100
AcDbEntity
  8
1外形線
100
AcDbLine
 10
240.1784856489769
 20
371.0985359819732
 30
0.0
 11
232.678485648977
 21
367.5790176553667
 31
0.0
  0
LINE
  5
634
330
1F
100
AcDbEntity
  8
1外形線
100
AcDbLine
 10
240.1784856489769
 20
370.1682738501075
 30
0.0
 11
232.678485648977
 21
366.6501564018557
 31
0.0
  0
LINE
  5
635
330
1F
100
AcDbEntity
  8
1外形線
100
AcDbLine
 10
240.64803627576
 20
380.2170184212572
 30
0.0
 11
232.678485648977
 21
376.6425320944782
 31
0.0
  0
LINE
  5
636
330
1F
100
AcDbEntity
  8
1外形線
100
AcDbLine
 10
240.398255465603
 20
379.3985647172242
 30
0.0
 11
232.678485648977
 21
375.9407339533139
 31
0.0
  0
LINE
  5
637
330
1F
100
AcDbEntity
  8
1外形線
100
AcDbLine
 10
249.178485648977
 20
377.5652589835009
 30
0.0
 11
249.1784856489769
 21
364.387979579116
 31
0.0
  0
LINE
  5
638
330
1F
100
AcDbEntity
  8
1外形線
100
AcDbLine
 10
252.6784856489771
 20
393.1674541531847
 30
0.0
 11
252.678485648977
 21
364.1674541531847
 31
0.0
  0
LINE
  5
639
330
1F
100
AcDbEntity
  8
1外形線
100
AcDbLine
 10
252.678485648977
 20
376.9643998596508
 30
0.0
 11
249.1784856489769
 21
375.3219579739011
 31
0.0
  0
LINE
  5
63A
330
1F
100
AcDbEntity
  8
1外形線
100
AcDbLine
 10
252.678485648977
 20
376.031802930527
 30
0.0
 11
249.178485648977
 21
374.3900147880095
 31
0.0
  0
LINE
  5
63B
330
1F
100
AcDbEntity
  8
1外形線
100
AcDbLine
 10
251.525071993211
 20
364.1674541531847
 30
0.0
 11
249.178485648977
 21
363.9327955187612
 31
0.0
  0
LINE
  5
63C
330
1F
100
AcDbEntity
  8
1外形線
100
AcDbLine
 10
297.078485648977
 20
118.3674541531845
 30
0.0
 11
297.078485648977
 21
92.76745415318449
 31
0.0
  0
LINE
  5
63D
330
1F
100
AcDbEntity
  8
1外形線
100
AcDbLine
 10
267.5674896800524
 20
118.3674541531845
 30
0.0
 11
267.5674896800524
 21
92.76745415318456
 31
0.0
  0
LINE
  5
63E
330
1F
100
AcDbEntity
  8
1外形線
100
AcDbLine
 10
300.278485648977
 20
52.7674541531846
 30
0.0
 11
300.278485648977
 21
118.3674541531845
 31
0.0
  0
LINE
  5
63F
330
1F
100
AcDbEntity
  8
1外形線
100
AcDbLine
 10
300.278485648977
 20
90.36745415318451
 30
0.0
 11
267.5674896800524
 21
90.36745415318451
 31
0.0
  0
LINE
  5
640
330
1F
100
AcDbEntity
  8
1外形線
100
AcDbLine
 10
300.278485648977
 20
92.76745415318449
 30
0.0
 11
267.5674896800524
 21
92.76745415318449
 31
0.0
  0
LINE
  5
641
330
1F
100
AcDbEntity
  8
1外形線
100
AcDbLine
 10
300.278485648977
 20
87.96745415318442
 30
0.0
 11
267.5674896800524
 21
87.96745415318442
 31
0.0
  0
LINE
  5
642
330
1F
100
AcDbEntity
  8
1外形線
100
AcDbLine
 10
267.5674896800524
 20
104.6589331750584
 30
0.0
 11
297.078485648977
 21
104.6589331750584
 31
0.0
  0
LINE
  5
643
330
1F
100
AcDbEntity
  8
1外形線
100
AcDbLine
 10
267.5674896800524
 20
105.4050107183583
 30
0.0
 11
297.078485648977
 21
105.4050107183583
 31
0.0
  0
LINE
  5
644
330
1F
100
AcDbEntity
  8
1外形線
100
AcDbLine
 10
267.5674896800525
 20
65.67597513130927
 30
0.0
 11
297.078485648977
 21
65.67597513130927
 31
0.0
  0
LINE
  5
645
330
1F
100
AcDbEntity
  8
1外形線
100
AcDbLine
 10
267.5674896800525
 20
64.9290069202421
 30
0.0
 11
297.078485648977
 21
64.9290069202421
 31
0.0
  0
LINE
  5
646
330
1F
100
AcDbEntity
  8
1外形線
100
AcDbLine
 10
267.5674896800525
 20
58.0111049670805
 30
0.0
 11
297.078485648977
 21
58.0111049670805
 31
0.0
  0
LINE
  5
647
330
1F
100
AcDbEntity
  8
1外形線
100
AcDbLine
 10
267.5674896800525
 20
58.58212799724102
 30
0.0
 11
297.078485648977
 21
58.58212799724102
 31
0.0
  0
LINE
  5
648
330
1F
100
AcDbEntity
  8
1外形線
100
AcDbLine
 10
267.5674896800525
 20
53.76966092809353
 30
0.0
 11
297.078485648977
 21
53.76966092809353
 31
0.0
  0
LINE
  5
649
330
1F
100
AcDbEntity
  8
1外形線
100
AcDbLine
 10
267.5674896800525
 20
53.2421044379375
 30
0.0
 11
297.078485648977
 21
53.2421044379375
 31
0.0
  0
LINE
  5
64A
330
1F
100
AcDbEntity
  8
1外形線
100
AcDbLine
 10
267.5674896800524
 20
87.96745415318442
 30
0.0
 11
267.5674896800524
 21
51.96745415318453
 31
0.0
  0
LINE
  5
64B
330
1F
100
AcDbEntity
  8
1外形線
100
AcDbLine
 10
297.078485648977
 20
87.96745415318442
 30
0.0
 11
297.078485648977
 21
51.96745415318453
 31
0.0
  0
ARC
  5
64C
330
1F
100
AcDbEntity
  8
1外形線
100
AcDbCircle
 10
299.478485648977
 20
52.7674541531846
 30
0.0
 40
0.8
100
AcDbArc
 50
270.0
 51
0.0
  0
LINE
  5
64D
330
1F
100
AcDbEntity
  8
1外形線
100
AcDbLine
 10
297.0784856489741
 20
118.3674541531845
 30
0.0
 11
267.5674896800525
 21
118.3674541531845
 31
0.0
  0
LINE
  5
64E
330
1F
100
AcDbEntity
  8
1外形線
100
AcDbLine
 10
267.5674896800524
 20
111.7527803091283
 30
0.0
 11
297.078485648977
 21
111.7527803091283
 31
0.0
  0
LINE
  5
64F
330
1F
100
AcDbEntity
  8
1外形線
100
AcDbLine
 10
267.5674896800524
 20
112.3238033392885
 30
0.0
 11
297.078485648977
 21
112.3238033392885
 31
0.0
  0
LINE
  5
650
330
1F
100
AcDbEntity
  8
1外形線
100
AcDbLine
 10
267.5674896800524
 20
116.5652473782736
 30
0.0
 11
297.078485648977
 21
116.5652473782735
 31
0.0
  0
LINE
  5
651
330
1F
100
AcDbEntity
  8
1外形線
100
AcDbLine
 10
267.5674896800524
 20
117.0928038684327
 30
0.0
 11
297.078485648977
 21
117.0928038684327
 31
0.0
  0
ARC
  5
652
330
1F
100
AcDbEntity
  8
1外形線
100
AcDbCircle
 10
297.878485648977
 20
118.3674541531845
 30
0.0
 40
0.8
100
AcDbArc
 50
90.0
 51
180.0
  0
ARC
  5
653
330
1F
100
AcDbEntity
  8
1外形線
100
AcDbCircle
 10
299.478485648977
 20
118.3674541531845
 30
0.0
 40
0.8
100
AcDbArc
 50
0.0
 51
90.0
  0
LINE
  5
654
330
1F
100
AcDbEntity
  8
1外形線
100
AcDbLine
 10
299.478485648977
 20
119.1674541531845
 30
0.0
 11
297.878485648977
 21
119.1674541531845
 31
0.0
  0
LINE
  5
655
330
1F
100
AcDbEntity
  8
1外形線
100
AcDbLine
 10
277.678485648977
 20
393.1674541531847
 30
0.0
 11
277.678485648977
 21
320.1674541531846
 31
0.0
  0
LINE
  5
656
330
1F
100
AcDbEntity
  8
1外形線
100
AcDbLine
 10
273.6784856489818
 20
358.1674541531847
 30
0.0
 11
273.678485648977
 21
319.1674541531846
 31
0.0
  0
ARC
  5
657
330
1F
100
AcDbEntity
  8
1外形線
100
AcDbCircle
 10
276.678485648977
 20
320.1674541531846
 30
0.0
 40
1.0
100
AcDbArc
 50
270.0
 51
0.0
  0
LINE
  5
658
330
1F
100
AcDbEntity
  8
1外形線
100
AcDbLine
 10
273.6784856489861
 20
393.1674541531847
 30
0.0
 11
273.6784856489826
 21
364.1674541531847
 31
0.0
  0
LINE
  5
659
330
1F
100
AcDbEntity
  8
1外形線
100
AcDbLine
 10
276.6784856489843
 20
394.1674541531847
 30
0.0
 11
274.6784856489843
 21
394.1674541531847
 31
0.0
  0
ARC
  5
65A
330
1F
100
AcDbEntity
  8
1外形線
100
AcDbCircle
 10
274.6784856489843
 20
393.1674541531847
 30
0.0
 40
1.0
100
AcDbArc
 50
90.0
 51
180.0
  0
ARC
  5
65B
330
1F
100
AcDbEntity
  8
1外形線
100
AcDbCircle
 10
276.6784856489843
 20
393.1674541531847
 30
0.0
 40
1.0
100
AcDbArc
 50
0.0
 51
90.0
  0
LINE
  5
66F
330
1F
100
AcDbEntity
  8
1外形線
100
AcDbLine
 10
166.461045153129
 20
451.524166566033
 30
0.0
 11
159.9278808155578
 21
441.0562496755915
 31
0.0
  0
LINE
  5
670
330
1F
100
AcDbEntity
  8
1外形線
100
AcDbLine
 10
160.6535635902706
 20
441.0562496755915
 30
0.0
 11
166.863909803067
 21
451.01642233977
 31
0.0
  0
LINE
  5
671
330
1F
100
AcDbEntity
  8
1外形線
100
AcDbLine
 10
151.4449652266142
 20
441.0562496755915
 30
0.0
 11
164.475431355443
 21
461.0562496755918
 31
0.0
  0
LINE
  5
672
330
1F
100
AcDbEntity
  8
1外形線
100
AcDbLine
 10
163.5428344263174
 20
461.0562496755918
 30
0.0
 11
150.5037822875481
 21
441.0562496755915
 31
0.0
  0
LINE
  5
673
330
1F
100
AcDbEntity
  8
1外形線
100
AcDbLine
 10
168.178485648977
 20
441.0562496755915
 30
0.0
 11
127.2197357703008
 21
441.0562496755915
 31
0.0
  0
LINE
  5
674
330
1F
100
AcDbEntity
  8
1外形線
100
AcDbLine
 10
180.678485648977
 20
461.0562496755919
 30
0.0
 11
127.4847071378636
 21
461.0562496755918
 31
0.0
  0
LINE
  5
675
330
1F
100
AcDbEntity
  8
1外形線
100
AcDbLine
 10
168.178485648977
 20
425.0600364680241
 30
0.0
 11
127.178485648977
 21
425.0600364680241
 31
0.0
  0
LINE
  5
676
330
1F
100
AcDbEntity
  8
1外形線
100
AcDbLine
 10
127.178485648977
 20
421.0600364680241
 30
0.0
 11
168.178485648977
 21
421.0600364680241
 31
0.0
  0
LINE
  5
677
330
1F
100
AcDbEntity
  8
1外形線
100
AcDbLine
 10
180.678485648977
 20
483.0600364680241
 30
0.0
 11
127.178485648977
 21
483.0600364680241
 31
0.0
  0
LINE
  5
678
330
1F
100
AcDbEntity
  8
1外形線
100
AcDbLine
 10
127.178485648977
 20
487.0600364680241
 30
0.0
 11
180.678485648977
 21
487.0600364680241
 31
0.0
  0
LINE
  5
679
330
1F
100
AcDbEntity
  8
1外形線
100
AcDbLine
 10
129.428485648977
 20
421.0600364680241
 30
0.0
 11
129.428485648977
 21
418.5600364680241
 31
0.0
  0
ARC
  5
67A
330
1F
100
AcDbEntity
  8
1外形線
100
AcDbCircle
 10
128.428485648977
 20
418.5600364680241
 30
0.0
 40
1.0
100
AcDbArc
 50
270.0
 51
0.0
  0
LINE
  5
67B
330
1F
100
AcDbEntity
  8
1外形線
100
AcDbLine
 10
160.6535635902706
 20
425.0600364680241
 30
0.0
 11
160.6535635902706
 21
441.0562496755915
 31
0.0
  0
LINE
  5
67C
330
1F
100
AcDbEntity
  8
1外形線
100
AcDbLine
 10
159.9278808155578
 20
441.0562496755915
 30
0.0
 11
159.9278808155578
 21
425.0600364680241
 31
0.0
  0
LINE
  5
67D
330
1F
100
AcDbEntity
  8
1外形線
100
AcDbLine
 10
151.4449652266142
 20
425.0600364680241
 30
0.0
 11
151.4449652266142
 21
441.0562496755915
 31
0.0
  0
LINE
  5
67E
330
1F
100
AcDbEntity
  8
1外形線
100
AcDbLine
 10
150.5037822875481
 20
441.0562496755915
 30
0.0
 11
150.5037822875481
 21
425.0600364680241
 31
0.0
  0
LINE
  5
67F
330
1F
100
AcDbEntity
  8
1外形線
100
AcDbLine
 10
179.0851727930374
 20
461.0562496755918
 30
0.0
 11
179.0851727930374
 21
483.0600364680241
 31
0.0
  0
LINE
  5
680
330
1F
100
AcDbEntity
  8
1外形線
100
AcDbLine
 10
178.4257271803399
 20
483.0600364680241
 30
0.0
 11
178.4257271803399
 21
461.0562496755918
 31
0.0
  0
LINE
  5
681
330
1F
100
AcDbEntity
  8
1外形線
100
AcDbLine
 10
173.1239221316076
 20
461.0562496755918
 30
0.0
 11
173.1239221316076
 21
483.0600364680241
 31
0.0
  0
LINE
  5
682
330
1F
100
AcDbEntity
  8
1外形線
100
AcDbLine
 10
172.4101433439062
 20
483.0600364680241
 30
0.0
 11
172.4101433439062
 21
461.0562496755918
 31
0.0
  0
LINE
  5
683
330
1F
100
AcDbEntity
  8
1外形線
100
AcDbLine
 10
164.475431355443
 20
461.0562496755918
 30
0.0
 11
164.475431355443
 21
483.0600364680241
 31
0.0
  0
LINE
  5
684
330
1F
100
AcDbEntity
  8
1外形線
100
AcDbLine
 10
163.5428344263174
 20
483.0600364680241
 30
0.0
 11
163.5428344263174
 21
461.0562496755918
 31
0.0
  0
LINE
  5
685
330
1F
100
AcDbEntity
  8
1外形線
100
AcDbLine
 10
180.678485648977
 20
483.0600364680241
 30
0.0
 11
180.678485648977
 21
461.0562496755918
 31
0.0
  0
LINE
  5
686
330
1F
100
AcDbEntity
  8
1外形線
100
AcDbLine
 10
180.678485648977
 20
461.0562496755918
 30
0.0
 11
168.178485648977
 21
441.0562496755915
 31
0.0
  0
LINE
  5
687
330
1F
100
AcDbEntity
  8
1外形線
100
AcDbLine
 10
167.0631910326943
 20
425.0600364680241
 30
0.0
 11
167.0631910326943
 21
441.0562496755915
 31
0.0
  0
LINE
  5
688
330
1F
100
AcDbEntity
  8
1外形線
100
AcDbLine
 10
166.3979450415598
 20
441.0562496755915
 30
0.0
 11
166.3979450415598
 21
425.0600364680241
 31
0.0
  0
LINE
  5
689
330
1F
100
AcDbEntity
  8
1外形線
100
AcDbLine
 10
168.178485648977
 20
441.0562496755915
 30
0.0
 11
168.178485648977
 21
425.0600364680241
 31
0.0
  0
LINE
  5
68A
330
1F
100
AcDbEntity
  8
1外形線
100
AcDbLine
 10
169.178485648977
 20
422.0600364680241
 30
0.0
 11
169.178485648977
 21
424.0600364680241
 31
0.0
  0
ARC
  5
68B
330
1F
100
AcDbEntity
  8
1外形線
100
AcDbCircle
 10
168.178485648977
 20
424.0600364680241
 30
0.0
 40
1.0
100
AcDbArc
 50
0.0
 51
90.0
  0
ARC
  5
68C
330
1F
100
AcDbEntity
  8
1外形線
100
AcDbCircle
 10
168.178485648977
 20
422.0600364680241
 30
0.0
 40
1.0
100
AcDbArc
 50
270.0
 51
0.0
  0
CIRCLE
  5
68D
330
1F
100
AcDbEntity
  8
1外形線
100
AcDbCircle
 10
170.178485648977
 20
454.0600364680241
 30
0.0
 40
2.0
  0
CIRCLE
  5
68E
330
1F
100
AcDbEntity
  8
1外形線
100
AcDbCircle
 10
170.178485648977
 20
454.0600364680241
 30
0.0
 40
1.6
  0
LINE
  5
68F
330
1F
100
AcDbEntity
  8
1外形線
100
AcDbLine
 10
170.178485648977
 20
449.5600364680241
 30
0.0
 11
173.4933523942473
 21
449.560036468024
 31
0.0
  0
LINE
  5
690
330
1F
100
AcDbEntity
  8
1外形線
100
AcDbLine
 10
170.178485648977
 20
458.5600364680238
 30
0.0
 11
179.1183523942471
 21
458.5600364680241
 31
0.0
  0
LINE
  5
691
330
1F
100
AcDbEntity
  8
1外形線
100
AcDbLine
 10
171.5120297862605
 20
449.5600364680241
 30
0.0
 11
166.3979450415598
 21
441.0562496755915
 31
0.0
  0
LINE
  5
692
330
1F
100
AcDbEntity
  8
1外形線
100
AcDbLine
 10
167.0631910326943
 20
441.0562496755915
 30
0.0
 11
172.1748095183178
 21
449.5600364680241
 31
0.0
  0
ARC
  5
693
330
1F
100
AcDbEntity
  8
1外形線
100
AcDbCircle
 10
170.178485648977
 20
454.0600364680241
 30
0.0
 40
4.5
100
AcDbArc
 50
90.0
 51
270.0
  0
LINE
  5
694
330
1F
100
AcDbEntity
  8
1外形線
100
AcDbLine
 10
171.5674884469077
 20
458.5600364680238
 30
0.0
 11
173.1239221316076
 21
461.0562496755918
 31
0.0
  0
LINE
  5
695
330
1F
100
AcDbEntity
  8
1外形線
100
AcDbLine
 10
172.4101433439062
 20
461.0562496755918
 30
0.0
 11
170.8522239147263
 21
458.5600364680238
 31
0.0
  0
LINE
  5
696
330
1F
100
AcDbEntity
  8
1外形線
100
AcDbLine
 10
177.584701310472
 20
458.560036468024
 30
0.0
 11
179.0851727930374
 21
461.0562496755918
 31
0.0
  0
LINE
  5
697
330
1F
100
AcDbEntity
  8
1外形線
100
AcDbLine
 10
178.4257271803399
 20
461.0562496755918
 30
0.0
 11
176.9245317487114
 21
458.560036468024
 31
0.0
  0
ARC
  5
698
330
1F
100
AcDbEntity
  8
1外形線
100
AcDbCircle
 10
180.678485648977
 20
484.060036468024
 30
0.0
 40
1.0
100
AcDbArc
 50
270.0
 51
0.0
  0
ARC
  5
699
330
1F
100
AcDbEntity
  8
1外形線
100
AcDbCircle
 10
180.678485648977
 20
486.0600364680241
 30
0.0
 40
1.0
100
AcDbArc
 50
0.0
 51
90.0
  0
LINE
  5
69A
330
1F
100
AcDbEntity
  8
1外形線
100
AcDbLine
 10
181.678485648977
 20
486.0600364680241
 30
0.0
 11
181.678485648977
 21
484.060036468024
 31
0.0
  0
ENDSEC
  0
SECTION
  2
OBJECTS
  0
DICTIONARY
  5
C
330
0
100
AcDbDictionary
281
     1
  3
ACAD_COLOR
350
757
  3
ACAD_GROUP
350
D
  3
ACAD_LAYOUT
350
1A
  3
ACAD_MATERIAL
350
756
  3
ACAD_MLINESTYLE
350
17
  3
ACAD_PLOTSETTINGS
350
19
  3
ACAD_PLOTSTYLENAME
350
E
  3
ACAD_TABLESTYLE
350
758
  3
ACDBHEADERROUNDTRIPXREC
350
762
  3
AcDbVariableDictionary
350
75D
  0
DICTIONARY
  5
74E
330
1F
100
AcDbDictionary
280
     1
281
     1
  3
ACAD_LAYOUTSELFREF
360
74F
  0
DICTIONARY
  5
74C
330
1B
100
AcDbDictionary
280
     1
281
     1
  3
ACAD_LAYOUTSELFREF
360
74D
  0
DICTIONARY
  5
757
102
{ACAD_REACTORS
330
C
102
}
330
C
100
AcDbDictionary
281
     1
  0
DICTIONARY
  5
D
102
{ACAD_REACTORS
330
C
102
}
330
C
100
AcDbDictionary
281
     1
  0
DICTIONARY
  5
1A
102
{ACAD_REACTORS
330
C
102
}
330
C
100
AcDbDictionary
281
     1
  3
Model
350
75A
  3
レイアウト1
350
75B
  0
DICTIONARY
  5
756
102
{ACAD_REACTORS
330
C
102
}
330
C
100
AcDbDictionary
281
     1
  0
DICTIONARY
  5
17
102
{ACAD_REACTORS
330
C
102
}
330
C
100
AcDbDictionary
281
     1
  3
STANDARD
350
18
  0
DICTIONARY
  5
19
102
{ACAD_REACTORS
330
C
102
}
330
C
100
AcDbDictionary
281
     1
  0
ACDBDICTIONARYWDFLT
  5
E
102
{ACAD_REACTORS
330
C
102
}
330
C
100
AcDbDictionary
281
     1
  3
Normal
350
F
100
AcDbDictionaryWithDefault
340
F
  0
DICTIONARY
  5
758
102
{ACAD_REACTORS
330
C
102
}
330
C
100
AcDbDictionary
281
     1
  3
Standard
350
759
  0
DICTIONARY
  5
762
102
{ACAD_REACTORS
330
C
102
}
330
C
100
AcDbDictionary
281
     1
  0
DICTIONARY
  5
75D
102
{ACAD_REACTORS
330
C
102
}
330
C
100
AcDbDictionary
281
     1
  3
CTABLESTYLE
350
75E
  3
DIMASSOC
350
75F
  3
PROJECTNAME
350
760
  0
XRECORD
  5
74F
102
{ACAD_REACTORS
330
74E
102
}
330
74E
100
AcDbXrecord
280
     1
340
1F
  0
XRECORD
  5
74D
102
{ACAD_REACTORS
330
74C
102
}
330
74C
100
AcDbXrecord
280
     1
340
1B
  0
LAYOUT
  5
75A
102
{ACAD_XDICTIONARY
360
763
102
}
102
{ACAD_REACTORS
330
1A
102
}
330
1A
100
AcDbPlotSettings
  1

  2
Canon LBP3920/3970 LIPSLX
  4

  6

 40
0.0
 41
0.0
 42
0.0
 43
0.0
 44
0.0
 45
0.0
 46
0.0
 47
0.0
 48
0.0
 49
0.0
140
0.0
141
0.0
142
1.0
143
1.0
 70
  1712
 72
     0
 73
     0
 74
     0
  7
INABA-CAD-Canon.ctb
 75
     0
147
1.0
148
0.0
149
0.0
100
AcDbLayout
  1
Model
 70
     1
 71
     0
 10
0.0
 20
0.0
 11
12.0
 21
9.0
 12
0.0
 22
0.0
 32
0.0
 14
0.0
 24
0.0
 34
0.0
 15
0.0
 25
0.0
 35
0.0
146
0.0
 13
0.0
 23
0.0
 33
0.0
 16
1.0
 26
0.0
 36
0.0
 17
0.0
 27
1.0
 37
0.0
 76
     0
330
1F
  0
LAYOUT
  5
75B
102
{ACAD_XDICTIONARY
360
765
102
}
102
{ACAD_REACTORS
330
1A
102
}
330
1A
100
AcDbPlotSettings
  1

  2
Canon LBP3920/3970 LIPSLX
  4

  6

 40
0.0
 41
0.0
 42
0.0
 43
0.0
 44
0.0
 45
0.0
 46
0.0
 47
0.0
 48
0.0
 49
0.0
140
0.0
141
0.0
142
1.0
143
1.0
 70
   688
 72
     0
 73
     0
 74
     5
  7
INABA-CAD-Canon.ctb
 75
    16
147
1.0
148
0.0
149
0.0
100
AcDbLayout
  1
レイアウト1
 70
     1
 71
     1
 10
0.0
 20
0.0
 11
420.0
 21
297.0
 12
0.0
 22
0.0
 32
0.0
 14
1.000000000000000E+20
 24
1.000000000000000E+20
 34
1.000000000000000E+20
 15
-1.000000000000000E+20
 25
-1.000000000000000E+20
 35
-1.000000000000000E+20
146
0.0
 13
0.0
 23
0.0
 33
0.0
 16
1.0
 26
0.0
 36
0.0
 17
0.0
 27
1.0
 37
0.0
 76
     0
330
1B
  0
MLINESTYLE
  5
18
102
{ACAD_REACTORS
330
17
102
}
330
17
100
AcDbMlineStyle
  2
STANDARD
 70
     0
  3

 62
   256
 51
90.0
 52
90.0
 71
     2
 49
0.5
 62
   256
  6
BYLAYER
 49
-0.5
 62
   256
  6
BYLAYER
  0
ACDBPLACEHOLDER
  5
F
102
{ACAD_REACTORS
330
E
102
}
330
E
  0
TABLESTYLE
  5
759
102
{ACAD_REACTORS
330
758
102
}
330
758
100
AcDbTableStyle
  3
Standard
 70
     0
 71
     0
 40
1.5
 41
1.5
280
     0
281
     0
  7
STANDARD
140
4.5
170
     2
 62
     0
 63
     7
283
     0
274
    -2
284
     1
 64
     0
275
    -2
285
     1
 65
     0
276
    -2
286
     1
 66
     0
277
    -2
287
     1
 67
     0
278
    -2
288
     1
 68
     0
279
    -2
289
     1
 69
     0
  7
STANDARD
140
6.0
170
     5
 62
     0
 63
     7
283
     0
274
    -2
284
     1
 64
     0
275
    -2
285
     1
 65
     0
276
    -2
286
     1
 66
     0
277
    -2
287
     1
 67
     0
278
    -2
288
     1
 68
     0
279
    -2
289
     1
 69
     0
  7
STANDARD
140
4.5
170
     5
 62
     0
 63
     7
283
     0
274
    -2
284
     1
 64
     0
275
    -2
285
     1
 65
     0
276
    -2
286
     1
 66
     0
277
    -2
287
     1
 67
     0
278
    -2
288
     1
 68
     0
279
    -2
289
     1
 69
     0
  0
DICTIONARYVAR
  5
75E
102
{ACAD_REACTORS
330
75D
102
}
330
75D
100
DictionaryVariables
280
     0
  1
STANDARD
  0
DICTIONARYVAR
  5
75F
102
{ACAD_REACTORS
330
75D
102
}
330
75D
100
DictionaryVariables
280
     0
  1
1
  0
DICTIONARYVAR
  5
760
102
{ACAD_REACTORS
330
75D
102
}
330
75D
100
DictionaryVariables
280
     0
  1

  0
DICTIONARY
  5
763
330
75A
100
AcDbDictionary
280
     1
281
     1
  3
ACAD_XREC_ROUNDTRIP
360
764
  0
DICTIONARY
  5
765
330
75B
100
AcDbDictionary
280
     1
281
     1
  3
ACAD_XREC_ROUNDTRIP
360
766
  0
XRECORD
  5
764
102
{ACAD_REACTORS
330
763
102
}
330
763
100
AcDbXrecord
280
     1
102
SHADEPLOT
 70
     0
102
SHADEPLOTRESLEVEL
 70
     2
102
SHADEPLOTCUSTOMDPI
 70
   300
  0
XRECORD
  5
766
102
{ACAD_REACTORS
330
765
102
}
330
765
100
AcDbXrecord
280
     1
102
SHADEPLOT
 70
     0
102
SHADEPLOTRESLEVEL
 70
     2
102
SHADEPLOTCUSTOMDPI
 70
   300
  0
ENDSEC
  0
EOF
