  0
SECTION
  2
HEADER
  9
$ACADVER
  1
AC1009
  9
$INSBASE
 10
268.43400214410849
 20
176.78614296068989
 30
0.0
  9
$EXTMIN
 10
6649.2083709970739
 20
-2433.4801618738061
 30
0.0
  9
$EXTMAX
 10
7393.0539712406498
 20
-2136.4801618738061
 30
0.0
  9
$LIMMIN
 10
0.0
 20
0.0
  9
$LIMMAX
 10
554.0
 20
395.0
  9
$ORTHOMODE
 70
     1
  9
$REGENMODE
 70
     1
  9
$FILLMODE
 70
     1
  9
$QTEXTMODE
 70
     0
  9
$MIRRTEXT
 70
     1
  9
$DRAGMODE
 70
     2
  9
$LTSCALE
 40
2.0
  9
$OSMODE
 70
    37
  9
$ATTMODE
 70
     1
  9
$TEXTSIZE
 40
2.5
  9
$TRACEWID
 40
0.2
  9
$TEXTSTYLE
  7
KANJI
  9
$CLAYER
  8
3補助線
  9
$CELTYPE
  6
BYLAYER
  9
$CECOLOR
 62
   256
  9
$DIMSCALE
 40
0.0
  9
$DIMASZ
 40
1.0
  9
$DIMEXO
 40
1.0
  9
$DIMDLI
 40
0.0
  9
$DIMRND
 40
0.0
  9
$DIMDLE
 40
0.0
  9
$DIMEXE
 40
1.0
  9
$DIMTP
 40
0.0
  9
$DIMTM
 40
0.0
  9
$DIMTXT
 40
2.5
  9
$DIMCEN
 40
0.0
  9
$DIMTSZ
 40
0.0
  9
$DIMTOL
 70
     0
  9
$DIMLIM
 70
     0
  9
$DIMTIH
 70
     0
  9
$DIMTOH
 70
     0
  9
$DIMSE1
 70
     0
  9
$DIMSE2
 70
     0
  9
$DIMTAD
 70
     1
  9
$DIMZIN
 70
     8
  9
$DIMBLK
  1

  9
$DIMASO
 70
     1
  9
$DIMSHO
 70
     1
  9
$DIMPOST
  1

  9
$DIMAPOST
  1

  9
$DIMALT
 70
     0
  9
$DIMALTD
 70
     2
  9
$DIMALTF
 40
25.399999999999999
  9
$DIMLFAC
 40
1.0
  9
$DIMTOFL
 70
     1
  9
$DIMTVP
 40
0.0
  9
$DIMTIX
 70
     0
  9
$DIMSOXD
 70
     0
  9
$DIMSAH
 70
     1
  9
$DIMBLK1
  1
2
  9
$DIMBLK2
  1
2
  9
$DIMSTYLE
  2
M
  9
$DIMCLRD
 70
     0
  9
$DIMCLRE
 70
     0
  9
$DIMCLRT
 70
     0
  9
$DIMTFAC
 40
1.0
  9
$DIMGAP
 40
0.5
  9
$LUNITS
 70
     2
  9
$LUPREC
 70
     4
  9
$SKETCHINC
 40
0.1
  9
$FILLETRAD
 40
0.0
  9
$AUNITS
 70
     0
  9
$AUPREC
 70
     0
  9
$MENU
  1
tcad-s
  9
$ELEVATION
 40
0.0
  9
$PELEVATION
 40
0.0
  9
$THICKNESS
 40
0.0
  9
$LIMCHECK
 70
     0
  9
$BLIPMODE
 70
     0
  9
$CHAMFERA
 40
0.0
  9
$CHAMFERB
 40
0.0
  9
$SKPOLY
 70
     0
  9
$TDCREATE
 40
2451857.7044650568
  9
$TDUPDATE
 40
2454447.4829920721
  9
$TDINDWG
 40
7.6211909028000004
  9
$TDUSRTIMER
 40
7.6211909028000004
  9
$USRTIMER
 70
     1
  9
$ANGBASE
 50
0.0
  9
$ANGDIR
 70
     0
  9
$PDMODE
 70
     0
  9
$PDSIZE
 40
2.399999999999999
  9
$PLINEWID
 40
0.0
  9
$COORDS
 70
     0
  9
$SPLFRAME
 70
     0
  9
$SPLINETYPE
 70
     6
  9
$SPLINESEGS
 70
     8
  9
$ATTDIA
 70
     1
  9
$ATTREQ
 70
     1
  9
$HANDLING
 70
     1
  9
$HANDSEED
  5
B0627
  9
$SURFTAB1
 70
     6
  9
$SURFTAB2
 70
     6
  9
$SURFTYPE
 70
     6
  9
$SURFU
 70
     6
  9
$SURFV
 70
     6
  9
$UCSNAME
  2

  9
$UCSORG
 10
0.0
 20
0.0
 30
0.0
  9
$UCSXDIR
 10
1.0
 20
0.0
 30
0.0
  9
$UCSYDIR
 10
0.0
 20
1.0
 30
0.0
  9
$PUCSNAME
  2

  9
$PUCSORG
 10
0.0
 20
0.0
 30
0.0
  9
$PUCSXDIR
 10
1.0
 20
0.0
 30
0.0
  9
$PUCSYDIR
 10
0.0
 20
1.0
 30
0.0
  9
$USERI1
 70
     0
  9
$USERI2
 70
     0
  9
$USERI3
 70
     0
  9
$USERI4
 70
     0
  9
$USERI5
 70
     0
  9
$USERR1
 40
0.0
  9
$USERR2
 40
0.0
  9
$USERR3
 40
0.0
  9
$USERR4
 40
0.0
  9
$USERR5
 40
0.0
  9
$WORLDVIEW
 70
     1
  9
$SHADEDGE
 70
     3
  9
$SHADEDIF
 70
    70
  9
$TILEMODE
 70
     1
  9
$MAXACTVP
 70
    16
  9
$PLIMCHECK
 70
     0
  9
$PEXTMIN
 10
-0.5000610323622113
 20
-0.5000610323622113
 30
-0.0000000349181948
  9
$PEXTMAX
 10
0.5000610416757212
 20
0.5000610416757212
 30
0.0000000814935746
  9
$PLIMMIN
 10
0.0
 20
0.0
  9
$PLIMMAX
 10
0.0
 20
0.0
  9
$UNITMODE
 70
     0
  9
$VISRETAIN
 70
     0
  9
$PLINEGEN
 70
     0
  9
$PSLTSCALE
 70
     0
  0
ENDSEC
  0
SECTION
  2
TABLES
  0
TABLE
  2
VPORT
 70
     5
  0
VPORT
  2
*ACTIVE
 70
     0
 10
0.0
 20
0.0
 11
1.0
 21
1.0
 12
207.55177746227261
 22
-3.579661914770667
 13
0.0
 23
0.0
 14
1.0
 24
1.0
 15
0.0
 25
0.0
 16
0.0
 26
0.0
 36
1.0
 17
6859.0682301939514
 27
-2267.7497711488109
 37
0.0
 40
239.9523813335322
 41
1.676190476190476
 42
50.0
 43
0.0
 44
0.0
 50
0.0
 51
0.0
 71
     0
 72
  1000
 73
     1
 74
     1
 75
     0
 76
     0
 77
     0
 78
     1
  0
ENDTAB
  0
TABLE
  2
LTYPE
 70
    20
  0
LTYPE
  2
CONTINUOUS
 70
     0
  3
Solid line
 72
    65
 73
     0
 40
0.0
  0
LTYPE
  2
CENTER
 70
     0
  3
____ _ ____ _ ____ _ ____ _ ____ _ ____ _ ____ 
 72
    65
 73
     4
 40
2.0
 49
1.25
 49
-0.25
 49
0.25
 49
-0.25
  0
LTYPE
  2
HIDDEN
 70
     0
  3
Hidden __ __ __ __ __ __ __ __ __ __ __ __ __ _
 72
    65
 73
     2
 40
9.5249999999999986
 49
6.3499999999999988
 49
-3.1749999999999989
  0
LTYPE
  2
HIDDEN2
 70
     0
  3
Hidden (.5x) _ _ _ _ _ _ _ _ _ _ _ _ _ _ _ _ _
 72
    65
 73
     2
 40
4.7624999999999993
 49
3.1749999999999989
 49
-1.587499999999999
  0
LTYPE
  2
PHANTOM2
 70
     0
  3
Phantom (.5x) ___ _ _ ___ _ _ ___ _ _ ___ _ _
 72
    65
 73
     6
 40
1.25
 49
0.625
 49
-0.125
 49
0.125
 49
-0.125
 49
0.125
 49
-0.125
  0
LTYPE
  2
AMCONSTR
 70
     0
  3
_______________________
 72
    65
 73
     2
 40
9999.0
 49
9999.0
 49
0.0
  0
LTYPE
  2
CENTER2
 70
     0
  3
Center (.5x) ___ _ ___ _ ___ _ ___ _ ___ _ ___
 72
    65
 73
     4
 40
1.125
 49
0.75
 49
-0.125
 49
0.125
 49
-0.125
  0
LTYPE
  2
AMZIGZAG2
 70
     0
  3
/\/-/\/-/\/-/\/-/\/-/\/
 72
    65
 73
     2
 40
0.4401
 49
0.0001
 49
-0.4400000000000001
  0
LTYPE
  2
ACANSTGB
 70
     0
  3
__ . . __ . .
 72
    65
 73
     6
 40
0.35433070866
 49
0.15748031496
 49
-0.03937007874
 49
0.03937007874
 49
-0.03937007874
 49
0.03937007874
 49
-0.03937007874
  0
LTYPE
  2
ACANSTGL
 70
     0
  3
_ _ _ _ _
 72
    65
 73
     2
 40
0.11811023622
 49
0.07874015748
 49
-0.03937007874
  0
ENDTAB
  0
TABLE
  2
LAYER
 70
    12
  0
LAYER
  2
0
 70
     0
 62
     7
  6
CONTINUOUS
  0
LAYER
  2
1外形線
 70
     0
 62
     3
  6
CONTINUOUS
  0
LAYER
  2
2寸法線
 70
     0
 62
     2
  6
CONTINUOUS
  0
LAYER
  2
DEFPOINTS
 70
     0
 62
     7
  6
CONTINUOUS
  0
LAYER
  2
3補助線
 70
     0
 62
     4
  6
CONTINUOUS
  0
LAYER
  2
C4
 70
     0
 62
     3
  6
CONTINUOUS
  0
ENDTAB
  0
TABLE
  2
STYLE
 70
     7
  0
STYLE
  2
STANDARD
 70
     0
 40
0.0
 41
1.0
 50
0.0
 71
     0
 42
0.2
  3
txt
  4

  0
STYLE
  2
KANJI
 70
     0
 40
0.0
 41
1.0
 50
0.0
 71
     0
 42
2.5
  3
simplex
  4
bigfont
  0
STYLE
  2

 70
     1
 40
0.0
 41
1.0
 50
0.0
 71
     0
 42
2.5
  3
ltypeshp.shx
  4

  0
STYLE
  2
ACANSTS
 70
     0
 40
1.0
 41
1.0
 50
0.0
 71
     0
 42
2.5
  3
romans.shx
  4
extfont.shx
  0
STYLE
  2
ACANSGDT
 70
     0
 40
0.0
 41
1.0
 50
0.0
 71
     0
 42
2.5
  3
amgdtans.shx
  4

  0
ENDTAB
  0
TABLE
  2
VIEW
 70
     0
  0
ENDTAB
  0
TABLE
  2
UCS
 70
     0
  0
ENDTAB
  0
TABLE
  2
APPID
 70
    17
  0
APPID
  2
ACAD
 70
     0
  0
APPID
  2
MCAD_NO_VIS
 70
     0
  0
APPID
  2
ACAD_TEMP_GRAPHIC
 70
     0
  0
APPID
  2
AD_DRAW
 70
     0
  0
APPID
  2
ACATTRIBSERVICES
 70
     0
  0
APPID
  2
GENIUS_GENDIM_13
 70
     0
  0
APPID
  2
GENIUS_GENDTOL_13
 70
     0
  0
APPID
  2
GENIUS_GE3DTOL_13
 70
     0
  0
APPID
  2
ASURF_PCURVE_APPNAME
 70
     0
  0
APPID
  2
AMG_3D2D_5_0
 70
     0
  0
APPID
  2
DESIGNERASSEMBLIES
 70
     0
  0
APPID
  2
ACADM_DIM_EDIT
 70
     0
  0
APPID
  2
AMDT_DM_ADJ
 70
     0
  0
APPID
  2
GENIUS_GENSCREG_15
 70
     0
  0
APPID
  2
GENIUS_GENODEF_13
 70
     0
  0
APPID
  2
GENIUS_GENOBJ-N-SDF_13
 70
     0
  0
APPID
  2
ACAD_EXEMPT_FROM_CAD_STANDARDS
 70
     0
  0
ENDTAB
  0
TABLE
  2
DIMSTYLE
 70
    10
  0
DIMSTYLE
  2
STANDARD
 70
     0
  3

  4

  5

  6
1
  7
1
 40
1.0
 41
1.0
 42
1.0
 43
6.0
 44
1.0
 45
0.0
 46
0.0
 47
0.0
 48
0.0
140
2.5
141
0.0
142
0.0
143
25.399999999999999
144
1.0
145
0.0
146
1.0
147
0.5
 71
     0
 72
     0
 73
     0
 74
     0
 75
     0
 76
     0
 77
     1
 78
     8
170
     0
171
     2
172
     1
173
     1
174
     0
175
     0
176
     0
177
     0
178
     0
  0
DIMSTYLE
  2
M
 70
     0
  3

  4

  5

  6
2
  7
2
 40
0.0
 41
1.0
 42
1.0
 43
0.0
 44
1.0
 45
0.0
 46
0.0
 47
0.0
 48
0.0
140
2.5
141
0.0
142
0.0
143
25.399999999999999
144
1.0
145
0.0
146
1.0
147
0.5
 71
     0
 72
     0
 73
     0
 74
     0
 75
     0
 76
     0
 77
     1
 78
     8
170
     0
171
     2
172
     1
173
     1
174
     0
175
     0
176
     0
177
     0
178
     0
  0
DIMSTYLE
  2
AM_ANSI
 70
     0
  3

  4
mm
  5

  6

  7

 40
1.0
 41
0.1
 42
0.05
 43
0.5
 44
0.1
 45
0.0
 46
0.0
 47
0.1
 48
0.1
140
0.12
141
0.0
142
0.0
143
25.399999999999999
144
1.0
145
0.0
146
0.71
147
0.06
 71
     0
 72
     0
 73
     1
 74
     1
 75
     0
 76
     0
 77
     0
 78
     7
170
     0
171
     2
172
     0
173
     0
174
     0
175
     0
176
   256
177
   256
178
     2
  0
DIMSTYLE
  2
AM_ANSI$3
 70
     0
  3

  4
mm
  5

  6

  7

 40
1.0
 41
0.1
 42
0.05
 43
0.5
 44
0.1
 45
0.0
 46
0.0
 47
0.1
 48
0.1
140
0.12
141
0.0
142
0.0
143
25.399999999999999
144
1.0
145
0.0
146
0.71
147
0.06
 71
     0
 72
     0
 73
     1
 74
     1
 75
     0
 76
     0
 77
     0
 78
     7
170
     0
171
     2
172
     0
173
     0
174
     0
175
     0
176
   256
177
   256
178
     2
  0
DIMSTYLE
  2
AM_ANSI$4
 70
     0
  3

  4
mm
  5

  6

  7

 40
1.0
 41
0.1
 42
0.05
 43
0.5
 44
0.1
 45
0.0
 46
0.0
 47
0.1
 48
0.1
140
0.12
141
0.0
142
0.0
143
25.399999999999999
144
1.0
145
0.0
146
0.71
147
0.06
 71
     0
 72
     0
 73
     1
 74
     1
 75
     0
 76
     0
 77
     0
 78
     7
170
     0
171
     2
172
     0
173
     0
174
     0
175
     0
176
   256
177
   256
178
     2
  0
DIMSTYLE
  2
AM_ANSI$7
 70
     0
  3

  4
mm
  5

  6

  7

 40
1.0
 41
0.1
 42
0.05
 43
0.5
 44
0.1
 45
0.0
 46
0.0
 47
0.1
 48
0.1
140
0.24
141
0.0
142
0.0
143
25.399999999999999
144
1.0
145
0.0
146
0.71
147
0.06
 71
     0
 72
     0
 73
     1
 74
     1
 75
     0
 76
     0
 77
     0
 78
     7
170
     0
171
     2
172
     0
173
     0
174
     0
175
     0
176
   256
177
   256
178
     2
  0
DIMSTYLE
  2
AM_ANSI$SF
 70
     0
  3

  4
mm
  5

  6

  7

 40
1.0
 41
0.1
 42
0.05
 43
0.5
 44
0.1
 45
0.0
 46
0.0
 47
0.1
 48
0.1
140
0.12
141
0.0
142
0.0
143
25.399999999999999
144
1.0
145
0.0
146
0.71
147
0.06
 71
     0
 72
     0
 73
     1
 74
     1
 75
     1
 76
     1
 77
     0
 78
     7
170
     0
171
     2
172
     0
173
     0
174
     0
175
     0
176
   256
177
   256
178
     2
  0
DIMSTYLE
  2
AM_ANSI$SH
 70
     0
  3

  4
mm
  5

  6
GENAXEH
  7

 40
1.0
 41
0.1
 42
0.05
 43
0.5
 44
0.1
 45
0.0
 46
0.0
 47
0.1
 48
0.1
140
0.12
141
0.0
142
0.0
143
25.399999999999999
144
1.0
145
0.0
146
0.71
147
0.06
 71
     0
 72
     0
 73
     1
 74
     1
 75
     1
 76
     1
 77
     0
 78
     7
170
     0
171
     2
172
     0
173
     1
174
     0
175
     0
176
   256
177
   256
178
     2
  0
ENDTAB
  0
ENDSEC
  0
SECTION
  2
BLOCKS
  0
BLOCK
  8
0
  2
$MODEL_SPACE
 70
     0
 10
0.0
 20
0.0
 30
0.0
  3
$MODEL_SPACE
  1

  0
ENDBLK
  5
50
  8
0
  0
BLOCK
 67
     1
  8
0
  2
$PAPER_SPACE
 70
     0
 10
0.0
 20
0.0
 30
0.0
  3
$PAPER_SPACE
  1

  0
ENDBLK
  5
4E
 67
     1
  8
0
  0
BLOCK
  8
0
  2
1
 70
     0
 10
0.0
 20
0.0
 30
0.0
  3
1
  1

  0
SOLID
  5
C7B5
  8
0
  6
BYBLOCK
 62
     0
 10
-1.811110924292052
 20
0.4852857095671653
 30
0.0
 11
-1.811110924292052
 21
-0.4852857095673642
 31
0.0
 12
0.0
 22
0.0
 32
0.0
 13
0.0
 23
0.0
 33
0.0
  0
ENDBLK
  5
C7B6
  8
0
  0
BLOCK
  8
0
  2
2
 70
     0
 10
0.0
 20
0.0
 30
0.0
  3
2
  1

  0
INSERT
  5
EE00
  8
0
  6
CONTINUOUS
 62
     0
  2
*U118
 10
0.0
 20
0.0
 30
0.0
1001
ACAD
1002
{
1000
R14_HATCH_DATA
1000
EE00
1011
1.0
1021
-0.0
1031
-0.0
1021
0.0
1031
0.0
1011
0.0
1021
-0.0
1031
-0.0
1021
1.0
1031
0.0
1011
0.0
1021
-0.0
1031
-0.0
1021
0.0
1031
1.0
1040
0.0
1010
0.0
1020
0.0
1030
1.0
1000
SOLID
1070
     1
1070
     0
1071
        1
1071
        1
1071
        3
1070
     1
1040
-0.9999999999983515
1040
0.2679491924306774
1040
0.0
1040
0.0
1070
     1
1040
0.0
1040
0.0
1040
-0.9999999999983515
1040
-0.2679491924306765
1070
     1
1040
-0.9999999999983524
1040
-0.267949192430676
1040
-0.9999999999983524
1040
0.2679491924306774
1071
        0
1070
     0
1070
     1
1071
        1
1040
2.9957451172313361
1040
-4.1249460962632014
1040
0.0
1002
}
  0
ENDBLK
  5
EE02
  8
0
  0
BLOCK
  8
0
  2
_DOT
 70
     0
 10
0.0
 20
0.0
 30
0.0
  3
_DOT
  1

  0
POLYLINE
  5
2DD9B
  8
0
  6
BYBLOCK
 62
     0
 66
     1
 10
0.0
 20
0.0
 30
0.0
 70
     1
 40
0.5
 41
0.5
  0
VERTEX
  5
B0592
  8
0
  6
BYBLOCK
 62
     0
 10
-0.25
 20
0.0
 30
0.0
 42
1.0
  0
VERTEX
  5
B0593
  8
0
  6
BYBLOCK
 62
     0
 10
0.25
 20
0.0
 30
0.0
 42
1.0
  0
SEQEND
  5
B0594
  8
0
  6
BYBLOCK
 62
     0
  0
LINE
  5
2DD9C
  8
0
  6
BYBLOCK
 62
     0
 10
-0.5
 20
0.0
 30
0.0
 11
-1.0
 21
0.0
 31
0.0
  0
ENDBLK
  5
2DD9E
  8
0
  0
BLOCK
  8
0
  2
*U104
 70
     1
 10
0.0
 20
0.0
 30
0.0
  3
*U104
  1

  0
ENDBLK
  5
AE257
  8
0
  0
BLOCK
  8
0
  2
GENAXEH
 70
     0
 10
0.0
 20
0.0
 30
0.0
  3
GENAXEH
  1

  0
LINE
  5
AE295
  8
0
 10
-1.0
 20
0.0
 30
0.0
 11
1.0
 21
0.0
 31
0.0
  0
ENDBLK
  5
AE297
  8
0
  0
BLOCK
  8
0
  2
*U118
 70
     1
 10
0.0
 20
0.0
 30
0.0
  3
*U118
  1

  0
SOLID
  5
B0581
  8
0
  6
CONTINUOUS
 62
     0
 10
0.666666666665568
 20
0.0000000000000004
 30
0.0
 11
0.9999999999983515
 21
0.2679491924306774
 31
0.0
 12
0.0
 22
0.0
 32
0.0
 13
0.0
 23
0.0
 33
0.0
210
0.0
220
0.0
230
-1.0
  0
SOLID
  5
B0582
  8
0
  6
CONTINUOUS
 62
     0
 10
0.666666666665568
 20
0.0000000000000004
 30
0.0
 11
0.0
 21
0.0
 31
0.0
 12
0.9999999999983524
 22
-0.267949192430676
 32
0.0
 13
0.9999999999983524
 23
-0.267949192430676
 33
0.0
210
0.0
220
0.0
230
-1.0
  0
SOLID
  5
B0583
  8
0
  6
CONTINUOUS
 62
     0
 10
0.666666666665568
 20
0.0000000000000004
 30
0.0
 11
0.9999999999983524
 21
-0.267949192430676
 31
0.0
 12
0.9999999999983515
 22
0.2679491924306774
 32
0.0
 13
0.9999999999983515
 23
0.2679491924306774
 33
0.0
210
0.0
220
0.0
230
-1.0
  0
ENDBLK
  5
B0585
  8
0
  0
BLOCK
  8
0
  2
*U119
 70
     1
 10
0.0
 20
0.0
 30
0.0
  3
*U119
  1

  0
SOLID
  5
B0587
  8
0
  6
CONTINUOUS
 62
     0
 10
0.25
 20
0.0
 30
0.0
 11
0.1767766952966369
 21
0.1767766952966369
 31
0.0
 12
0.1767766952966368
 22
-0.176776695296637
 32
0.0
 13
0.1767766952966368
 23
-0.176776695296637
 33
0.0
210
0.0
220
0.0
230
1.0
  0
SOLID
  5
B0588
  8
0
  6
CONTINUOUS
 62
     0
 10
0.0000000000000001
 20
0.25
 30
0.0
 11
0.1767766952966368
 21
-0.176776695296637
 31
0.0
 12
0.1767766952966369
 22
0.1767766952966369
 32
0.0
 13
0.1767766952966369
 23
0.1767766952966369
 33
0.0
  0
SOLID
  5
B0589
  8
0
  6
CONTINUOUS
 62
     0
 10
0.1767766952966368
 20
-0.176776695296637
 30
0.0
 11
0.0000000000000001
 21
0.25
 31
0.0
 12
-0.0000000000000001
 22
-0.25
 32
0.0
 13
-0.0000000000000001
 23
-0.25
 33
0.0
  0
SOLID
  5
B058A
  8
0
  6
CONTINUOUS
 62
     0
 10
-0.1767766952966368
 20
0.1767766952966369
 30
0.0
 11
-0.0000000000000001
 21
-0.25
 31
0.0
 12
0.0000000000000001
 22
0.25
 32
0.0
 13
0.0000000000000001
 23
0.25
 33
0.0
210
0.0
220
0.0
230
1.0
  0
SOLID
  5
B058B
  8
0
  6
CONTINUOUS
 62
     0
 10
-0.0000000000000001
 20
-0.25
 30
0.0
 11
-0.1767766952966368
 21
0.1767766952966369
 31
0.0
 12
-0.1767766952966369
 22
-0.1767766952966368
 32
0.0
 13
-0.1767766952966369
 23
-0.1767766952966368
 33
0.0
  0
SOLID
  5
B058C
  8
0
  6
CONTINUOUS
 62
     0
 10
-0.25
 20
0.0000000000000001
 30
0.0
 11
-0.1767766952966369
 21
-0.1767766952966368
 31
0.0
 12
-0.1767766952966368
 22
0.1767766952966369
 32
0.0
 13
-0.1767766952966368
 23
0.1767766952966369
 33
0.0
210
0.0
220
0.0
230
1.0
  0
ENDBLK
  5
B058E
  8
0
  0
BLOCK
  8
0
  2
*U120
 70
     1
 10
0.0
 20
0.0
 30
0.0
  3
*U120
  1

  0
TEXT
  5
B0596
  8
3補助線
 62
     0
 10
6942.4510374054944
 20
-2304.5489543655458
 30
0.0
 40
2.5
  1
\U+2205
  7
KANJI
  0
TEXT
  5
B0597
  8
3補助線
 62
     0
 10
6944.712942167399
 20
-2304.5489543655458
 30
0.0
 40
2.5
  1
4
  7
KANJI
  0
ENDBLK
  5
B0599
  8
0
  0
BLOCK
  8
0
  2
*U121
 70
     1
 10
0.0
 20
0.0
 30
0.0
  3
*U121
  1

  0
TEXT
  5
B059B
  8
3補助線
 62
     0
 10
6936.3254271149872
 20
-2312.680273897206
 30
0.0
 40
2.5
  1
\U+2205
  7
KANJI
  0
TEXT
  5
B059C
  8
3補助線
 62
     0
 10
6938.5873318768918
 20
-2312.680273897206
 30
0.0
 40
2.5
  1
3.4
  7
KANJI
  0
ENDBLK
  5
B059E
  8
0
  0
BLOCK
  8
0
  2
*U122
 70
     1
 10
0.0
 20
0.0
 30
0.0
  3
*U122
  1

  0
SOLID
  5
B05A0
  8
0
  6
CONTINUOUS
 10
0.4000006413972367
 20
0.241154236931275
 30
0.0
 11
1.0000006413961551
 21
0.2411542369312656
 31
0.0
 12
0.1000006413977843
 22
0.4823085101188554
 32
0.0
 13
0.1000006413977843
 23
0.4823085101188554
 33
0.0
210
0.0
220
0.0
230
1.0
  0
SOLID
  5
B05A1
  8
0
  6
CONTINUOUS
 10
0.4000006413972367
 20
0.241154236931275
 30
0.0
 11
0.1000006413977843
 21
0.4823085101188554
 31
0.0
 12
0.1000006413977701
 22
-0.0000000362562957
 32
0.0
 13
0.1000006413977701
 23
-0.0000000362562957
 33
0.0
210
0.0
220
0.0
230
1.0
  0
SOLID
  5
B05A2
  8
0
  6
CONTINUOUS
 10
0.4000006413972367
 20
0.241154236931275
 30
0.0
 11
0.1000006413977701
 21
-0.0000000362562957
 31
0.0
 12
1.0000006413961551
 22
0.2411542369312656
 32
0.0
 13
1.0000006413961551
 23
0.2411542369312656
 33
0.0
210
0.0
220
0.0
230
1.0
  0
ENDBLK
  5
B05A4
  8
0
  0
ENDSEC
  0
SECTION
  2
ENTITIES
  0
TEXT
  5
2DC10
  8
2寸法線
 10
1836.8890123582869
 20
585.28436060406705
 30
0.0
 40
3.0
  1

  7
KANJI
  0
TEXT
  5
2DC15
  8
2寸法線
 10
1836.8890123582869
 20
579.28436060406705
 30
0.0
 40
3.0
  1

  7
KANJI
  0
LINE
  5
AF3D0
  8
1外形線
 10
6976.6115031751824
 20
-2315.7285050736491
 30
0.0
 11
6987.2058386077879
 21
-2320.2285050736482
 31
0.0
  0
ARC
  5
AF3D4
  8
1外形線
 10
7003.6115031751824
 20
-2304.7284999325179
 30
0.0
 40
27.600000000000001
 50
90.0
 51
180.0
  0
LINE
  5
AF3D6
  8
1外形線
 10
6976.0115031751811
 20
-2315.7285050736491
 30
0.0
 11
6976.6115031751824
 21
-2315.7285050736491
 31
0.0
  0
LINE
  5
AF3D8
  8
1外形線
 10
6976.0115031751811
 20
-2304.7284999325179
 30
0.0
 11
6976.0115031751811
 21
-2315.7285050736491
 31
0.0
  0
LINE
  5
AF3D9
  8
1外形線
 10
7057.211503175181
 20
-2315.7285050736491
 30
0.0
 11
7046.6171677425727
 21
-2320.2285050736482
 31
0.0
  0
ARC
  5
AF3DA
  8
1外形線
 10
7033.571015667424
 20
-2304.732827262314
 30
0.0
 40
18.0
 50
0.0
 51
90.0
  0
ARC
  5
AF3DB
  8
1外形線
 10
7030.7507719135474
 20
-2309.5349883566578
 30
0.0
 40
18.0
 50
0.0
 51
90.0
  0
ARC
  5
AF3DF
  8
1外形線
 10
7030.21150317518
 20
-2304.7284999325179
 30
0.0
 40
27.600000000000001
 50
0.0
 51
90.0
  0
LINE
  5
AF3E1
  8
1外形線
 10
7016.9115031751808
 20
-2291.5349883566578
 30
0.0
 11
7030.7507719135474
 21
-2291.5349883566578
 31
0.0
  0
LINE
  5
AF3E2
  8
1外形線
 10
7016.9115031751808
 20
-2286.732827262314
 30
0.0
 11
7033.571015667424
 21
-2286.732827262314
 31
0.0
  0
LINE
  5
AF3E4
  8
1外形線
 10
7016.9115031751808
 20
-2277.128499932518
 30
0.0
 11
7030.21150317518
 21
-2277.128499932518
 31
0.0
  0
LINE
  5
AF3E8
  8
1外形線
 10
7016.9115031751808
 20
-2286.732827262314
 30
0.0
 11
7000.2519906829393
 21
-2286.732827262314
 31
0.0
  0
LINE
  5
AF3E9
  8
1外形線
 10
7016.9115031751808
 20
-2291.5349883566578
 30
0.0
 11
7003.072234436816
 21
-2291.5349883566578
 31
0.0
  0
LINE
  5
AF3EA
  8
1外形線
 10
7016.9115031751808
 20
-2277.128499932518
 30
0.0
 11
7003.6115031751824
 21
-2277.128499932518
 31
0.0
  0
LINE
  5
AF3EC
  8
1外形線
 10
7016.9115031751808
 20
-2298.7285050736482
 30
0.0
 11
7027.9625568876336
 21
-2298.7285050736482
 31
0.0
  0
LINE
  5
AF3ED
  8
1外形線
 10
7016.9115031751808
 20
-2296.8707229059269
 30
0.0
 11
7028.0543103278123
 21
-2296.8707229059269
 31
0.0
  0
LINE
  5
AF3EE
  8
1外形線
 10
6988.2058386077888
 20
-2320.2285050736482
 30
0.0
 11
6987.2058386077879
 21
-2320.2285050736482
 31
0.0
  0
ARC
  5
AF3EF
  8
1外形線
 10
6989.1566867580259
 20
-2320.0285050736488
 30
0.0
 40
0.2
 50
270.0
 51
0.0
  0
ARC
  5
AF3F0
  8
1外形線
 10
7005.860449462727
 20
-2308.7285050736482
 30
0.0
 40
10.0
 50
90.0
 51
143.38523194520309
  0
LINE
  5
AF3F1
  8
1外形線
 10
7016.9115031751808
 20
-2296.8707229059269
 30
0.0
 11
7005.7686960225492
 21
-2296.8707229059269
 31
0.0
  0
LINE
  5
AF3F2
  8
1外形線
 10
7016.9115031751808
 20
-2298.7285050736482
 30
0.0
 11
7005.860449462727
 21
-2298.7285050736491
 31
0.0
  0
ARC
  5
AF3F6
  8
1外形線
 10
6993.4115031751808
 20
-2315.1122650973571
 30
0.0
 40
3.0
 50
150.8184622653911
 51
180.0
  0
LINE
  5
AF3F7
  8
1外形線
 10
6990.4115031751808
 20
-2314.2285050736482
 30
0.0
 11
6990.7513230279728
 21
-2313.701784301822
 31
0.0
  0
LINE
  5
AF3F8
  8
1外形線
 10
6990.4115031751808
 20
-2315.2285050736482
 30
0.0
 11
6990.4115031751808
 21
-2315.1122650973571
 31
0.0
  0
LINE
  5
AF3F9
  8
1外形線
 10
6990.4115031751808
 20
-2315.2285050736482
 30
0.0
 11
6989.3566867580248
 21
-2315.2285050736482
 31
0.0
  0
LINE
  5
AF3FA
  8
1外形線
 10
6989.1566867580259
 20
-2320.2285050736482
 30
0.0
 11
6988.2058386077888
 21
-2320.2285050736482
 31
0.0
  0
LINE
  5
AF3FB
  8
1外形線
 10
6988.2058386077888
 20
-2317.4931518988042
 30
0.0
 11
6988.2058386077888
 21
-2320.2285050736482
 31
0.0
  0
LINE
  5
AF3FC
  8
1外形線
 10
6989.3566867580248
 20
-2315.2285050736482
 30
0.0
 11
6989.3566867580248
 21
-2320.0285050736488
 31
0.0
  0
LINE
  5
AF3FD
  8
1外形線
 10
6990.4115031751808
 20
-2314.2285050736491
 30
0.0
 11
6990.4115031751808
 21
-2314.9672662885901
 31
0.0
  0
LINE
  5
AF3FE
  8
1外形線
 10
6990.4115031751808
 20
-2315.1122650973571
 30
0.0
 11
6990.4115031751808
 21
-2315.2285050736482
 31
0.0
  0
LINE
  5
AF401
  8
1外形線
 10
6982.2519906829393
 20
-2304.732827262314
 30
0.0
 11
6982.2519906829393
 21
-2318.1243319706132
 31
0.0
  0
LINE
  5
AF402
  8
1外形線
 10
6985.0722344368151
 20
-2309.5349883566578
 30
0.0
 11
6985.0722344368151
 21
-2319.3222454190941
 31
0.0
  0
ARC
  5
AF403
  8
1外形線
 10
7044.6663195923556
 20
-2320.0285050736752
 30
0.0
 40
0.2
 50
179.9999999999479
 51
269.99999999994782
  0
ARC
  5
AF404
  8
1外形線
 10
7027.9625568876336
 20
-2308.7285050736482
 30
0.0
 40
10.0
 50
36.614768054796819
 51
90.0
  0
LINE
  5
AF406
  8
1外形線
 10
7045.6171677425737
 20
-2317.4931518988042
 30
0.0
 11
7045.6171677425737
 21
-2320.2285050736482
 31
0.0
  0
LINE
  5
AF407
  8
1外形線
 10
7043.4115031751817
 20
-2315.2285050736482
 30
0.0
 11
7043.4115031751817
 21
-2315.1122650973571
 31
0.0
  0
ARC
  5
AF408
  8
1外形線
 10
7040.4115031751817
 20
-2315.1122650973571
 30
0.0
 40
3.0
 50
0.0
 51
29.181537734608789
  0
LINE
  5
AF409
  8
1外形線
 10
7044.6663195923556
 20
-2320.2285050736732
 30
0.0
 11
7045.6171677425937
 21
-2320.228505073675
 31
0.0
  0
LINE
  5
AF40A
  8
1外形線
 10
7044.4663195923576
 20
-2315.2285050736741
 30
0.0
 11
7044.4663195923558
 21
-2320.0285050736729
 31
0.0
  0
LINE
  5
AF40B
  8
1外形線
 10
7043.4115031752062
 20
-2315.2285050736732
 30
0.0
 11
7044.4663195923613
 21
-2315.2285050736741
 31
0.0
  0
ARC
  5
AF40D
  8
1外形線
 10
6955.7228175102791
 20
-2362.4073654815561
 30
0.0
 40
100.0
 50
29.181537734608789
 51
36.614768054796819
  0
ARC
  5
AF40E
  8
1外形線
 10
6955.3320243490798
 20
-2361.8940113934132
 30
0.0
 40
102.0
 50
29.560537428558689
 51
36.096546154255329
  0
ARC
  5
AF40F
  8
1外形線
 10
7078.1001888400824
 20
-2362.4073654815561
 30
0.0
 40
100.0
 50
143.38523194520309
 51
150.8184622653911
  0
ARC
  5
AF410
  8
1外形線
 10
7000.205838607787
 20
-2317.4931518988069
 30
0.0
 40
12.0
 50
150.43946257144131
 51
180.0
  0
ARC
  5
AF411
  8
1外形線
 10
7078.4909820012872
 20
-2361.8940113934041
 30
0.0
 40
102.0
 50
143.90345384574459
 51
150.43946257144131
  0
ARC
  5
AF414
  8
1外形線
 10
7003.072234436816
 20
-2309.5349883566578
 30
0.0
 40
18.0
 50
90.0
 51
180.0
  0
ARC
  5
AF415
  8
1外形線
 10
7000.2519906829393
 20
-2304.732827262314
 30
0.0
 40
18.0
 50
90.0
 51
180.0
  0
ARC
  5
AF418
  8
1外形線
 10
7028.0543103278123
 20
-2308.8707229059269
 30
0.0
 40
12.0
 50
36.096546154255329
 51
90.0
  0
ARC
  5
AF41E
  8
1外形線
 10
7005.7686960225456
 20
-2308.8707229059291
 30
0.0
 40
12.0
 50
90.0
 51
143.90345384574459
  0
LINE
  5
AF424
  8
1外形線
 10
7045.6171677425737
 20
-2320.2285050736482
 30
0.0
 11
7046.6171677425727
 21
-2320.2285050736482
 31
0.0
  0
ARC
  5
AF425
  8
1外形線
 10
7033.6171677425737
 20
-2317.4931518988042
 30
0.0
 40
12.0
 50
0.0
 51
29.560537428558689
  0
LINE
  5
AF428
  8
1外形線
 10
7057.8115031751804
 20
-2315.7285050736491
 30
0.0
 11
7057.211503175181
 21
-2315.7285050736491
 31
0.0
  0
LINE
  5
AF429
  8
1外形線
 10
7057.8115031751804
 20
-2304.7284999325179
 30
0.0
 11
7057.8115031751804
 21
-2315.7285050736491
 31
0.0
  0
LINE
  5
AF42A
  8
1外形線
 10
7048.7507719135456
 20
-2309.5349883566578
 30
0.0
 11
7048.7507719135483
 21
-2319.3222454190959
 31
0.0
  0
LINE
  5
AF42B
  8
1外形線
 10
7051.5710156674231
 20
-2304.732827262314
 30
0.0
 11
7051.5710156674231
 21
-2318.1243319706132
 31
0.0
  0
LINE
  5
AF57B
  8
1外形線
 10
7043.4115031751589
 20
-2315.2285050736482
 30
0.0
 11
7043.4115031751589
 21
-2329.7285050736491
 31
0.0
  0
LINE
  5
AF57C
  8
1外形線
 10
7045.6171677425536
 20
-2320.228505073675
 30
0.0
 11
7045.6171677425536
 21
-2329.7285050736482
 31
0.0
  0
LINE
  5
AF57D
  8
1外形線
 10
6988.205838607767
 20
-2320.2285050736491
 30
0.0
 11
6988.205838607767
 21
-2329.7285050736482
 31
0.0
  0
LINE
  5
AF57E
  8
1外形線
 10
6990.4115031751589
 20
-2315.2285050736491
 30
0.0
 11
6990.4115031751589
 21
-2329.7285050736491
 31
0.0
  0
ARC
  5
AF581
  8
1外形線
 10
7002.2058386077679
 20
-2317.534169641041
 30
0.0
 40
26.194335432607659
 50
180.0
 51
270.0
  0
ARC
  5
AF583
  8
1外形線
 10
7002.2058386077679
 20
-2323.7746571487992
 30
0.0
 40
19.953847924851281
 50
180.0
 51
270.0
  0
ARC
  5
AF584
  8
1外形線
 10
7002.2058386077679
 20
-2326.5949009026758
 30
0.0
 40
17.133604170972831
 50
180.0
 51
270.0
  0
ARC
  5
AF586
  8
1外形線
 10
7031.6171677425536
 20
-2326.5949009026758
 30
0.0
 40
17.133604170972831
 50
270.0
 51
0.0
  0
ARC
  5
AF587
  8
1外形線
 10
7031.6171677425518
 20
-2323.7746571487992
 30
0.0
 40
19.953847924851281
 50
270.0
 51
0.0
  0
ARC
  5
AF589
  8
1外形線
 10
7031.6171677425518
 20
-2317.534169641041
 30
0.0
 40
26.194335432607659
 50
270.0
 51
0.0
  0
ARC
  5
AF58A
  8
1外形線
 10
7031.6171677425536
 20
-2329.7285050736482
 30
0.0
 40
14.0
 50
270.0
 51
0.0
  0
LINE
  5
AF58D
  8
1外形線
 10
7016.911503175158
 20
-2343.72850507365
 30
0.0
 11
7031.6171677425518
 21
-2343.72850507365
 31
0.0
  0
LINE
  5
AF58E
  8
1外形線
 10
7031.4115031751599
 20
-2341.7285050736491
 30
0.0
 11
7016.911503175158
 21
-2341.7285050736491
 31
0.0
  0
LINE
  5
AF590
  8
1外形線
 10
7002.4115031751589
 20
-2341.7285050736491
 30
0.0
 11
7016.911503175158
 21
-2341.7285050736491
 31
0.0
  0
LINE
  5
AF591
  8
1外形線
 10
7016.911503175158
 20
-2343.72850507365
 30
0.0
 11
7002.2058386077679
 21
-2343.72850507365
 31
0.0
  0
ARC
  5
AF593
  8
1外形線
 10
7002.2058386077679
 20
-2329.7285050736482
 30
0.0
 40
14.0
 50
180.0
 51
270.0
  0
ARC
  5
AF594
  8
1外形線
 10
7002.4115031751589
 20
-2329.7285050736491
 30
0.0
 40
12.0
 50
180.0
 51
270.0
  0
ARC
  5
AF597
  8
1外形線
 10
7031.4115031751599
 20
-2329.7285050736491
 30
0.0
 40
12.0
 50
270.0
 51
0.0
  0
LINE
  5
AF599
  8
1外形線
 10
6976.6115031751597
 20
-2315.7285050736491
 30
0.0
 11
6987.2058386077679
 21
-2320.2285050736482
 31
0.0
  0
LINE
  5
AF59A
  8
1外形線
 10
6976.0115031751611
 20
-2315.7285050736491
 30
0.0
 11
6976.6115031751597
 21
-2315.7285050736491
 31
0.0
  0
LINE
  5
AF59C
  8
1外形線
 10
6976.0115031751611
 20
-2315.7285050736491
 30
0.0
 11
6976.0115031751611
 21
-2317.534169641041
 31
0.0
  0
LINE
  5
AF59E
  8
1外形線
 10
7057.2115031751582
 20
-2315.7285050736491
 30
0.0
 11
7046.6171677425527
 21
-2320.2285050736482
 31
0.0
  0
ARC
  5
AF5A3
  8
1外形線
 10
7044.6663195923356
 20
-2320.0285050736752
 30
0.0
 40
0.2
 50
179.9999999999479
 51
269.99999999994782
  0
LINE
  5
AF5A4
  8
1外形線
 10
7045.6171677425536
 20
-2320.2285050736482
 30
0.0
 11
7046.6171677425527
 21
-2320.2285050736482
 31
0.0
  0
LINE
  5
AF5A5
  8
1外形線
 10
7044.6663195923356
 20
-2320.2285050736732
 30
0.0
 11
7045.6171677425737
 21
-2320.228505073675
 31
0.0
  0
LINE
  5
AF5A6
  8
1外形線
 10
7044.4663195923413
 20
-2315.7285050736732
 30
0.0
 11
7044.4663195923367
 21
-2320.0285050736752
 31
0.0
  0
LINE
  5
AF5A7
  8
1外形線
 10
7043.4115031751844
 20
-2315.2285050736732
 30
0.0
 11
7043.9663195923404
 21
-2315.2285050736732
 31
0.0
  0
ARC
  5
AF5A8
  8
1外形線
 10
7043.9663195923404
 20
-2315.7285050736732
 30
0.0
 40
0.5
 50
359.99999999994782
 51
89.999999999947889
  0
LINE
  5
AF5B2
  8
1外形線
 10
6988.205838607767
 20
-2320.2285050736482
 30
0.0
 11
6987.2058386077679
 21
-2320.2285050736482
 31
0.0
  0
LINE
  5
AF5B3
  8
1外形線
 10
6985.072234436795
 20
-2319.322245419095
 30
0.0
 11
6985.072234436795
 21
-2326.5949009026758
 31
0.0
  0
ARC
  5
AF5B4
  8
1外形線
 10
6989.1566867580068
 20
-2320.0285050736488
 30
0.0
 40
0.2
 50
270.0
 51
0.0
  0
LINE
  5
AF5B5
  8
1外形線
 10
6990.4115031751589
 20
-2315.2285050736482
 30
0.0
 11
6989.8566867580021
 21
-2315.2285050736482
 31
0.0
  0
LINE
  5
AF5B6
  8
1外形線
 10
6989.1566867580068
 20
-2320.2285050736482
 30
0.0
 11
6988.205838607767
 21
-2320.2285050736482
 31
0.0
  0
LINE
  5
AF5B7
  8
1外形線
 10
6989.3566867580039
 20
-2315.7285050736482
 30
0.0
 11
6989.3566867580048
 21
-2320.0285050736488
 31
0.0
  0
LINE
  5
AF5B8
  8
1外形線
 10
6982.2519906829166
 20
-2318.1243319706132
 30
0.0
 11
6982.2519906829166
 21
-2323.7746571487969
 31
0.0
  0
ARC
  5
AF5C0
  8
1外形線
 10
6989.8566867580021
 20
-2315.7285050736482
 30
0.0
 40
0.5
 50
90.0
 51
180.0
  0
LINE
  5
AF5C4
  8
1外形線
 10
7057.8115031751613
 20
-2315.7285050736491
 30
0.0
 11
7057.2115031751582
 21
-2315.7285050736491
 31
0.0
  0
LINE
  5
AF5C5
  8
1外形線
 10
7057.8115031751613
 20
-2315.7285050736491
 30
0.0
 11
7057.8115031751613
 21
-2317.534169641041
 31
0.0
  0
LINE
  5
AF5C6
  8
1外形線
 10
7048.7507719135256
 20
-2319.3222454190959
 30
0.0
 11
7048.7507719135256
 21
-2326.5949009026758
 31
0.0
  0
LINE
  5
AF5C7
  8
1外形線
 10
7051.5710156674022
 20
-2318.1243319706132
 30
0.0
 11
7051.5710156674031
 21
-2323.7746571487969
 31
0.0
  0
LINE
  5
AF641
  8
1外形線
 10
6985.5442986704129
 20
-2237.4205743540419
 30
0.0
 11
6982.7240549165354
 21
-2232.9205743540419
 31
0.0
  0
ARC
  5
AF64D
  8
1外形線
 10
6985.4336107204499
 20
-2237.6205743540409
 30
0.0
 40
0.2
 50
90.0
 51
212.0762292592803
  0
ARC
  5
AF653
  8
1外形線
 10
6988.7592783575874
 20
-2241.4205743540419
 30
0.0
 40
1.0
 50
212.0762292592803
 51
270.0
  0
LINE
  5
AF654
  8
1外形線
 10
7016.9115031751808
 20
-2242.4205743540419
 30
0.0
 11
6988.7592783575874
 21
-2242.4205743540419
 31
0.0
  0
LINE
  5
AF655
  8
1外形線
 10
6987.9119360437007
 20
-2241.95162143585
 30
0.0
 11
6985.2641422576726
 21
-2237.7267837704039
 31
0.0
  0
LINE
  5
AF656
  8
1外形線
 10
7016.9115031751808
 20
-2237.4205743540419
 30
0.0
 11
6985.4336107204499
 21
-2237.4205743540419
 31
0.0
  0
LINE
  5
AF665
  8
1外形線
 10
6983.9115031751799
 20
-2219.4205741599471
 30
0.0
 11
6976.6115031751824
 21
-2219.4205741599471
 31
0.0
  0
LINE
  5
AF666
  8
1外形線
 10
6976.6115031751824
 20
-2203.4205743540419
 30
0.0
 11
7016.9115031751808
 21
-2203.4205743540419
 31
0.0
  0
LINE
  5
AF667
  8
1外形線
 10
6977.0115031751811
 20
-2197.4205743540419
 30
0.0
 11
7016.9115031751808
 21
-2197.4205743540419
 31
0.0
  0
ARC
  5
AF668
  8
1外形線
 10
6991.6115031751797
 20
-2219.6085926670312
 30
0.0
 40
15.0
 50
180.0
 51
212.0762292592803
  0
LINE
  5
AF66A
  8
1外形線
 10
6976.6115031751824
 20
-2203.4205743540419
 30
0.0
 11
6976.6115031751788
 21
-2219.6085926670312
 31
0.0
  0
LINE
  5
AF66B
  8
1外形線
 10
6976.0115031751811
 20
-2198.4205743540419
 30
0.0
 11
6976.0115031751793
 21
-2202.9205743540419
 31
0.0
  0
ARC
  5
AF66C
  8
1外形線
 10
6976.5115031751793
 20
-2202.9205743540419
 30
0.0
 40
0.5
 50
180.0
 51
270.0
  0
LINE
  5
AF66D
  8
1外形線
 10
6976.5115031751793
 20
-2203.4205743540419
 30
0.0
 11
6976.6115031751824
 21
-2203.4205743540419
 31
0.0
  0
ARC
  5
AF66E
  8
1外形線
 10
6977.0115031751811
 20
-2198.4205743540419
 30
0.0
 40
1.0
 50
90.0
 51
180.0
  0
LINE
  5
AF68B
  8
1外形線
 10
6993.2790505013209
 20
-2203.4205743540419
 30
0.0
 11
6993.2790505013254
 21
-2223.9205741599471
 31
0.0
  0
LINE
  5
AF68C
  8
1外形線
 10
6988.4115031751799
 20
-2223.9205741599471
 30
0.0
 11
7016.9115031751808
 21
-2223.9205741599471
 31
0.0
  0
LINE
  5
AF68E
  8
1外形線
 10
6984.5196200831442
 20
-2203.4205743540419
 30
0.0
 11
6984.5196200831442
 21
-2219.4618530623402
 31
0.0
  0
LINE
  5
AF68F
  8
1外形線
 10
6978.666755797376
 20
-2203.4205743540419
 30
0.0
 11
6978.666755797376
 21
-2219.4205741599471
 31
0.0
  0
LINE
  5
AF690
  8
1外形線
 10
6983.9115031751799
 20
-2228.4205741599471
 30
0.0
 11
6979.431746807415
 21
-2228.4205741599471
 31
0.0
  0
LINE
  5
AF691
  8
1外形線
 10
6982.1932101701204
 20
-2232.8267837704038
 30
0.0
 11
6978.9013684668771
 21
-2227.574298894152
 31
0.0
  0
ARC
  5
AF692
  8
1外形線
 10
6982.3626786328987
 20
-2232.7205743540412
 30
0.0
 40
0.2
 50
212.07622925930241
 51
270.0
  0
CIRCLE
  5
AF693
  8
1外形線
 10
6983.9115031751799
 20
-2223.9205741599471
 30
0.0
 40
2.0
  0
ARC
  5
AF694
  8
1外形線
 10
6983.9115031751799
 20
-2223.9205741599471
 30
0.0
 40
4.5
 50
270.0
 51
90.0
  0
LINE
  5
AF696
  8
1外形線
 10
7016.9115031751808
 20
-2232.9205743540419
 30
0.0
 11
6982.3626786328987
 21
-2232.9205743540419
 31
0.0
  0
ARC
  5
B04CD
  8
1外形線
 10
7049.9115031751808
 20
-2223.9205741599471
 30
0.0
 40
4.5
 50
90.0
 51
270.0
  0
CIRCLE
  5
B04CE
  8
1外形線
 10
7049.9115031751808
 20
-2223.9205741599471
 30
0.0
 40
2.0
  0
ARC
  5
B04CF
  8
1外形線
 10
7042.211503175181
 20
-2219.6085926670312
 30
0.0
 40
15.0
 50
327.9237707407197
 51
0.000000000000007
  0
LINE
  5
B04D0
  8
1外形線
 10
7045.9110703066599
 20
-2241.95162143585
 30
0.0
 11
7048.558864092689
 21
-2237.7267837704039
 31
0.0
  0
ARC
  5
B04D1
  8
1外形線
 10
7045.0637279927751
 20
-2241.4205743540419
 30
0.0
 40
1.0
 50
270.0
 51
327.9237707407197
  0
ARC
  5
B04D2
  8
1外形線
 10
7051.4603277174629
 20
-2232.7205743540412
 30
0.0
 40
0.2
 50
270.0
 51
327.92377074069748
  0
LINE
  5
B04D3
  8
1外形線
 10
7051.6297961802402
 20
-2232.8267837704038
 30
0.0
 11
7054.9216378834844
 21
-2227.574298894152
 31
0.0
  0
LINE
  5
B04D4
  8
1外形線
 10
7049.9115031751808
 20
-2228.4205741599471
 30
0.0
 11
7054.3912595429456
 21
-2228.4205741599471
 31
0.0
  0
ARC
  5
B04D5
  8
1外形線
 10
7048.3893956299107
 20
-2237.6205743540409
 30
0.0
 40
0.2
 50
327.9237707407197
 51
90.0
  0
LINE
  5
B04D6
  8
1外形線
 10
7048.2787076799477
 20
-2237.4205743540419
 30
0.0
 11
7051.098951433828
 21
-2232.9205743540419
 31
0.0
  0
LINE
  5
B04D7
  8
1外形線
 10
7016.9115031751808
 20
-2242.4205743540419
 30
0.0
 11
7045.0637279927751
 21
-2242.4205743540419
 31
0.0
  0
LINE
  5
B04D8
  8
1外形線
 10
7016.9115031751808
 20
-2232.9205743540419
 30
0.0
 11
7051.4603277174629
 21
-2232.9205743540419
 31
0.0
  0
LINE
  5
B04D9
  8
1外形線
 10
7016.9115031751808
 20
-2237.4205743540419
 30
0.0
 11
7048.3893956299107
 21
-2237.4205743540419
 31
0.0
  0
LINE
  5
B04DA
  8
1外形線
 10
7055.1562505529864
 20
-2203.4205743540419
 30
0.0
 11
7055.1562505529864
 21
-2219.4205741599471
 31
0.0
  0
LINE
  5
B04DB
  8
1外形線
 10
7049.3033862672182
 20
-2203.4205743540419
 30
0.0
 11
7049.3033862672182
 21
-2219.4618530623402
 31
0.0
  0
LINE
  5
B04DC
  8
1外形線
 10
7040.5439558490398
 20
-2203.4205743540419
 30
0.0
 11
7040.543955849038
 21
-2223.9205741599471
 31
0.0
  0
ARC
  5
B04DD
  8
1外形線
 10
7056.8115031751804
 20
-2198.4205743540419
 30
0.0
 40
1.0
 50
0.000000000000007
 51
90.0
  0
LINE
  5
B04DE
  8
1外形線
 10
7057.3115031751822
 20
-2203.4205743540419
 30
0.0
 11
7057.211503175181
 21
-2203.4205743540419
 31
0.0
  0
ARC
  5
B04DF
  8
1外形線
 10
7057.3115031751822
 20
-2202.9205743540419
 30
0.0
 40
0.5
 50
270.0
 51
0.000000000000007
  0
LINE
  5
B04E0
  8
1外形線
 10
7057.8115031751804
 20
-2198.4205743540419
 30
0.0
 11
7057.8115031751822
 21
-2202.9205743540419
 31
0.0
  0
LINE
  5
B04E1
  8
1外形線
 10
7057.211503175181
 20
-2203.4205743540419
 30
0.0
 11
7057.2115031751819
 21
-2219.6085926670312
 31
0.0
  0
LINE
  5
B04E2
  8
1外形線
 10
7049.9115031751808
 20
-2219.4205741599471
 30
0.0
 11
7057.211503175181
 21
-2219.4205741599471
 31
0.0
  0
LINE
  5
B04E3
  8
1外形線
 10
7045.4115031751808
 20
-2223.9205741599471
 30
0.0
 11
7016.9115031751808
 21
-2223.9205741599471
 31
0.0
  0
LINE
  5
B04E4
  8
1外形線
 10
7056.8115031751804
 20
-2197.4205743540419
 30
0.0
 11
7016.9115031751808
 21
-2197.4205743540419
 31
0.0
  0
LINE
  5
B04E5
  8
1外形線
 10
7057.211503175181
 20
-2203.4205743540419
 30
0.0
 11
7016.9115031751808
 21
-2203.4205743540419
 31
0.0
  0
LINE
  5
B0502
  8
1外形線
 10
7105.9495713824363
 20
-2292.4124670799301
 30
0.0
 11
7110.4495713824326
 21
-2287.61030598559
 31
0.0
  0
LINE
  5
B0503
  8
1外形線
 10
7114.9495713824363
 20
-2285.2145118954809
 30
0.0
 11
7114.9495713824363
 21
-2308.7285050736482
 31
0.0
  0
LINE
  5
B0504
  8
1外形線
 10
7110.4495713824326
 20
-2287.61030598559
 30
0.0
 11
7110.4495713824354
 21
-2318.0427907879339
 31
0.0
  0
LINE
  5
B0505
  8
1外形線
 10
7145.9495713824317
 20
-2315.72850507365
 30
0.0
 11
7145.9495713824317
 21
-2279.72850507365
 31
0.0
  0
LINE
  5
B0506
  8
1外形線
 10
7123.9495713824372
 20
-2285.2145118954809
 30
0.0
 11
7123.9495713824372
 21
-2308.72850507365
 31
0.0
  0
LINE
  5
B0507
  8
1外形線
 10
7139.9495713824317
 20
-2277.72850507365
 30
0.0
 11
7139.9495713824317
 21
-2315.72850507365
 31
0.0
  0
LINE
  5
B0508
  8
1外形線
 10
7144.9495713824326
 20
-2343.72850507365
 30
0.0
 11
7110.6495713824334
 21
-2343.72850507365
 31
0.0
  0
LINE
  5
B0509
  8
1外形線
 10
7101.9495713824372
 20
-2320.22850507365
 30
0.0
 11
7115.9495713824372
 21
-2316.6285050736492
 31
0.0
  0
LINE
  5
B050A
  8
1外形線
 10
7101.9495713824326
 20
-2320.22850507365
 30
0.0
 11
7119.4495713824317
 21
-2315.72850507365
 31
0.0
  0
LINE
  5
B050B
  8
1外形線
 10
7145.9495713824317
 20
-2315.72850507365
 30
0.0
 11
7122.9495713824344
 21
-2315.7285050736482
 31
0.0
  0
LINE
  5
B050C
  8
1外形線
 10
7145.9495713824317
 20
-2315.72850507365
 30
0.0
 11
7119.4495713824317
 21
-2315.72850507365
 31
0.0
  0
LINE
  5
B050D
  8
1外形線
 10
7145.9495713824372
 20
-2315.72850507365
 30
0.0
 11
7122.9495713824363
 21
-2315.7285050736482
 31
0.0
  0
LINE
  5
B050E
  8
1外形線
 10
7145.9495713824317
 20
-2315.72850507365
 30
0.0
 11
7119.4495713824317
 21
-2315.72850507365
 31
0.0
  0
ARC
  5
B050F
  8
1外形線
 10
7144.9495713824326
 20
-2342.7285050736491
 30
0.0
 40
1.0
 50
270.0
 51
0.000000000000007
  0
LINE
  5
B0510
  8
1外形線
 10
7145.9495713824317
 20
-2342.72850507365
 30
0.0
 11
7145.9495713824317
 21
-2315.72850507365
 31
0.0
  0
LINE
  5
B0511
  8
1外形線
 10
7145.9495713824372
 20
-2315.72850507365
 30
0.0
 11
7145.9495713824372
 21
-2310.72850507365
 31
0.0
  0
LINE
  5
B0512
  8
1外形線
 10
7119.4495713824363
 20
-2315.72850507365
 30
0.0
 11
7119.4495713824363
 21
-2343.72850507365
 31
0.0
  0
LINE
  5
B0513
  8
1外形線
 10
7139.9495713824317
 20
-2315.72850507365
 30
0.0
 11
7139.9495713824317
 21
-2343.72850507365
 31
0.0
  0
LINE
  5
B0514
  8
1外形線
 10
7119.4495713824363
 20
-2308.72850507365
 30
0.0
 11
7119.4495713824363
 21
-2315.7285050736482
 31
0.0
  0
LINE
  5
B0515
  8
1外形線
 10
7139.9495713824317
 20
-2294.3960523997921
 30
0.0
 11
7123.9495713824372
 21
-2294.3960523997921
 31
0.0
  0
LINE
  5
B0516
  8
1外形線
 10
7123.9495713824372
 20
-2308.72850507365
 30
0.0
 11
7114.9495713824363
 21
-2308.72850507365
 31
0.0
  0
LINE
  5
B0517
  8
1外形線
 10
7101.9495713824326
 20
-2343.72850507365
 30
0.0
 11
7105.7495713824319
 21
-2343.7285050736482
 31
0.0
  0
LINE
  5
B0518
  8
1外形線
 10
7100.9495713824317
 20
-2342.72850507365
 30
0.0
 11
7100.9495713824317
 21
-2341.7285050736491
 31
0.0
  0
LINE
  5
B0519
  8
1外形線
 10
7105.9495713824326
 20
-2343.5285050736488
 30
0.0
 11
7105.9495713824326
 21
-2343.1285050736469
 31
0.0
  0
LINE
  5
B051A
  8
1外形線
 10
7110.4495713824326
 20
-2343.5285050736488
 30
0.0
 11
7110.4495713824326
 21
-2343.1285050736469
 31
0.0
  0
ARC
  5
B051B
  8
1外形線
 10
7110.6495713824334
 20
-2343.5285050736479
 30
0.0
 40
0.2
 50
180.0
 51
270.0
  0
ARC
  5
B051C
  8
1外形線
 10
7101.9495713824326
 20
-2342.7285050736491
 30
0.0
 40
1.0
 50
180.0
 51
270.0
  0
ARC
  5
B051D
  8
1外形線
 10
7105.7495713824319
 20
-2343.5285050736479
 30
0.0
 40
0.2
 50
270.0
 51
0.000000000000007
  0
LINE
  5
B051E
  8
1外形線
 10
7105.9495713824326
 20
-2343.3285050736499
 30
0.0
 11
7110.4495713824326
 21
-2343.3285050736481
 31
0.0
  0
LINE
  5
B051F
  8
1外形線
 10
7100.9495713824317
 20
-2320.22850507365
 30
0.0
 11
7101.9495713824326
 21
-2320.22850507365
 31
0.0
  0
LINE
  5
B0520
  8
1外形線
 10
7100.9495713824317
 20
-2320.22850507365
 30
0.0
 11
7101.9495713824326
 21
-2320.22850507365
 31
0.0
  0
LINE
  5
B0521
  8
1外形線
 10
7100.9495713824317
 20
-2341.7285050736491
 30
0.0
 11
7100.9495713824317
 21
-2320.22850507365
 31
0.0
  0
LINE
  5
B0522
  8
1外形線
 10
7110.4495713824326
 20
-2318.0427907879339
 30
0.0
 11
7110.4495713824326
 21
-2343.1285050736469
 31
0.0
  0
LINE
  5
B0523
  8
1外形線
 10
7105.9495713824326
 20
-2343.5285050736488
 30
0.0
 11
7105.9495713824326
 21
-2319.1999336450772
 31
0.0
  0
LINE
  5
B0524
  8
1外形線
 10
7100.9495713824363
 20
-2320.22850507365
 30
0.0
 11
7100.9495713824363
 21
-2315.22850507365
 31
0.0
  0
LINE
  5
B0525
  8
1外形線
 10
7100.9495713824317
 20
-2320.22850507365
 30
0.0
 11
7100.9495713824317
 21
-2297.2660405348611
 31
0.0
  0
ARC
  5
B0526
  8
1外形線
 10
7101.9495713824326
 20
-2297.2660405348602
 30
0.0
 40
1.0
 50
136.86047844891249
 51
180.0
  0
LINE
  5
B0527
  8
1外形線
 10
7105.6036332237236
 20
-2291.904155193728
 30
0.0
 11
7105.613778468276
 21
-2291.8933287273539
 31
0.0
  0
ARC
  5
B0528
  8
1外形線
 10
7105.7495713824346
 20
-2292.0409106463858
 30
0.0
 40
0.2
 50
0.000000000000007
 51
136.86047844891249
  0
LINE
  5
B0529
  8
1外形線
 10
7101.2198805888802
 20
-2296.582263271564
 30
0.0
 11
7105.6036332237236
 21
-2291.904155193728
 31
0.0
  0
LINE
  5
B052A
  8
1外形線
 10
7105.9495713824363
 20
-2319.199933645079
 30
0.0
 11
7105.9495713824363
 21
-2292.0409106463858
 31
0.0
  0
LINE
  5
B052B
  8
1外形線
 10
7100.9495713824363
 20
-2320.22850507365
 30
0.0
 11
7101.9495713824372
 21
-2320.22850507365
 31
0.0
  0
LINE
  5
B052C
  8
1外形線
 10
7100.9495713824317
 20
-2320.22850507365
 30
0.0
 11
7101.9495713824326
 21
-2320.22850507365
 31
0.0
  0
LINE
  5
B052D
  8
1外形線
 10
7110.5036332237214
 20
-2286.675135335443
 30
0.0
 11
7119.1036332237227
 21
-2277.497671910698
 31
0.0
  0
LINE
  5
B052E
  8
1外形線
 10
7144.9495713824326
 20
-2277.1285050736492
 30
0.0
 11
7140.4495713824326
 21
-2277.1285050736492
 31
0.0
  0
ARC
  5
B052F
  8
1外形線
 10
7144.9495713824326
 20
-2278.1285050736478
 30
0.0
 40
1.0
 50
0.000000000000007
 51
89.999999999999986
  0
LINE
  5
B0530
  8
1外形線
 10
7145.9495713824317
 20
-2279.72850507365
 30
0.0
 11
7145.9495713824317
 21
-2278.1285050736492
 31
0.0
  0
LINE
  5
B0531
  8
1外形線
 10
7139.9495713824317
 20
-2285.6366219816132
 30
0.0
 11
7123.9495713824372
 21
-2285.6366219816132
 31
0.0
  0
LINE
  5
B0532
  8
1外形線
 10
7139.9495713824354
 20
-2279.7837576958432
 30
0.0
 11
7119.4495713826
 21
-2279.7837576958432
 31
0.0
  0
LINE
  5
B0533
  8
1外形線
 10
7139.9495713824317
 20
-2277.72850507365
 30
0.0
 11
7139.9495713824317
 21
-2277.6285050736501
 31
0.0
  0
ARC
  5
B0534
  8
1外形線
 10
7140.4495713824326
 20
-2277.6285050736478
 30
0.0
 40
0.5
 50
89.999999999999986
 51
180.0
  0
LINE
  5
B0535
  8
1外形線
 10
7119.4495713824317
 20
-2277.72850507365
 30
0.0
 11
7119.4495713824317
 21
-2277.6344273633581
 31
0.0
  0
ARC
  5
B0536
  8
1外形線
 10
7119.2495713824337
 20
-2277.6344273633572
 30
0.0
 40
0.2
 50
0.000000000000007
 51
136.86047844891249
  0
LINE
  5
B0537
  8
1外形線
 10
7139.9495713824317
 20
-2277.72850507365
 30
0.0
 11
7119.4495713824317
 21
-2277.72850507365
 31
0.0
  0
LINE
  5
B0538
  8
1外形線
 10
7119.4495713826
 20
-2282.3544559603338
 30
0.0
 11
7119.4495713826
 21
-2277.6344273633581
 31
0.0
  0
POLYLINE
  5
B0539
  8
1外形線
 10
7123.9495713824363
 20
-2285.2145118954809
 30
0.0
 66
     1
 70
     8
  0
VERTEX
  8
1外形線
  5
B05A5
 10
7123.95
 20
-2285.21
 30
0.000000
  70
    32
  0
VERTEX
  8
1外形線
  5
B05A6
 10
7123.95
 20
-2285.14
 30
0.000000
  70
    32
  0
VERTEX
  8
1外形線
  5
B05A7
 10
7123.94
 20
-2285.07
 30
0.000000
  70
    32
  0
VERTEX
  8
1外形線
  5
B05A8
 10
7123.94
 20
-2285.00
 30
0.000000
  70
    32
  0
VERTEX
  8
1外形線
  5
B05A9
 10
7123.93
 20
-2284.93
 30
0.000000
  70
    32
  0
VERTEX
  8
1外形線
  5
B05AA
 10
7123.92
 20
-2284.86
 30
0.000000
  70
    32
  0
VERTEX
  8
1外形線
  5
B05AB
 10
7123.90
 20
-2284.79
 30
0.000000
  70
    32
  0
VERTEX
  8
1外形線
  5
B05AC
 10
7123.88
 20
-2284.73
 30
0.000000
  70
    32
  0
VERTEX
  8
1外形線
  5
B05AD
 10
7123.86
 20
-2284.66
 30
0.000000
  70
    32
  0
VERTEX
  8
1外形線
  5
B05AE
 10
7123.84
 20
-2284.59
 30
0.000000
  70
    32
  0
VERTEX
  8
1外形線
  5
B05AF
 10
7123.81
 20
-2284.52
 30
0.000000
  70
    32
  0
VERTEX
  8
1外形線
  5
B05B0
 10
7123.79
 20
-2284.45
 30
0.000000
  70
    32
  0
VERTEX
  8
1外形線
  5
B05B1
 10
7123.76
 20
-2284.38
 30
0.000000
  70
    32
  0
VERTEX
  8
1外形線
  5
B05B2
 10
7123.72
 20
-2284.32
 30
0.000000
  70
    32
  0
VERTEX
  8
1外形線
  5
B05B3
 10
7123.69
 20
-2284.25
 30
0.000000
  70
    32
  0
VERTEX
  8
1外形線
  5
B05B4
 10
7123.65
 20
-2284.19
 30
0.000000
  70
    32
  0
VERTEX
  8
1外形線
  5
B05B5
 10
7123.61
 20
-2284.12
 30
0.000000
  70
    32
  0
VERTEX
  8
1外形線
  5
B05B6
 10
7123.56
 20
-2284.06
 30
0.000000
  70
    32
  0
VERTEX
  8
1外形線
  5
B05B7
 10
7123.52
 20
-2283.99
 30
0.000000
  70
    32
  0
VERTEX
  8
1外形線
  5
B05B8
 10
7123.47
 20
-2283.93
 30
0.000000
  70
    32
  0
VERTEX
  8
1外形線
  5
B05B9
 10
7123.42
 20
-2283.87
 30
0.000000
  70
    32
  0
VERTEX
  8
1外形線
  5
B05BA
 10
7123.36
 20
-2283.80
 30
0.000000
  70
    32
  0
VERTEX
  8
1外形線
  5
B05BB
 10
7123.31
 20
-2283.74
 30
0.000000
  70
    32
  0
VERTEX
  8
1外形線
  5
B05BC
 10
7123.25
 20
-2283.68
 30
0.000000
  70
    32
  0
VERTEX
  8
1外形線
  5
B05BD
 10
7123.19
 20
-2283.63
 30
0.000000
  70
    32
  0
VERTEX
  8
1外形線
  5
B05BE
 10
7123.13
 20
-2283.57
 30
0.000000
  70
    32
  0
VERTEX
  8
1外形線
  5
B05BF
 10
7123.06
 20
-2283.51
 30
0.000000
  70
    32
  0
VERTEX
  8
1外形線
  5
B05C0
 10
7123.00
 20
-2283.45
 30
0.000000
  70
    32
  0
VERTEX
  8
1外形線
  5
B05C1
 10
7122.93
 20
-2283.40
 30
0.000000
  70
    32
  0
VERTEX
  8
1外形線
  5
B05C2
 10
7122.86
 20
-2283.35
 30
0.000000
  70
    32
  0
VERTEX
  8
1外形線
  5
B05C3
 10
7122.78
 20
-2283.29
 30
0.000000
  70
    32
  0
VERTEX
  8
1外形線
  5
B05C4
 10
7122.71
 20
-2283.24
 30
0.000000
  70
    32
  0
VERTEX
  8
1外形線
  5
B05C5
 10
7122.63
 20
-2283.19
 30
0.000000
  70
    32
  0
VERTEX
  8
1外形線
  5
B05C6
 10
7122.55
 20
-2283.14
 30
0.000000
  70
    32
  0
VERTEX
  8
1外形線
  5
B05C7
 10
7122.47
 20
-2283.10
 30
0.000000
  70
    32
  0
VERTEX
  8
1外形線
  5
B05C8
 10
7122.39
 20
-2283.05
 30
0.000000
  70
    32
  0
VERTEX
  8
1外形線
  5
B05C9
 10
7122.30
 20
-2283.00
 30
0.000000
  70
    32
  0
VERTEX
  8
1外形線
  5
B05CA
 10
7122.22
 20
-2282.96
 30
0.000000
  70
    32
  0
VERTEX
  8
1外形線
  5
B05CB
 10
7122.13
 20
-2282.92
 30
0.000000
  70
    32
  0
VERTEX
  8
1外形線
  5
B05CC
 10
7122.04
 20
-2282.88
 30
0.000000
  70
    32
  0
VERTEX
  8
1外形線
  5
B05CD
 10
7121.95
 20
-2282.84
 30
0.000000
  70
    32
  0
VERTEX
  8
1外形線
  5
B05CE
 10
7121.86
 20
-2282.80
 30
0.000000
  70
    32
  0
VERTEX
  8
1外形線
  5
B05CF
 10
7121.76
 20
-2282.76
 30
0.000000
  70
    32
  0
VERTEX
  8
1外形線
  5
B05D0
 10
7121.67
 20
-2282.73
 30
0.000000
  70
    32
  0
VERTEX
  8
1外形線
  5
B05D1
 10
7121.57
 20
-2282.69
 30
0.000000
  70
    32
  0
VERTEX
  8
1外形線
  5
B05D2
 10
7121.47
 20
-2282.66
 30
0.000000
  70
    32
  0
VERTEX
  8
1外形線
  5
B05D3
 10
7121.37
 20
-2282.63
 30
0.000000
  70
    32
  0
VERTEX
  8
1外形線
  5
B05D4
 10
7121.27
 20
-2282.60
 30
0.000000
  70
    32
  0
VERTEX
  8
1外形線
  5
B05D5
 10
7121.17
 20
-2282.57
 30
0.000000
  70
    32
  0
VERTEX
  8
1外形線
  5
B05D6
 10
7121.07
 20
-2282.55
 30
0.000000
  70
    32
  0
VERTEX
  8
1外形線
  5
B05D7
 10
7120.97
 20
-2282.52
 30
0.000000
  70
    32
  0
VERTEX
  8
1外形線
  5
B05D8
 10
7120.86
 20
-2282.50
 30
0.000000
  70
    32
  0
VERTEX
  8
1外形線
  5
B05D9
 10
7120.76
 20
-2282.48
 30
0.000000
  70
    32
  0
VERTEX
  8
1外形線
  5
B05DA
 10
7120.65
 20
-2282.46
 30
0.000000
  70
    32
  0
VERTEX
  8
1外形線
  5
B05DB
 10
7120.54
 20
-2282.44
 30
0.000000
  70
    32
  0
VERTEX
  8
1外形線
  5
B05DC
 10
7120.44
 20
-2282.42
 30
0.000000
  70
    32
  0
VERTEX
  8
1外形線
  5
B05DD
 10
7120.33
 20
-2282.41
 30
0.000000
  70
    32
  0
VERTEX
  8
1外形線
  5
B05DE
 10
7120.22
 20
-2282.40
 30
0.000000
  70
    32
  0
VERTEX
  8
1外形線
  5
B05DF
 10
7120.11
 20
-2282.39
 30
0.000000
  70
    32
  0
VERTEX
  8
1外形線
  5
B05E0
 10
7120.00
 20
-2282.38
 30
0.000000
  70
    32
  0
VERTEX
  8
1外形線
  5
B05E1
 10
7119.89
 20
-2282.37
 30
0.000000
  70
    32
  0
VERTEX
  8
1外形線
  5
B05E2
 10
7119.78
 20
-2282.36
 30
0.000000
  70
    32
  0
VERTEX
  8
1外形線
  5
B05E3
 10
7119.67
 20
-2282.36
 30
0.000000
  70
    32
  0
VERTEX
  8
1外形線
  5
B05E4
 10
7119.56
 20
-2282.36
 30
0.000000
  70
    32
  0
VERTEX
  8
1外形線
  5
B05E5
 10
7119.45
 20
-2282.35
 30
0.000000
  70
    32
  0
VERTEX
  8
1外形線
  5
B05E6
 10
7119.34
 20
-2282.36
 30
0.000000
  70
    32
  0
VERTEX
  8
1外形線
  5
B05E7
 10
7119.23
 20
-2282.36
 30
0.000000
  70
    32
  0
VERTEX
  8
1外形線
  5
B05E8
 10
7119.12
 20
-2282.36
 30
0.000000
  70
    32
  0
VERTEX
  8
1外形線
  5
B05E9
 10
7119.01
 20
-2282.37
 30
0.000000
  70
    32
  0
VERTEX
  8
1外形線
  5
B05EA
 10
7118.90
 20
-2282.38
 30
0.000000
  70
    32
  0
VERTEX
  8
1外形線
  5
B05EB
 10
7118.79
 20
-2282.39
 30
0.000000
  70
    32
  0
VERTEX
  8
1外形線
  5
B05EC
 10
7118.68
 20
-2282.40
 30
0.000000
  70
    32
  0
VERTEX
  8
1外形線
  5
B05ED
 10
7118.57
 20
-2282.41
 30
0.000000
  70
    32
  0
VERTEX
  8
1外形線
  5
B05EE
 10
7118.46
 20
-2282.42
 30
0.000000
  70
    32
  0
VERTEX
  8
1外形線
  5
B05EF
 10
7118.36
 20
-2282.44
 30
0.000000
  70
    32
  0
VERTEX
  8
1外形線
  5
B05F0
 10
7118.25
 20
-2282.46
 30
0.000000
  70
    32
  0
VERTEX
  8
1外形線
  5
B05F1
 10
7118.14
 20
-2282.48
 30
0.000000
  70
    32
  0
VERTEX
  8
1外形線
  5
B05F2
 10
7118.04
 20
-2282.50
 30
0.000000
  70
    32
  0
VERTEX
  8
1外形線
  5
B05F3
 10
7117.93
 20
-2282.52
 30
0.000000
  70
    32
  0
VERTEX
  8
1外形線
  5
B05F4
 10
7117.83
 20
-2282.55
 30
0.000000
  70
    32
  0
VERTEX
  8
1外形線
  5
B05F5
 10
7117.73
 20
-2282.57
 30
0.000000
  70
    32
  0
VERTEX
  8
1外形線
  5
B05F6
 10
7117.63
 20
-2282.60
 30
0.000000
  70
    32
  0
VERTEX
  8
1外形線
  5
B05F7
 10
7117.53
 20
-2282.63
 30
0.000000
  70
    32
  0
VERTEX
  8
1外形線
  5
B05F8
 10
7117.43
 20
-2282.66
 30
0.000000
  70
    32
  0
VERTEX
  8
1外形線
  5
B05F9
 10
7117.33
 20
-2282.69
 30
0.000000
  70
    32
  0
VERTEX
  8
1外形線
  5
B05FA
 10
7117.23
 20
-2282.73
 30
0.000000
  70
    32
  0
VERTEX
  8
1外形線
  5
B05FB
 10
7117.14
 20
-2282.76
 30
0.000000
  70
    32
  0
VERTEX
  8
1外形線
  5
B05FC
 10
7117.04
 20
-2282.80
 30
0.000000
  70
    32
  0
VERTEX
  8
1外形線
  5
B05FD
 10
7116.95
 20
-2282.84
 30
0.000000
  70
    32
  0
VERTEX
  8
1外形線
  5
B05FE
 10
7116.86
 20
-2282.88
 30
0.000000
  70
    32
  0
VERTEX
  8
1外形線
  5
B05FF
 10
7116.77
 20
-2282.92
 30
0.000000
  70
    32
  0
VERTEX
  8
1外形線
  5
B0600
 10
7116.68
 20
-2282.96
 30
0.000000
  70
    32
  0
VERTEX
  8
1外形線
  5
B0601
 10
7116.59
 20
-2283.00
 30
0.000000
  70
    32
  0
VERTEX
  8
1外形線
  5
B0602
 10
7116.51
 20
-2283.05
 30
0.000000
  70
    32
  0
VERTEX
  8
1外形線
  5
B0603
 10
7116.43
 20
-2283.10
 30
0.000000
  70
    32
  0
VERTEX
  8
1外形線
  5
B0604
 10
7116.35
 20
-2283.14
 30
0.000000
  70
    32
  0
VERTEX
  8
1外形線
  5
B0605
 10
7116.27
 20
-2283.19
 30
0.000000
  70
    32
  0
VERTEX
  8
1外形線
  5
B0606
 10
7116.19
 20
-2283.24
 30
0.000000
  70
    32
  0
VERTEX
  8
1外形線
  5
B0607
 10
7116.12
 20
-2283.29
 30
0.000000
  70
    32
  0
VERTEX
  8
1外形線
  5
B0608
 10
7116.04
 20
-2283.35
 30
0.000000
  70
    32
  0
VERTEX
  8
1外形線
  5
B0609
 10
7115.97
 20
-2283.40
 30
0.000000
  70
    32
  0
VERTEX
  8
1外形線
  5
B060A
 10
7115.90
 20
-2283.45
 30
0.000000
  70
    32
  0
VERTEX
  8
1外形線
  5
B060B
 10
7115.84
 20
-2283.51
 30
0.000000
  70
    32
  0
VERTEX
  8
1外形線
  5
B060C
 10
7115.77
 20
-2283.57
 30
0.000000
  70
    32
  0
VERTEX
  8
1外形線
  5
B060D
 10
7115.71
 20
-2283.63
 30
0.000000
  70
    32
  0
VERTEX
  8
1外形線
  5
B060E
 10
7115.65
 20
-2283.68
 30
0.000000
  70
    32
  0
VERTEX
  8
1外形線
  5
B060F
 10
7115.59
 20
-2283.74
 30
0.000000
  70
    32
  0
VERTEX
  8
1外形線
  5
B0610
 10
7115.53
 20
-2283.80
 30
0.000000
  70
    32
  0
VERTEX
  8
1外形線
  5
B0611
 10
7115.48
 20
-2283.87
 30
0.000000
  70
    32
  0
VERTEX
  8
1外形線
  5
B0612
 10
7115.43
 20
-2283.93
 30
0.000000
  70
    32
  0
VERTEX
  8
1外形線
  5
B0613
 10
7115.38
 20
-2283.99
 30
0.000000
  70
    32
  0
VERTEX
  8
1外形線
  5
B0614
 10
7115.34
 20
-2284.06
 30
0.000000
  70
    32
  0
VERTEX
  8
1外形線
  5
B0615
 10
7115.29
 20
-2284.12
 30
0.000000
  70
    32
  0
VERTEX
  8
1外形線
  5
B0616
 10
7115.25
 20
-2284.19
 30
0.000000
  70
    32
  0
VERTEX
  8
1外形線
  5
B0617
 10
7115.21
 20
-2284.25
 30
0.000000
  70
    32
  0
VERTEX
  8
1外形線
  5
B0618
 10
7115.18
 20
-2284.32
 30
0.000000
  70
    32
  0
VERTEX
  8
1外形線
  5
B0619
 10
7115.14
 20
-2284.38
 30
0.000000
  70
    32
  0
VERTEX
  8
1外形線
  5
B061A
 10
7115.11
 20
-2284.45
 30
0.000000
  70
    32
  0
VERTEX
  8
1外形線
  5
B061B
 10
7115.08
 20
-2284.52
 30
0.000000
  70
    32
  0
VERTEX
  8
1外形線
  5
B061C
 10
7115.06
 20
-2284.59
 30
0.000000
  70
    32
  0
VERTEX
  8
1外形線
  5
B061D
 10
7115.04
 20
-2284.66
 30
0.000000
  70
    32
  0
VERTEX
  8
1外形線
  5
B061E
 10
7115.02
 20
-2284.73
 30
0.000000
  70
    32
  0
VERTEX
  8
1外形線
  5
B061F
 10
7115.00
 20
-2284.79
 30
0.000000
  70
    32
  0
VERTEX
  8
1外形線
  5
B0620
 10
7114.98
 20
-2284.86
 30
0.000000
  70
    32
  0
VERTEX
  8
1外形線
  5
B0621
 10
7114.97
 20
-2284.93
 30
0.000000
  70
    32
  0
VERTEX
  8
1外形線
  5
B0622
 10
7114.96
 20
-2285.00
 30
0.000000
  70
    32
  0
VERTEX
  8
1外形線
  5
B0623
 10
7114.95
 20
-2285.07
 30
0.000000
  70
    32
  0
VERTEX
  8
1外形線
  5
B0624
 10
7114.95
 20
-2285.14
 30
0.000000
  70
    32
  0
VERTEX
  8
1外形線
  5
B0625
 10
7114.95
 20
-2285.21
 30
0.000000
  70
    32
  0
SEQEND
  8
1外形線
  5
B0626
  0
LINE
  5
B053A
  8
1外形線
 10
7110.4495713824326
 20
-2287.6103059855882
 30
0.0
 11
7110.4495713824326
 21
-2286.811890788103
 31
0.0
  0
ARC
  5
B053B
  8
1外形線
 10
7110.6495713824334
 20
-2286.8118907881021
 30
0.0
 40
0.2
 50
136.86047844891249
 51
180.0
  0
LINE
  5
B0551
  8
1外形線
 10
6946.1093583077509
 20
-2173.4993640569128
 30
0.0
 11
6946.1093583077509
 21
-2368.860110653804
 31
0.0
  0
LINE
  5
B0552
  8
1外形線
 10
7177.1829157916436
 20
-2173.4993640569128
 30
0.0
 11
7177.1829157916436
 21
-2368.860110653804
 31
0.0
  0
LINE
  5
B0553
  8
1外形線
 10
6946.1093583077509
 20
-2368.860110653804
 30
0.0
 11
7177.1829157916436
 21
-2368.860110653804
 31
0.0
  0
LINE
  5
B0554
  8
1外形線
 10
6946.1093583077509
 20
-2173.4993640569128
 30
0.0
 11
7177.1829157916436
 21
-2173.4993640569128
 31
0.0
  0
VIEWPORT
  5
278B4
 67
     1
  8
0
 10
0.0
 20
0.0
 30
0.0
 40
0.0
 41
0.0
 68
     1
 69
     1
1001
ACAD
1000
MVIEW
1002
{
1070
    16
1010
0.0
1020
0.0
1030
0.0
1010
0.0
1020
0.0
1030
1.0
1040
0.0
1040
0.0
1040
0.0
1040
0.0
1040
50.0
1040
0.0
1040
0.0
1070
     0
1070
  1000
1070
     1
1070
     1
1070
     0
1070
     0
1070
     0
1070
     0
1040
0.0
1040
0.0
1040
0.0
1040
10.0
1040
10.0
1040
10.0
1040
10.0
1070
     0
1002
{
1002
}
1002
}
1001
GENIUS_GENSCREG_15
1000
PF
1040
1.0
1000
DF
1040
1.0
1000
MIN
1011
0.0
1021
-0.0
1031
-0.0
1021
0.0
1031
0.0
1000
MAX
1011
0.0
1021
-0.0
1031
-0.0
1021
0.0
1031
0.0
1000
FLAGS
1070
     4
1001
GENIUS_GENODEF_13
1002
{
1000
HIER
1070
     0
1002
}
1002
{
1000
MANEDIT
1070
     0
1002
}
1002
{
1000
NOSEL
1070
     0
1002
}
1002
{
1000
BEHIND
1070
     0
1002
}
1002
{
1000
OTHER
1070
     0
1002
}
1002
{
1000
REACTOR
1002
}
1001
GENIUS_GENOBJ-N-SDF_13
1002
{
1000
OWNER
1000
GEN
1002
}
  0
VIEWPORT
  5
278B6
 67
     1
  8
2寸法線
 10
0.0
 20
0.0
 30
0.0
 40
1.0
 41
1.0
 68
    -1
 69
     2
1001
ACAD
1000
MVIEW
1002
{
1070
    16
1010
0.0
1020
0.0
1030
0.0
1010
0.0
1020
0.0
1030
1.0
1040
0.0
1040
9.3280154870815451E+038
1040
1484.2513701830289
1040
512.97172337274003
1040
50.0
1040
0.0
1040
0.0
1070
     0
1070
  1000
1070
     1
1070
     1
1070
     0
1070
     0
1070
     0
1070
     1
1040
0.0
1040
0.0
1040
0.0
1040
1.0
1040
1.0
1040
0.0
1040
0.0
1070
     0
1002
{
1002
}
1002
}
1001
GENIUS_GENSCREG_15
1000
PF
1040
0.0
1000
DF
1040
0.0
1000
MIN
1011
-0.5
1021
-0.0
1031
-0.0
1021
-0.5
1031
0.0
1000
MAX
1011
0.5
1021
-0.0
1031
-0.0
1021
0.5
1031
0.0
1000
FLAGS
1070
     4
1001
GENIUS_GENODEF_13
1002
{
1000
HIER
1070
     0
1002
}
1002
{
1000
MANEDIT
1070
     0
1002
}
1002
{
1000
NOSEL
1070
     0
1002
}
1002
{
1000
BEHIND
1070
     0
1002
}
1002
{
1000
OTHER
1070
     0
1002
}
1002
{
1000
REACTOR
1002
}
1001
GENIUS_GENOBJ-N-SDF_13
1002
{
1000
OWNER
1000
GEN
1002
}
  0
ENDSEC
  0
EOF
