  0
SECTION
  2
HEADER
  9
$ACADVER
  1
AC1009
  9
$INSBASE
 10
0.0
 20
0.0
 30
0.0
  9
$EXTMIN
 10
29.007364653714141
 20
20.56153767361263
 30
0.0
  9
$EXTMAX
 10
394.00736465371398
 20
1197.1579390845211
 30
0.0
  9
$LIMMIN
 10
0.0
 20
0.0
  9
$LIMMAX
 10
420.0
 20
297.0
  9
$ORTHOMODE
 70
     0
  9
$REGENMODE
 70
     1
  9
$FILLMODE
 70
     1
  9
$QTEXTMODE
 70
     0
  9
$MIRRTEXT
 70
     1
  9
$DRAGMODE
 70
     2
  9
$LTSCALE
 40
1.0
  9
$OSMODE
 70
    37
  9
$ATTMODE
 70
     1
  9
$TEXTSIZE
 40
2.5
  9
$TRACEWID
 40
1.0
  9
$TEXTSTYLE
  7
STANDARD
  9
$CLAYER
  8
0
  9
$CELTYPE
  6
BYLAYER
  9
$CECOLOR
 62
   256
  9
$DIMSCALE
 40
1.0
  9
$DIMASZ
 40
2.5
  9
$DIMEXO
 40
0.625
  9
$DIMDLI
 40
3.75
  9
$DIMRND
 40
0.0
  9
$DIMDLE
 40
0.0
  9
$DIMEXE
 40
1.25
  9
$DIMTP
 40
0.0
  9
$DIMTM
 40
0.0
  9
$DIMTXT
 40
2.5
  9
$DIMCEN
 40
2.5
  9
$DIMTSZ
 40
0.0
  9
$DIMTOL
 70
     0
  9
$DIMLIM
 70
     0
  9
$DIMTIH
 70
     0
  9
$DIMTOH
 70
     0
  9
$DIMSE1
 70
     0
  9
$DIMSE2
 70
     0
  9
$DIMTAD
 70
     1
  9
$DIMZIN
 70
     8
  9
$DIMBLK
  1

  9
$DIMASO
 70
     1
  9
$DIMSHO
 70
     1
  9
$DIMPOST
  1

  9
$DIMAPOST
  1

  9
$DIMALT
 70
     0
  9
$DIMALTD
 70
     3
  9
$DIMALTF
 40
0.03937007874016
  9
$DIMLFAC
 40
1.0
  9
$DIMTOFL
 70
     1
  9
$DIMTVP
 40
0.0
  9
$DIMTIX
 70
     0
  9
$DIMSOXD
 70
     0
  9
$DIMSAH
 70
     0
  9
$DIMBLK1
  1

  9
$DIMBLK2
  1

  9
$DIMSTYLE
  2
ISO-25
  9
$DIMCLRD
 70
     0
  9
$DIMCLRE
 70
     0
  9
$DIMCLRT
 70
     0
  9
$DIMTFAC
 40
1.0
  9
$DIMGAP
 40
0.625
  9
$LUNITS
 70
     2
  9
$LUPREC
 70
     4
  9
$SKETCHINC
 40
1.0
  9
$FILLETRAD
 40
10.0
  9
$AUNITS
 70
     0
  9
$AUPREC
 70
     0
  9
$MENU
  1
.
  9
$ELEVATION
 40
0.0
  9
$PELEVATION
 40
0.0
  9
$THICKNESS
 40
0.0
  9
$LIMCHECK
 70
     0
  9
$BLIPMODE
 70
     0
  9
$CHAMFERA
 40
10.0
  9
$CHAMFERB
 40
10.0
  9
$SKPOLY
 70
     0
  9
$TDCREATE
 40
2452216.4788145018
  9
$TDUPDATE
 40
2452216.4790863069
  9
$TDINDWG
 40
0.0002726157
  9
$TDUSRTIMER
 40
0.0002726157
  9
$USRTIMER
 70
     1
  9
$ANGBASE
 50
0.0
  9
$ANGDIR
 70
     0
  9
$PDMODE
 70
     0
  9
$PDSIZE
 40
0.0
  9
$PLINEWID
 40
0.0
  9
$COORDS
 70
     1
  9
$SPLFRAME
 70
     0
  9
$SPLINETYPE
 70
     6
  9
$SPLINESEGS
 70
     8
  9
$ATTDIA
 70
     0
  9
$ATTREQ
 70
     1
  9
$HANDLING
 70
-16383
  9
$HANDSEED
  5
AEC
  9
$SURFTAB1
 70
     6
  9
$SURFTAB2
 70
     6
  9
$SURFTYPE
 70
     6
  9
$SURFU
 70
     6
  9
$SURFV
 70
     6
  9
$UCSNAME
  2

  9
$UCSORG
 10
0.0
 20
0.0
 30
0.0
  9
$UCSXDIR
 10
1.0
 20
0.0
 30
0.0
  9
$UCSYDIR
 10
0.0
 20
1.0
 30
0.0
  9
$PUCSNAME
  2

  9
$PUCSORG
 10
0.0
 20
0.0
 30
0.0
  9
$PUCSXDIR
 10
1.0
 20
0.0
 30
0.0
  9
$PUCSYDIR
 10
0.0
 20
1.0
 30
0.0
  9
$USERI1
 70
     0
  9
$USERI2
 70
     0
  9
$USERI3
 70
     0
  9
$USERI4
 70
     0
  9
$USERI5
 70
     0
  9
$USERR1
 40
0.0
  9
$USERR2
 40
0.0
  9
$USERR3
 40
0.0
  9
$USERR4
 40
0.0
  9
$USERR5
 40
0.0
  9
$WORLDVIEW
 70
     1
  9
$SHADEDGE
 70
     3
  9
$SHADEDIF
 70
    70
  9
$TILEMODE
 70
     1
  9
$MAXACTVP
 70
    64
  9
$PLIMCHECK
 70
     0
  9
$PEXTMIN
 10
1.0000000000000000E+020
 20
1.0000000000000000E+020
 30
1.0000000000000000E+020
  9
$PEXTMAX
 10
-1.0000000000000000E+020
 20
-1.0000000000000000E+020
 30
-1.0000000000000000E+020
  9
$PLIMMIN
 10
0.0
 20
0.0
  9
$PLIMMAX
 10
420.0
 20
297.0
  9
$UNITMODE
 70
     0
  9
$VISRETAIN
 70
     1
  9
$PLINEGEN
 70
     0
  9
$PSLTSCALE
 70
     1
  0
ENDSEC
  0
SECTION
  2
TABLES
  0
TABLE
  2
VPORT
 70
     3
  0
VPORT
  2
*ACTIVE
 70
     0
 10
0.0
 20
0.0
 11
1.0
 21
1.0
 12
212.369075829384
 22
600.20804375708997
 13
0.0
 23
0.0
 14
10.0
 24
10.0
 15
10.0
 25
10.0
 16
0.0
 26
0.0
 36
1.0
 17
0.0
 27
0.0
 37
0.0
 40
296.99999986169979
 41
1.430094786729857
 42
50.0
 43
0.0
 44
0.0
 50
0.0
 51
0.0
 71
     0
 72
   100
 73
     1
 74
     3
 75
     0
 76
     0
 77
     0
 78
     0
  0
ENDTAB
  0
TABLE
  2
LTYPE
 70
     1
  0
LTYPE
  2
CONTINUOUS
 70
     0
  3
Solid line
 72
    65
 73
     0
 40
0.0
  0
ENDTAB
  0
TABLE
  2
LAYER
 70
     2
  0
LAYER
  2
0
 70
     0
 62
     7
  6
CONTINUOUS
  0
LAYER
  2
1外形線
 70
     0
 62
     3
  6
CONTINUOUS
  0
ENDTAB
  0
TABLE
  2
STYLE
 70
     2
  0
STYLE
  2
STANDARD
 70
     0
 40
0.0
 41
1.0
 50
0.0
 71
     0
 42
2.5
  3
txt
  4

  0
STYLE
  2
KANJI
 70
     0
 40
0.0
 41
1.0
 50
0.0
 71
     0
 42
2.5
  3
simplex.shx
  4
extfont.shx
  0
ENDTAB
  0
TABLE
  2
VIEW
 70
     0
  0
ENDTAB
  0
TABLE
  2
UCS
 70
     0
  0
ENDTAB
  0
TABLE
  2
APPID
 70
     1
  0
APPID
  2
ACAD
 70
     0
  0
ENDTAB
  0
TABLE
  2
DIMSTYLE
 70
     2
  0
DIMSTYLE
  2
ISO-25
 70
     0
  3

  4

  5

  6

  7

 40
1.0
 41
2.5
 42
0.625
 43
3.75
 44
1.25
 45
0.0
 46
0.0
 47
0.0
 48
0.0
140
2.5
141
2.5
142
0.0
143
0.03937007874016
144
1.0
145
0.0
146
1.0
147
0.625
 71
     0
 72
     0
 73
     0
 74
     0
 75
     0
 76
     0
 77
     1
 78
     8
170
     0
171
     3
172
     1
173
     0
174
     0
175
     0
176
     0
177
     0
178
     0
  0
DIMSTYLE
  2
STANDARD
 70
     0
  3

  4

  5

  6

  7

 40
1.0
 41
0.18
 42
0.0625
 43
0.38
 44
0.18
 45
0.0
 46
0.0
 47
0.0
 48
0.0
140
0.18
141
0.09
142
0.0
143
25.399999999999999
144
1.0
145
0.0
146
1.0
147
0.09
 71
     0
 72
     0
 73
     1
 74
     1
 75
     0
 76
     0
 77
     0
 78
     0
170
     0
171
     2
172
     0
173
     0
174
     0
175
     0
176
     0
177
     0
178
     0
  0
ENDTAB
  0
ENDSEC
  0
SECTION
  2
BLOCKS
  0
BLOCK
  8
0
  2
$MODEL_SPACE
 70
     0
 10
0.0
 20
0.0
 30
0.0
  3
$MODEL_SPACE
  1

  0
ENDBLK
  5
21
  8
0
  0
BLOCK
 67
     1
  8
0
  2
$PAPER_SPACE
 70
     0
 10
0.0
 20
0.0
 30
0.0
  3
$PAPER_SPACE
  1

  0
ENDBLK
  5
1D
 67
     1
  8
0
  0
BLOCK
  8
0
  2
2
 70
     0
 10
0.0
 20
0.0
 30
0.0
  3
2
  1

  0
INSERT
  5
2C
  8
0
  6
CONTINUOUS
  2
*U3
 10
0.0
 20
0.0
 30
0.0
1001
ACAD
1002
{
1000
R14_HATCH_DATA
1000
2C
1011
1.0
1021
0.0
1031
0.0
1021
0.0
1031
0.0
1011
0.0
1021
0.0
1031
0.0
1021
1.0
1031
0.0
1011
0.0
1021
0.0
1031
0.0
1021
0.0
1031
1.0
1040
0.0
1010
0.0
1020
0.0
1030
1.0
1000
SOLID
1070
     1
1070
     1
1071
        1
1071
        7
1070
     0
1070
     1
1071
        3
1040
0.0000000000000284
1040
0.0
1040
-0.899999999998343
1040
0.2411542731875897
1040
-0.8999999999983572
1040
-0.2411542731875613
1071
        3
1005
2F
1005
2D
1005
30
1070
     0
1070
     1
1040
0.0028941747346077
1071
        1
1040
-0.5303136156475148
1040
-0.0796654556697263
1040
0.0
1002
}
  0
LINE
  5
2D
  8
0
 10
-0.8999999999983572
 20
0.2411542731879876
 30
0.0
 11
-0.8999999999983572
 21
-0.2411542731880445
 31
0.0
  0
LINE
  5
2E
  8
0
 10
-0.9999999999983515
 20
0.0
 30
0.0
 11
0.0
 21
0.0
 31
0.0
  0
LINE
  5
2F
  8
0
 10
-0.8999999999984424
 20
0.2411542731875897
 30
0.0
 11
0.0
 21
0.0
 31
0.0
  0
LINE
  5
30
  8
0
 10
-0.8999999999984424
 20
-0.2411542731875897
 30
0.0
 11
0.0
 21
0.0
 31
0.0
  0
ENDBLK
  5
32
  8
0
  0
BLOCK
  8
0
  2
*U3
 70
     1
 10
0.0
 20
0.0
 30
0.0
  3
*U3
  1

  0
SOLID
  5
ABF
  8
0
  6
CONTINUOUS
 10
-0.5999999999988905
 20
0.0000000000000095
 30
0.0
 11
0.0000000000000284
 21
0.0
 31
0.0
 12
-0.899999999998343
 22
0.2411542731875897
 32
0.0
 13
-0.899999999998343
 23
0.2411542731875897
 33
0.0
210
0.0
220
0.0
230
1.0
  0
SOLID
  5
AC0
  8
0
  6
CONTINUOUS
 10
-0.5999999999988905
 20
0.0000000000000095
 30
0.0
 11
-0.899999999998343
 21
0.2411542731875897
 31
0.0
 12
-0.8999999999983572
 22
-0.2411542731875613
 32
0.0
 13
-0.8999999999983572
 23
-0.2411542731875613
 33
0.0
  0
SOLID
  5
AC1
  8
0
  6
CONTINUOUS
 10
-0.5999999999988905
 20
0.0000000000000095
 30
0.0
 11
-0.8999999999983572
 21
-0.2411542731875613
 31
0.0
 12
0.0000000000000284
 22
0.0
 32
0.0
 13
0.0000000000000284
 23
0.0
 33
0.0
210
0.0
220
0.0
230
1.0
  0
ENDBLK
  5
AC3
  8
0
  0
ENDSEC
  0
SECTION
  2
ENTITIES
  0
LINE
  5
579
  8
1外形線
 10
394.00736465371398
 20
1197.1579390845211
 30
0.0
 11
394.00736465371398
 21
20.56153767361263
 31
0.0
  0
LINE
  5
57A
  8
1外形線
 10
29.007364653714141
 20
1197.1579390845211
 30
0.0
 11
29.007364653714141
 21
20.56153767361263
 31
0.0
  0
LINE
  5
57B
  8
1外形線
 10
151.50736465371409
 20
609.23383194166809
 30
0.0
 11
155.00736465371409
 21
607.76508194166809
 31
0.0
  0
LINE
  5
57C
  8
1外形線
 10
151.50736465371409
 20
608.69159119081405
 30
0.0
 11
148.00736465371409
 21
610.16034119081405
 31
0.0
  0
ARC
  5
57D
  8
1外形線
 10
120.50736465371411
 20
611.1579390845252
 30
0.0
 40
4.5
 50
180.0
 51
0.0
  0
LINE
  5
57E
  8
1外形線
 10
134.42927389239321
 20
617.06457715692432
 30
0.0
 11
189.1961939034054
 21
594.08203036658858
 31
0.0
  0
LINE
  5
57F
  8
1外形線
 10
151.50736465371409
 20
609.23383194166809
 30
0.0
 11
151.50736465371409
 21
562.65793908452508
 31
0.0
  0
LINE
  5
580
  8
1外形線
 10
148.00736465371409
 20
610.70258194166809
 30
0.0
 11
148.00736465371409
 21
562.65793908452508
 31
0.0
  0
LINE
  5
581
  8
1外形線
 10
144.50736465371409
 20
612.17133194166809
 30
0.0
 11
144.50736465371409
 21
562.65793908452508
 31
0.0
  0
LINE
  5
582
  8
1外形線
 10
86.007364653714149
 20
562.65793908452508
 30
0.0
 11
86.007364653714149
 21
616.15793908452531
 31
0.0
  0
LINE
  5
583
  8
1外形線
 10
130.00736465371409
 20
562.65793908452508
 30
0.0
 11
130.00736465371409
 21
616.15793908452531
 31
0.0
  0
LINE
  5
584
  8
1外形線
 10
135.00736465371409
 20
562.65793908452508
 30
0.0
 11
135.00736465371409
 21
616.15793908452531
 31
0.0
  0
LINE
  5
585
  8
1外形線
 10
141.00736465371409
 20
613.64008194166809
 30
0.0
 11
141.00736465371409
 21
562.65793908452508
 31
0.0
  0
LINE
  5
586
  8
1外形線
 10
79.007364653714149
 20
562.65793908452508
 30
0.0
 11
79.007364653714149
 21
616.15793908452531
 31
0.0
  0
LINE
  5
587
  8
1外形線
 10
279.6073700485037
 20
590.1579390845252
 30
0.0
 11
279.607338221644
 21
615.75773905798826
 31
0.0
  0
LINE
  5
588
  8
1外形線
 10
276.60736465370701
 20
594.49722098411371
 30
0.0
 11
276.60736465370701
 21
616.59657283823162
 31
0.0
  0
ARC
  5
589
  8
1外形線
 10
281.60736465373628
 20
594.26720239456995
 30
0.0
 40
15.0
 50
33.099484647517158
 51
86.177446270726094
  0
LINE
  5
58A
  8
1外形線
 10
282.60736465370701
 20
594.49722098411371
 30
0.0
 11
282.60736465370718
 21
614.49419319159892
 31
0.0
  0
ARC
  5
58B
  8
1外形線
 10
281.60736465375089
 20
595.73595239456995
 30
0.0
 40
15.0
 50
51.800713440403577
 51
86.177446270726094
  0
ARC
  5
58C
  8
1外形線
 10
281.60736465373628
 20
595.19371164371557
 30
0.0
 40
15.0
 50
45.07804729317035
 51
86.177446270726094
  0
ARC
  5
58D
  8
1外形線
 10
258.3087932251355
 20
585.78508194166807
 30
0.0
 40
21.97999999999999
 50
90.0
 51
180.0
  0
ARC
  5
58E
  8
1外形線
 10
260.11504322513542
 20
585.016331941668
 30
0.0
 40
21.280000000000001
 50
90.0
 51
180.0
  0
ARC
  5
58F
  8
1外形線
 10
261.92129322513551
 20
584.24758194166805
 30
0.0
 40
20.579999999999991
 50
90.0
 51
180.0
  0
ARC
  5
590
  8
1外形線
 10
258.66376442178051
 20
585.50284119081368
 30
0.0
 40
21.719999999999999
 50
90.0
 51
180.0
  0
ARC
  5
591
  8
1外形線
 10
256.50254322513541
 20
586.55383194166825
 30
0.0
 40
22.68
 50
90.0
 51
180.0
  0
ARC
  5
592
  8
1外形線
 10
255.05126442178059
 20
587.04034119081371
 30
0.0
 40
23.120000000000001
 50
90.0
 51
180.0
  0
ARC
  5
593
  8
1外形線
 10
254.69629322513561
 20
587.32258194166809
 30
0.0
 40
23.379999999999999
 50
90.0
 51
180.0
  0
ARC
  5
594
  8
1外形線
 10
252.89004322513551
 20
588.09133194166816
 30
0.0
 40
24.079999999999991
 50
90.0
 51
180.0
  0
ARC
  5
595
  8
1外形線
 10
251.4387644217806
 20
588.57784119081384
 30
0.0
 40
24.519999999999989
 50
90.0
 51
180.0
  0
ARC
  5
596
  8
1外形線
 10
251.08589322513549
 20
588.85798194166819
 30
0.0
 40
24.7821
 50
90.0
 51
180.0
  0
ARC
  5
597
  8
1外形線
 10
249.307364653707
 20
588.85793908452501
 30
0.0
 40
28.300000000000001
 50
90.0
 51
180.0
  0
ARC
  5
598
  8
1外形線
 10
249.307364653707
 20
588.85793908452501
 30
0.0
 40
27.300000000000001
 50
90.0
 51
180.0
  0
ARC
  5
599
  8
1外形線
 10
271.307364653707
 20
591.85793908452501
 30
0.0
 40
25.300000000000001
 50
0.0
 51
90.0
  0
ARC
  5
59A
  8
1外形線
 10
272.307364653707
 20
591.85793908452524
 30
0.0
 40
24.300000000000001
 50
0.0
 51
64.920947697105234
  0
ARC
  5
59B
  8
1外形線
 10
281.60736465373611
 20
591.3297023945704
 30
0.0
 40
15.0
 50
0.0
 51
86.177446270726094
  0
ARC
  5
59C
  8
1外形線
 10
281.60736465373628
 20
592.79845239457018
 30
0.0
 40
15.0
 50
13.130252340272071
 51
86.177446270726094
  0
ARC
  5
59D
  8
1外形線
 10
281.60736465373628
 20
592.25621164371614
 30
0.0
 40
15.0
 50
5.5737483956704681
 51
86.177446270726094
  0
LINE
  5
59E
  8
1外形線
 10
29.007364653714141
 20
20.56153767361263
 30
0.0
 11
394.00736465371398
 21
20.56153767361263
 31
0.0
  0
LINE
  5
59F
  8
1外形線
 10
394.00736465371398
 20
372.56153767361258
 30
0.0
 11
29.007364653714141
 21
372.56153767361258
 31
0.0
  0
ARC
  5
5A0
  8
1外形線
 10
265.53379322513558
 20
582.71008194166802
 30
0.0
 40
19.18
 50
90.0
 51
180.0
  0
ARC
  5
5A1
  8
1外形線
 10
263.72754322513561
 20
583.4788319416682
 30
0.0
 40
19.879999999999988
 50
90.0
 51
180.0
  0
ARC
  5
5A2
  8
1外形線
 10
262.27626442178052
 20
583.96534119081412
 30
0.0
 40
20.32
 50
90.0
 51
180.0
  0
ARC
  5
5A3
  8
1外形線
 10
258.3087932251355
 20
539.53079622738233
 30
0.0
 40
21.97999999999999
 50
180.0
 51
270.0
  0
ARC
  5
5A4
  8
1外形線
 10
256.50254322513558
 20
538.76204622738226
 30
0.0
 40
22.68
 50
180.0
 51
270.0
  0
ARC
  5
5A5
  8
1外形線
 10
255.0512644217803
 20
538.27553697823646
 30
0.0
 40
23.120000000000001
 50
180.0
 51
270.0
  0
ARC
  5
5A6
  8
1外形線
 10
254.69629322513561
 20
537.99329622738242
 30
0.0
 40
23.379999999999999
 50
180.0
 51
270.0
  0
ARC
  5
5A7
  8
1外形線
 10
252.89004322513551
 20
537.22454622738223
 30
0.0
 40
24.079999999999991
 50
180.0
 51
270.0
  0
ARC
  5
5A8
  8
1外形線
 10
251.4387644217806
 20
536.73803697823655
 30
0.0
 40
24.519999999999989
 50
180.0
 51
270.0
  0
ARC
  5
5A9
  8
1外形線
 10
251.08379322513559
 20
536.45579622738217
 30
0.0
 40
24.780000000000001
 50
180.0
 51
270.0
  0
ARC
  5
5AA
  8
1外形線
 10
249.307364653707
 20
536.45793908452515
 30
0.0
 40
27.300000000000001
 50
180.0
 51
270.0
  0
ARC
  5
5AB
  8
1外形線
 10
249.307364653707
 20
536.45793908452515
 30
0.0
 40
28.300000000000001
 50
180.0
 51
270.0
  0
ARC
  5
5AC
  8
1外形線
 10
265.53379322513541
 20
542.60579622738226
 30
0.0
 40
19.18
 50
180.0
 51
270.0
  0
ARC
  5
5AD
  8
1外形線
 10
263.72754322513578
 20
541.83704622738219
 30
0.0
 40
19.879999999999988
 50
180.0
 51
270.0
  0
ARC
  5
5AE
  8
1外形線
 10
262.27626442178052
 20
541.35053697823616
 30
0.0
 40
20.32
 50
180.0
 51
270.0
  0
ARC
  5
5AF
  8
1外形線
 10
261.92129322513551
 20
541.06829622738223
 30
0.0
 40
20.579999999999991
 50
180.0
 51
270.0
  0
ARC
  5
5B0
  8
1外形線
 10
260.11504322513559
 20
540.29954622738217
 30
0.0
 40
21.280000000000001
 50
180.0
 51
270.0
  0
ARC
  5
5B1
  8
1外形線
 10
258.66376442178051
 20
539.81303697823648
 30
0.0
 40
21.719999999999999
 50
180.0
 51
270.0
  0
LINE
  5
5B2
  8
1外形線
 10
221.00736465371401
 20
272.5810181930932
 30
0.0
 11
221.00736465371401
 21
239.06153767361261
 31
0.0
  0
LINE
  5
5B3
  8
1外形線
 10
224.50736465371401
 20
270.6037454658204
 30
0.0
 11
224.50736465371401
 21
239.06153767361261
 31
0.0
  0
LINE
  5
5B4
  8
1外形線
 10
227.00736465371401
 20
269.19141050088098
 30
0.0
 11
227.00736465371401
 21
239.06153767361261
 31
0.0
  0
LINE
  5
5B5
  8
1外形線
 10
229.00736465371401
 20
239.06153767361249
 30
0.0
 11
229.00736465371401
 21
269.19140780348272
 31
0.0
  0
LINE
  5
5B6
  8
1外形線
 10
214.00736465371401
 20
276.5355636476387
 30
0.0
 11
214.00736465371401
 21
239.06153767361261
 31
0.0
  0
LINE
  5
5B7
  8
1外形線
 10
217.50736465371401
 20
274.55829092036572
 30
0.0
 11
217.50736465371401
 21
239.06153767361261
 31
0.0
  0
LINE
  5
5B8
  8
1外形線
 10
200.00736465371401
 20
284.4446545567294
 30
0.0
 11
200.00736465371401
 21
239.06153767361261
 31
0.0
  0
LINE
  5
5B9
  8
1外形線
 10
203.50736465371401
 20
282.4673818294566
 30
0.0
 11
203.50736465371401
 21
239.06153767361261
 31
0.0
  0
LINE
  5
5BA
  8
1外形線
 10
207.00736465371401
 20
280.49010910218391
 30
0.0
 11
207.00736465371401
 21
239.06153767361261
 31
0.0
  0
LINE
  5
5BB
  8
1外形線
 10
210.50736465371401
 20
278.51283637491122
 30
0.0
 11
210.50736465371401
 21
239.06153767361261
 31
0.0
  0
LINE
  5
5BC
  8
1外形線
 10
189.50736465371401
 20
290.37647273854759
 30
0.0
 11
189.50736465371401
 21
239.06153767361261
 31
0.0
  0
LINE
  5
5BD
  8
1外形線
 10
193.00736465371401
 20
288.3992000112749
 30
0.0
 11
193.00736465371401
 21
239.06153767361261
 31
0.0
  0
LINE
  5
5BE
  8
1外形線
 10
196.50736465371401
 20
286.42192728400209
 30
0.0
 11
196.50736465371401
 21
239.06153767361261
 31
0.0
  0
LINE
  5
5BF
  8
1外形線
 10
179.00736465371401
 20
296.30829092036572
 30
0.0
 11
179.00736465371401
 21
239.06153767361261
 31
0.0
  0
LINE
  5
5C0
  8
1外形線
 10
182.50736465371401
 20
294.33101819309309
 30
0.0
 11
182.50736465371401
 21
239.06153767361261
 31
0.0
  0
LINE
  5
5C1
  8
1外形線
 10
186.00736465371401
 20
292.3537454658204
 30
0.0
 11
186.00736465371401
 21
239.06153767361261
 31
0.0
  0
LINE
  5
5C2
  8
1外形線
 10
168.50736465371401
 20
302.24010910218391
 30
0.0
 11
168.50736465371401
 21
239.06153767361261
 31
0.0
  0
LINE
  5
5C3
  8
1外形線
 10
172.00736465371401
 20
300.26283637491122
 30
0.0
 11
172.00736465371401
 21
239.06153767361261
 31
0.0
  0
LINE
  5
5C4
  8
1外形線
 10
175.50736465371401
 20
298.28556364763858
 30
0.0
 11
175.50736465371401
 21
239.06153767361261
 31
0.0
  0
LINE
  5
5C5
  8
1外形線
 10
152.00736465371401
 20
311.56153767361258
 30
0.0
 11
152.00736465371401
 21
239.06153767361261
 31
0.0
  0
LINE
  5
5C6
  8
1外形線
 10
145.00736465371401
 20
311.56153767361258
 30
0.0
 11
145.00736465371401
 21
239.06153767361261
 31
0.0
  0
LINE
  5
5C7
  8
1外形線
 10
161.50736465371401
 20
306.1946545567294
 30
0.0
 11
161.50736465371401
 21
239.06153767361261
 31
0.0
  0
LINE
  5
5C8
  8
1外形線
 10
165.00736465371401
 20
304.21738182945671
 30
0.0
 11
165.00736465371401
 21
239.06153767361261
 31
0.0
  0
LINE
  5
5C9
  8
1外形線
 10
158.00736465371401
 20
308.17192728400221
 30
0.0
 11
158.00736465371401
 21
239.06153767361261
 31
0.0
  0
LINE
  5
5CA
  8
1外形線
 10
89.007364653714035
 20
311.56153767361258
 30
0.0
 11
89.007364653714035
 21
239.06153767361261
 31
0.0
  0
LINE
  5
5CB
  8
1外形線
 10
79.007364653714035
 20
311.56153767361258
 30
0.0
 11
79.007364653714149
 21
239.06153767361261
 31
0.0
  0
LINE
  5
5CC
  8
1外形線
 10
129.50736465371401
 20
168.45898108516039
 30
0.0
 11
89.007364653714035
 21
168.45898108516039
 31
0.0
  0
LINE
  5
5CD
  8
1外形線
 10
130.51562537581921
 20
174.4001564953663
 30
0.0
 11
89.007364653714035
 21
174.4001564953663
 31
0.0
  0
LINE
  5
5CE
  8
1外形線
 10
131.2667794992299
 20
125.70836704502889
 30
0.0
 11
89.007364653714035
 21
125.70836704502889
 31
0.0
  0
LINE
  5
5CF
  8
1外形線
 10
129.50736465371401
 20
116.35002500807791
 30
0.0
 11
89.007364653714035
 21
116.35002500807791
 31
0.0
  0
LINE
  5
5D0
  8
1外形線
 10
145.00736465371401
 20
59.414708302197482
 30
0.0
 11
89.007364653714035
 21
59.414708302197482
 31
0.0
  0
LINE
  5
5D1
  8
1外形線
 10
145.00736465371401
 20
52.964662823220472
 30
0.0
 11
89.007364653714035
 21
52.964662823220472
 31
0.0
  0
LINE
  5
5D2
  8
1外形線
 10
79.007364653714035
 20
50.561537673612627
 30
0.0
 11
158.00736465371401
 21
50.561537673612627
 31
0.0
  0
LINE
  5
5D3
  8
1外形線
 10
145.00736465371401
 20
68.773050339145243
 30
0.0
 11
89.007364653714035
 21
68.773050339145243
 31
0.0
  0
LINE
  5
5D4
  8
1外形線
 10
89.007364653714035
 20
134.56153767361261
 30
0.0
 11
145.00736465371401
 21
134.56153767361261
 31
0.0
  0
LINE
  5
5D5
  8
1外形線
 10
145.00736465371401
 20
132.15841252400429
 30
0.0
 11
89.007364653714035
 21
132.15841252400429
 31
0.0
  0
LINE
  5
5D6
  8
1外形線
 10
79.007364653714035
 20
92.561537673612634
 30
0.0
 11
140.00736465371401
 21
92.561537673612634
 31
0.0
  0
LINE
  5
5D7
  8
1外形線
 10
145.00736465371401
 20
183.55374379239981
 30
0.0
 11
89.007364653714035
 21
183.55374379239981
 31
0.0
  0
LINE
  5
5D8
  8
1外形線
 10
89.007364653714035
 20
166.56153767361261
 30
0.0
 11
145.00736465371401
 21
166.56153767361261
 31
0.0
  0
LINE
  5
5D9
  8
1外形線
 10
89.007364653714035
 20
50.561537673612627
 30
0.0
 11
89.007364653714035
 21
134.56153767361991
 31
0.0
  0
LINE
  5
5DA
  8
1外形線
 10
79.007364653714035
 20
134.56153767361261
 30
0.0
 11
79.007364653714035
 21
50.561537673612627
 31
0.0
  0
LINE
  5
5DB
  8
1外形線
 10
87.275313846145409
 20
135.56153767361261
 30
0.0
 11
80.007364653714035
 21
135.56153767361261
 31
0.0
  0
ARC
  5
5DC
  8
1外形線
 10
80.007364653714035
 20
134.56153767361261
 30
0.0
 40
1.0
 50
90.0
 51
180.0
  0
ARC
  5
5DD
  8
1外形線
 10
87.275313846145409
 20
133.56153767361261
 30
0.0
 40
2.0
 50
30.00000000000049
 51
90.0
  0
LINE
  5
5DE
  8
1外形線
 10
87.275313846145409
 20
165.56153767361261
 30
0.0
 11
80.007364653714035
 21
165.56153767361261
 31
0.0
  0
LINE
  5
5DF
  8
1外形線
 10
79.007364653714035
 20
166.56153767361261
 30
0.0
 11
79.007364653714149
 21
239.06153767361261
 31
0.0
  0
ARC
  5
5E0
  8
1外形線
 10
80.007364653714035
 20
166.56153767361261
 30
0.0
 40
1.0
 50
180.0
 51
270.0
  0
LINE
  5
5E1
  8
1外形線
 10
89.007364653714035
 20
166.56153767361261
 30
0.0
 11
89.007364653714035
 21
239.06153767361261
 31
0.0
  0
ARC
  5
5E2
  8
1外形線
 10
87.275313846145409
 20
167.56153767361261
 30
0.0
 40
2.0
 50
270.0
 51
329.99999999999949
  0
LINE
  5
5E3
  8
1外形線
 10
217.50736465371389
 20
64.561537673612634
 30
0.0
 11
217.50736465371389
 21
51.061537673612627
 31
0.0
  0
LINE
  5
5E4
  8
1外形線
 10
214.00736465371401
 20
64.56153767361252
 30
0.0
 11
214.00736465371401
 21
51.061537673612627
 31
0.0
  0
LINE
  5
5E5
  8
1外形線
 10
210.50736465371401
 20
64.56153767361252
 30
0.0
 11
210.50736465371401
 21
51.061537673612627
 31
0.0
  0
LINE
  5
5E6
  8
1外形線
 10
203.50736465371389
 20
64.56153767361252
 30
0.0
 11
203.50736465371401
 21
51.061537673612627
 31
0.0
  0
LINE
  5
5E7
  8
1外形線
 10
221.00736465371401
 20
50.561537673612627
 30
0.0
 11
221.00736465371401
 21
64.561537673612634
 31
0.0
  0
LINE
  5
5E8
  8
1外形線
 10
224.50736465371401
 20
64.561537673612634
 30
0.0
 11
224.50736465371401
 21
50.561537673612627
 31
0.0
  0
LINE
  5
5E9
  8
1外形線
 10
196.50736465371401
 20
64.561537673612634
 30
0.0
 11
196.50736465371401
 21
50.561537673612627
 31
0.0
  0
LINE
  5
5EA
  8
1外形線
 10
193.00736465371401
 20
50.561537673612627
 30
0.0
 11
193.00736465371401
 21
64.561537673612634
 31
0.0
  0
LINE
  5
5EB
  8
1外形線
 10
229.00736465371401
 20
86.347251959326854
 30
0.0
 11
229.00736465371401
 21
50.561537673612627
 31
0.0
  0
LINE
  5
5EC
  8
1外形線
 10
227.00736465371401
 20
50.561537673612627
 30
0.0
 11
227.00736465371401
 21
86.347251959326854
 31
0.0
  0
LINE
  5
5ED
  8
1外形線
 10
200.00736465371409
 20
51.061537673612627
 30
0.0
 11
200.00736465371409
 21
64.56153767361252
 31
0.0
  0
LINE
  5
5EE
  8
1外形線
 10
207.00736465371401
 20
51.061537673612627
 30
0.0
 11
207.00736465371401
 21
64.56153767361252
 31
0.0
  0
LINE
  5
5EF
  8
1外形線
 10
179.00736465371401
 20
50.561537673612627
 30
0.0
 11
179.00736465371401
 21
64.561537673612634
 31
0.0
  0
LINE
  5
5F0
  8
1外形線
 10
182.50736465371401
 20
64.561537673612634
 30
0.0
 11
182.50736465371401
 21
50.561537673612627
 31
0.0
  0
LINE
  5
5F1
  8
1外形線
 10
186.00736465371401
 20
50.561537673612627
 30
0.0
 11
186.00736465371401
 21
64.561537673612634
 31
0.0
  0
LINE
  5
5F2
  8
1外形線
 10
189.50736465371401
 20
64.561537673612634
 30
0.0
 11
189.50736465371401
 21
50.561537673612627
 31
0.0
  0
LINE
  5
5F3
  8
1外形線
 10
165.00736465371401
 20
50.561537673612627
 30
0.0
 11
165.00736465371401
 21
64.561537673612634
 31
0.0
  0
LINE
  5
5F4
  8
1外形線
 10
168.50736465371401
 20
64.561537673612634
 30
0.0
 11
168.50736465371401
 21
50.561537673612627
 31
0.0
  0
LINE
  5
5F5
  8
1外形線
 10
172.00736465371401
 20
50.561537673612627
 30
0.0
 11
172.00736465371401
 21
64.561537673612634
 31
0.0
  0
LINE
  5
5F6
  8
1外形線
 10
175.50736465371401
 20
64.561537673612634
 30
0.0
 11
175.50736465371401
 21
50.561537673612627
 31
0.0
  0
LINE
  5
5F7
  8
1外形線
 10
158.00736465371401
 20
64.561537673612634
 30
0.0
 11
158.00736465371401
 21
50.561537673612627
 31
0.0
  0
LINE
  5
5F8
  8
1外形線
 10
161.50736465371401
 20
64.561537673612634
 30
0.0
 11
161.50736465371401
 21
50.561537673612627
 31
0.0
  0
LINE
  5
5F9
  8
1外形線
 10
145.00736465371401
 20
50.561537673612627
 30
0.0
 11
145.00736465371401
 21
134.56153767361261
 31
0.0
  0
LINE
  5
5FA
  8
1外形線
 10
152.00736465371401
 20
134.56153767361261
 30
0.0
 11
152.00736465371401
 21
50.561537673612627
 31
0.0
  0
LINE
  5
5FB
  8
1外形線
 10
179.00736465371401
 20
51.061537673612627
 30
0.0
 11
182.50736465371401
 21
51.061537673612627
 31
0.0
  0
LINE
  5
5FC
  8
1外形線
 10
161.50736465371401
 20
50.561537673612627
 30
0.0
 11
165.00736465371401
 21
50.561537673612627
 31
0.0
  0
LINE
  5
5FD
  8
1外形線
 10
158.00736465371401
 20
51.061537673612627
 30
0.0
 11
161.50736465371401
 21
51.061537673612627
 31
0.0
  0
LINE
  5
5FE
  8
1外形線
 10
172.00736465371401
 20
51.061537673612627
 30
0.0
 11
175.50736465371401
 21
51.061537673612627
 31
0.0
  0
LINE
  5
5FF
  8
1外形線
 10
168.50736465371401
 20
50.561537673612627
 30
0.0
 11
172.00736465371401
 21
50.561537673612627
 31
0.0
  0
LINE
  5
600
  8
1外形線
 10
165.00736465371401
 20
51.061537673612627
 30
0.0
 11
168.50736465371401
 21
51.061537673612627
 31
0.0
  0
LINE
  5
601
  8
1外形線
 10
175.50736465371401
 20
50.561537673612627
 30
0.0
 11
179.00736465371401
 21
50.561537673612627
 31
0.0
  0
LINE
  5
602
  8
1外形線
 10
210.50736465371401
 20
50.561537673612627
 30
0.0
 11
214.00736465371401
 21
50.561537673612627
 31
0.0
  0
LINE
  5
603
  8
1外形線
 10
193.00736465371401
 20
51.061537673612627
 30
0.0
 11
196.50736465371401
 21
51.061537673612627
 31
0.0
  0
LINE
  5
604
  8
1外形線
 10
186.00736465371401
 20
51.061537673612627
 30
0.0
 11
189.50736465371401
 21
51.061537673612627
 31
0.0
  0
LINE
  5
605
  8
1外形線
 10
182.50736465371401
 20
50.561537673612627
 30
0.0
 11
186.00736465371401
 21
50.561537673612627
 31
0.0
  0
LINE
  5
606
  8
1外形線
 10
189.50736465371401
 20
50.561537673612627
 30
0.0
 11
193.00736465371401
 21
50.561537673612627
 31
0.0
  0
LINE
  5
607
  8
1外形線
 10
203.50736465371401
 20
50.561537673612627
 30
0.0
 11
207.00736465371401
 21
50.561537673612627
 31
0.0
  0
LINE
  5
608
  8
1外形線
 10
200.00736465371401
 20
51.061537673612627
 30
0.0
 11
203.50736465371401
 21
51.061537673612627
 31
0.0
  0
LINE
  5
609
  8
1外形線
 10
196.50736465371401
 20
50.561537673612627
 30
0.0
 11
200.00736465371401
 21
50.561537673612627
 31
0.0
  0
LINE
  5
60A
  8
1外形線
 10
200.00736465371401
 20
50.561537673612627
 30
0.0
 11
200.00736465371401
 21
51.061537673612627
 31
0.0
  0
LINE
  5
60B
  8
1外形線
 10
203.50736465371401
 20
51.061537673612627
 30
0.0
 11
203.50736465371401
 21
50.561537673612627
 31
0.0
  0
LINE
  5
60C
  8
1外形線
 10
207.00736465371401
 20
51.061537673612627
 30
0.0
 11
210.50736465371401
 21
51.061537673612627
 31
0.0
  0
LINE
  5
60D
  8
1外形線
 10
207.00736465371401
 20
50.561537673612627
 30
0.0
 11
207.00736465371401
 21
51.061537673612627
 31
0.0
  0
LINE
  5
60E
  8
1外形線
 10
210.50736465371401
 20
51.061537673612627
 30
0.0
 11
210.50736465371401
 21
50.561537673612627
 31
0.0
  0
LINE
  5
60F
  8
1外形線
 10
224.50736465371401
 20
50.561537673612627
 30
0.0
 11
229.00736465371401
 21
50.561537673612627
 31
0.0
  0
LINE
  5
610
  8
1外形線
 10
217.50736465371401
 20
50.561537673612627
 30
0.0
 11
221.00736465371401
 21
50.561537673612627
 31
0.0
  0
LINE
  5
611
  8
1外形線
 10
217.50736465371401
 20
51.061537673612627
 30
0.0
 11
217.50736465371401
 21
50.561537673612627
 31
0.0
  0
LINE
  5
612
  8
1外形線
 10
214.00736465371401
 20
50.561537673612627
 30
0.0
 11
214.00736465371401
 21
51.061537673612627
 31
0.0
  0
LINE
  5
613
  8
1外形線
 10
214.00736465371401
 20
51.061537673612627
 30
0.0
 11
217.50736465371401
 21
51.061537673612627
 31
0.0
  0
LINE
  5
614
  8
1外形線
 10
221.00736465371401
 20
51.061537673612627
 30
0.0
 11
224.50736465371401
 21
51.061537673612627
 31
0.0
  0
LINE
  5
615
  8
1外形線
 10
179.00736465371401
 20
182.38905605849121
 30
0.0
 11
182.50736465371401
 21
184.36632878576381
 31
0.0
  0
LINE
  5
616
  8
1外形線
 10
151.49192813673341
 20
165.68678157564909
 30
0.0
 11
227.14479076420781
 21
208.42573643662519
 31
0.0
  0
LINE
  5
617
  8
1外形線
 10
179.00736465371401
 20
116.6099906387177
 30
0.0
 11
182.50736465371401
 21
114.3599906387179
 31
0.0
  0
LINE
  5
618
  8
1外形線
 10
150.00736465371401
 20
67.561537673612634
 30
0.0
 11
229.00736465371401
 21
67.56153767361252
 31
0.0
  0
LINE
  5
619
  8
1外形線
 10
152.00736465371401
 20
70.561537673612634
 30
0.0
 11
227.00736465371401
 21
70.561537673612634
 31
0.0
  0
LINE
  5
61A
  8
1外形線
 10
152.00736465371401
 20
64.561537673612634
 30
0.0
 11
227.00736465371401
 21
64.561537673612634
 31
0.0
  0
LINE
  5
61B
  8
1外形線
 10
146.00736465371401
 20
135.56153767361261
 30
0.0
 11
151.00736465371401
 21
135.56153767361261
 31
0.0
  0
ARC
  5
61C
  8
1外形線
 10
150.00736465371401
 20
72.561537673612634
 30
0.0
 40
5.0
 50
180.0
 51
270.0
  0
LINE
  5
61D
  8
1外形線
 10
138.50736465371401
 20
99.561537673612634
 30
0.0
 11
138.50736465371401
 21
120.56153767361261
 31
0.0
  0
LINE
  5
61E
  8
1外形線
 10
129.50736465371401
 20
120.56153767361261
 30
0.0
 11
129.50736465371401
 21
99.561537673612634
 31
0.0
  0
LINE
  5
61F
  8
1外形線
 10
129.50736465371401
 20
99.561537673612634
 30
0.0
 11
138.50736465371401
 21
99.561537673612634
 31
0.0
  0
ARC
  5
620
  8
1外形線
 10
140.00736465371401
 20
87.561537673612634
 30
0.0
 40
5.0
 50
0.0
 51
90.0
  0
POLYLINE
  5
621
  8
1外形線
 66
     1
 10
0.0
 20
0.0
 30
0.0
  0
VERTEX
  5
AD8
  8
1外形線
 10
138.50736465371401
 20
120.56153767361261
 30
0.0
 42
0.0699309554825155
  0
VERTEX
  5
AD9
  8
1外形線
 10
138.14486674202959
 20
123.14069000815
 30
0.0
 42
0.0817502608533461
  0
VERTEX
  5
ADA
  8
1外形線
 10
137.1893451690535
 20
125.157731751325
 30
0.0
 42
0.106923918861336
  0
VERTEX
  5
ADB
  8
1外形線
 10
135.6355974258118
 20
126.6116341846014
 30
0.0
 42
0.1356160497308445
  0
VERTEX
  5
ADC
  8
1外形線
 10
134.00736465371401
 20
127.06153767361261
 30
0.0
 42
0.1356160497308491
  0
VERTEX
  5
ADD
  8
1外形線
 10
132.37913188161619
 20
126.6116341846014
 30
0.0
 42
0.1069239188613448
  0
VERTEX
  5
ADE
  8
1外形線
 10
130.82538413837449
 20
125.157731751325
 30
0.0
 42
0.0817502608533575
  0
VERTEX
  5
ADF
  8
1外形線
 10
129.86986256539839
 20
123.14069000815
 30
0.0
 42
0.0699309554825185
  0
VERTEX
  5
AE0
  8
1外形線
 10
129.50736465371401
 20
120.56153767361261
 30
0.0
 42
0.0699309554825246
  0
SEQEND
  5
AE1
  8
1外形線
  0
LINE
  5
622
  8
1外形線
 10
145.00736465371401
 20
116.35002500807791
 30
0.0
 11
138.50736465371401
 21
116.35002500807791
 31
0.0
  0
LINE
  5
623
  8
1外形線
 10
145.00736465371401
 20
125.70836704502889
 30
0.0
 11
136.74794980819991
 21
125.70836704502889
 31
0.0
  0
ARC
  5
624
  8
1外形線
 10
146.00736465371401
 20
134.56153767361261
 30
0.0
 40
1.0
 50
90.0
 51
180.0
  0
LINE
  5
625
  8
1外形線
 10
158.00736465371401
 20
130.70439481646969
 30
0.0
 11
158.00736465371401
 21
70.561537673612634
 31
0.0
  0
LINE
  5
626
  8
1外形線
 10
161.50736465371401
 20
70.561537673612634
 30
0.0
 11
161.50736465371401
 21
128.45439481646969
 31
0.0
  0
LINE
  5
627
  8
1外形線
 10
165.00736465371401
 20
126.2043948164697
 30
0.0
 11
165.00736465371401
 21
70.561537673612634
 31
0.0
  0
LINE
  5
628
  8
1外形線
 10
168.50736465371401
 20
70.561537673612634
 30
0.0
 11
168.50736465371401
 21
123.9543948164697
 31
0.0
  0
LINE
  5
629
  8
1外形線
 10
172.00736465371401
 20
121.7043948164697
 30
0.0
 11
172.00736465371401
 21
70.561537673612634
 31
0.0
  0
LINE
  5
62A
  8
1外形線
 10
175.50736465371401
 20
119.4543948164697
 30
0.0
 11
175.50736465371401
 21
70.561537673612634
 31
0.0
  0
LINE
  5
62B
  8
1外形線
 10
179.00736465371401
 20
70.561537673612634
 30
0.0
 11
179.00736465371401
 21
117.2043948164697
 31
0.0
  0
LINE
  5
62C
  8
1外形線
 10
161.50736465371401
 20
128.45439481646969
 30
0.0
 11
165.00736465371401
 21
126.2043948164697
 31
0.0
  0
LINE
  5
62D
  8
1外形線
 10
152.00736465371401
 20
134.56153767361261
 30
0.0
 11
158.00736465371401
 21
130.70439481646949
 31
0.0
  0
ARC
  5
62E
  8
1外形線
 10
151.00736465371401
 20
134.56153767361261
 30
0.0
 40
1.0
 50
0.0
 51
90.0
  0
LINE
  5
62F
  8
1外形線
 10
158.00736465371401
 20
130.1099906387177
 30
0.0
 11
161.50736465371401
 21
127.8599906387177
 31
0.0
  0
LINE
  5
630
  8
1外形線
 10
172.00736465371401
 20
121.1099906387177
 30
0.0
 11
175.50736465371401
 21
118.8599906387177
 31
0.0
  0
LINE
  5
631
  8
1外形線
 10
168.50736465371401
 20
123.9543948164697
 30
0.0
 11
172.00736465371401
 21
121.7043948164697
 31
0.0
  0
LINE
  5
632
  8
1外形線
 10
165.00736465371401
 20
125.6099906387177
 30
0.0
 11
168.50736465371401
 21
123.3599906387176
 31
0.0
  0
LINE
  5
633
  8
1外形線
 10
175.50736465371401
 20
119.4543948164697
 30
0.0
 11
179.00736465371401
 21
117.2043948164695
 31
0.0
  0
LINE
  5
634
  8
1外形線
 10
146.00736465371401
 20
165.56153767361261
 30
0.0
 11
151.00736465371401
 21
165.56153767361261
 31
0.0
  0
LINE
  5
635
  8
1外形線
 10
145.00736465371401
 20
166.56153767361261
 30
0.0
 11
145.00736465371401
 21
239.06153767361261
 31
0.0
  0
CIRCLE
  5
636
  8
1外形線
 10
134.00736465371401
 20
171.56153767361261
 30
0.0
 40
1.7
  0
ARC
  5
637
  8
1外形線
 10
134.00736465371401
 20
171.56153767361261
 30
0.0
 40
4.5
 50
0.0
 51
180.0
  0
LINE
  5
638
  8
1外形線
 10
129.50736465371401
 20
171.56153767361261
 30
0.0
 11
129.50736465371401
 21
166.56153767361261
 31
0.0
  0
LINE
  5
639
  8
1外形線
 10
145.00736465371401
 20
168.45898108516039
 30
0.0
 11
138.50736465371401
 21
168.45898108516039
 31
0.0
  0
LINE
  5
63A
  8
1外形線
 10
138.50736465371401
 20
171.56153767361261
 30
0.0
 11
138.50736465371401
 21
166.56153767361261
 31
0.0
  0
ARC
  5
63B
  8
1外形線
 10
146.00736465371401
 20
166.56153767361261
 30
0.0
 40
1.0
 50
180.0
 51
270.0
  0
LINE
  5
63C
  8
1外形線
 10
145.00736465371401
 20
174.4001564953663
 30
0.0
 11
137.4991039316088
 21
174.4001564953663
 31
0.0
  0
LINE
  5
63D
  8
1外形線
 10
158.00736465371401
 20
169.951148063223
 30
0.0
 11
158.00736465371401
 21
239.06153767361261
 31
0.0
  0
LINE
  5
63E
  8
1外形線
 10
175.50736465371401
 20
179.83751169958651
 30
0.0
 11
175.50736465371401
 21
239.06153767361261
 31
0.0
  0
LINE
  5
63F
  8
1外形線
 10
172.00736465371401
 20
177.86023897231399
 30
0.0
 11
172.00736465371401
 21
239.06153767361261
 31
0.0
  0
LINE
  5
640
  8
1外形線
 10
168.50736465371401
 20
175.8829662450413
 30
0.0
 11
168.50736465371401
 21
239.06153767361261
 31
0.0
  0
LINE
  5
641
  8
1外形線
 10
165.00736465371401
 20
173.9056935177685
 30
0.0
 11
165.00736465371401
 21
239.06153767361261
 31
0.0
  0
LINE
  5
642
  8
1外形線
 10
161.50736465371401
 20
171.92842079049581
 30
0.0
 11
161.50736465371401
 21
239.06153767361261
 31
0.0
  0
LINE
  5
643
  8
1外形線
 10
152.00736465371401
 20
166.56153767361261
 30
0.0
 11
152.00736465371401
 21
239.06153767361261
 31
0.0
  0
LINE
  5
644
  8
1外形線
 10
179.00736465371401
 20
181.81478442685949
 30
0.0
 11
179.00736465371401
 21
239.06153767361261
 31
0.0
  0
LINE
  5
645
  8
1外形線
 10
161.50736465371401
 20
171.92842079049581
 30
0.0
 11
165.00736465371401
 21
173.9056935177685
 31
0.0
  0
LINE
  5
646
  8
1外形線
 10
158.00736465371401
 20
170.525419694855
 30
0.0
 11
161.50736465371401
 21
172.50269242212769
 31
0.0
  0
LINE
  5
647
  8
1外形線
 10
152.00736465371401
 20
166.56153767361261
 30
0.0
 11
158.00736465371401
 21
169.951148063223
 31
0.0
  0
ARC
  5
648
  8
1外形線
 10
151.00736465371401
 20
166.56153767361261
 30
0.0
 40
1.0
 50
270.0
 51
0.0
  0
LINE
  5
649
  8
1外形線
 10
172.00736465371401
 20
178.43451060394571
 30
0.0
 11
175.50736465371401
 21
180.41178333121849
 31
0.0
  0
LINE
  5
64A
  8
1外形線
 10
168.50736465371401
 20
175.8829662450413
 30
0.0
 11
172.00736465371401
 21
177.86023897231399
 31
0.0
  0
LINE
  5
64B
  8
1外形線
 10
165.00736465371401
 20
174.4799651494003
 30
0.0
 11
168.50736465371401
 21
176.45723787667319
 31
0.0
  0
LINE
  5
64C
  8
1外形線
 10
175.50736465371401
 20
179.83751169958651
 30
0.0
 11
179.00736465371401
 21
181.81478442685949
 31
0.0
  0
LINE
  5
64D
  8
1外形線
 10
210.50736465371401
 20
96.954394816469744
 30
0.0
 11
214.00736465371401
 21
94.704394816469744
 31
0.0
  0
LINE
  5
64E
  8
1外形線
 10
200.00736465371409
 20
70.561537673612506
 30
0.0
 11
200.00736465371401
 21
103.7043948164696
 31
0.0
  0
LINE
  5
64F
  8
1外形線
 10
200.00736465371401
 20
103.7043948164697
 30
0.0
 11
200.00736465371401
 21
103.1099906387179
 31
0.0
  0
LINE
  5
650
  8
1外形線
 10
193.00736465371401
 20
70.561537673612634
 30
0.0
 11
193.00736465371401
 21
108.2043948164697
 31
0.0
  0
LINE
  5
651
  8
1外形線
 10
196.50736465371401
 20
105.9543948164697
 30
0.0
 11
196.50736465371401
 21
70.561537673612634
 31
0.0
  0
LINE
  5
652
  8
1外形線
 10
182.50736465371401
 20
114.9543948164695
 30
0.0
 11
182.50736465371401
 21
70.561537673612634
 31
0.0
  0
LINE
  5
653
  8
1外形線
 10
186.00736465371401
 20
70.561537673612634
 30
0.0
 11
186.00736465371401
 21
112.7043948164697
 31
0.0
  0
LINE
  5
654
  8
1外形線
 10
189.50736465371401
 20
110.4543948164697
 30
0.0
 11
189.50736465371401
 21
70.561537673612634
 31
0.0
  0
LINE
  5
655
  8
1外形線
 10
207.00736465371401
 20
70.561537673612634
 30
0.0
 11
207.00736465371389
 21
99.204394816469744
 31
0.0
  0
LINE
  5
656
  8
1外形線
 10
203.50736465371401
 20
101.4543948164697
 30
0.0
 11
203.50736465371389
 21
70.561537673612634
 31
0.0
  0
LINE
  5
657
  8
1外形線
 10
210.50736465371401
 20
96.954394816469744
 30
0.0
 11
210.50736465371401
 21
70.561537673612634
 31
0.0
  0
LINE
  5
658
  8
1外形線
 10
203.50736465371401
 20
101.4543948164697
 30
0.0
 11
207.00736465371401
 21
99.204394816469744
 31
0.0
  0
LINE
  5
659
  8
1外形線
 10
200.00736465371401
 20
103.1099906387179
 30
0.0
 11
203.50736465371401
 21
100.8599906387179
 31
0.0
  0
LINE
  5
65A
  8
1外形線
 10
203.50736465371401
 20
101.4543948164697
 30
0.0
 11
203.50736465371401
 21
100.8599906387179
 31
0.0
  0
LINE
  5
65B
  8
1外形線
 10
207.00736465371401
 20
98.609990638717946
 30
0.0
 11
210.50736465371401
 21
96.359990638718159
 31
0.0
  0
LINE
  5
65C
  8
1外形線
 10
207.00736465371401
 20
99.204394816469744
 30
0.0
 11
207.00736465371401
 21
98.609990638717946
 31
0.0
  0
LINE
  5
65D
  8
1外形線
 10
210.50736465371401
 20
96.954394816469744
 30
0.0
 11
210.50736465371401
 21
96.359990638718159
 31
0.0
  0
LINE
  5
65E
  8
1外形線
 10
193.00736465371401
 20
107.6099906387179
 30
0.0
 11
196.50736465371401
 21
105.3599906387179
 31
0.0
  0
LINE
  5
65F
  8
1外形線
 10
186.00736465371401
 20
112.1099906387179
 30
0.0
 11
189.50736465371401
 21
109.8599906387179
 31
0.0
  0
LINE
  5
660
  8
1外形線
 10
182.50736465371401
 20
114.9543948164695
 30
0.0
 11
186.00736465371401
 21
112.7043948164697
 31
0.0
  0
LINE
  5
661
  8
1外形線
 10
189.50736465371401
 20
110.4543948164697
 30
0.0
 11
193.00736465371401
 21
108.2043948164697
 31
0.0
  0
LINE
  5
662
  8
1外形線
 10
196.50736465371401
 20
105.9543948164697
 30
0.0
 11
200.00736465371401
 21
103.7043948164697
 31
0.0
  0
ARC
  5
663
  8
1外形線
 10
228.00736465371401
 20
86.347251959326854
 30
0.0
 40
1.0
 50
0.0
 51
180.0
  0
LINE
  5
664
  8
1外形線
 10
214.00736465371401
 20
94.704394816469744
 30
0.0
 11
214.00736465371401
 21
70.561537673612634
 31
0.0
  0
LINE
  5
665
  8
1外形線
 10
217.50736465371401
 20
92.454394816469517
 30
0.0
 11
217.50736465371389
 21
70.561537673612506
 31
0.0
  0
LINE
  5
666
  8
1外形線
 10
221.00736465371401
 20
70.561537673612634
 30
0.0
 11
221.00736465371401
 21
90.204394816469744
 31
0.0
  0
LINE
  5
667
  8
1外形線
 10
224.50736465371401
 20
87.954394816469744
 30
0.0
 11
224.50736465371401
 21
70.561537673612634
 31
0.0
  0
LINE
  5
668
  8
1外形線
 10
219.25736465371401
 20
91.329394816469744
 30
0.0
 11
221.00736465371401
 21
90.204394816469744
 31
0.0
  0
LINE
  5
669
  8
1外形線
 10
214.00736465371401
 20
94.704394816469744
 30
0.0
 11
214.00736465371401
 21
94.109990638718159
 31
0.0
  0
LINE
  5
66A
  8
1外形線
 10
217.50736465371401
 20
92.454394816469744
 30
0.0
 11
217.50736465371401
 21
91.859990638718159
 31
0.0
  0
LINE
  5
66B
  8
1外形線
 10
214.00736465371401
 20
94.109990638718159
 30
0.0
 11
217.50736465371401
 21
91.859990638718159
 31
0.0
  0
LINE
  5
66C
  8
1外形線
 10
217.50736465371401
 20
92.454394816469744
 30
0.0
 11
219.25736465371401
 21
91.329394816469744
 31
0.0
  0
LINE
  5
66D
  8
1外形線
 10
224.50736465371401
 20
87.954394816469744
 30
0.0
 11
227.00736465371401
 21
86.347251959326854
 31
0.0
  0
LINE
  5
66E
  8
1外形線
 10
221.00736465371401
 20
89.609990638718145
 30
0.0
 11
224.50736465371401
 21
87.359990638718145
 31
0.0
  0
LINE
  5
66F
  8
1外形線
 10
210.50736465371401
 20
199.61023897231399
 30
0.0
 11
214.00736465371401
 21
201.58751169958651
 31
0.0
  0
LINE
  5
670
  8
1外形線
 10
200.00736465371401
 20
194.2526924221273
 30
0.0
 11
203.50736465371401
 21
196.2299651494003
 31
0.0
  0
LINE
  5
671
  8
1外形線
 10
196.50736465371401
 20
191.701148063223
 30
0.0
 11
196.50736465371401
 21
239.06153767361261
 31
0.0
  0
LINE
  5
672
  8
1外形線
 10
193.00736465371401
 20
189.72387533595031
 30
0.0
 11
193.00736465371401
 21
239.06153767361261
 31
0.0
  0
LINE
  5
673
  8
1外形線
 10
189.50736465371401
 20
187.74660260867751
 30
0.0
 11
189.50736465371401
 21
239.06153767361261
 31
0.0
  0
LINE
  5
674
  8
1外形線
 10
186.00736465371401
 20
185.76932988140479
 30
0.0
 11
186.00736465371401
 21
239.06153767361261
 31
0.0
  0
LINE
  5
675
  8
1外形線
 10
182.50736465371401
 20
183.79205715413201
 30
0.0
 11
182.50736465371401
 21
239.06153767361261
 31
0.0
  0
LINE
  5
676
  8
1外形線
 10
200.00736465371401
 20
193.67842079049581
 30
0.0
 11
200.00736465371401
 21
239.06153767361261
 31
0.0
  0
LINE
  5
677
  8
1外形線
 10
193.00736465371401
 20
190.298146967582
 30
0.0
 11
196.50736465371401
 21
192.27541969485469
 31
0.0
  0
LINE
  5
678
  8
1外形線
 10
186.00736465371401
 20
186.3436015130367
 30
0.0
 11
189.50736465371401
 21
188.32087424030931
 31
0.0
  0
LINE
  5
679
  8
1外形線
 10
182.50736465371401
 20
183.79205715413201
 30
0.0
 11
186.00736465371401
 21
185.76932988140479
 31
0.0
  0
LINE
  5
67A
  8
1外形線
 10
189.50736465371401
 20
187.74660260867751
 30
0.0
 11
193.00736465371401
 21
189.72387533595031
 31
0.0
  0
LINE
  5
67B
  8
1外形線
 10
196.50736465371401
 20
191.701148063223
 30
0.0
 11
200.00736465371401
 21
193.67842079049581
 31
0.0
  0
LINE
  5
67C
  8
1外形線
 10
210.50736465371401
 20
199.61023897231399
 30
0.0
 11
210.50736465371401
 21
239.06153767361261
 31
0.0
  0
LINE
  5
67D
  8
1外形線
 10
207.00736465371401
 20
197.63296624504119
 30
0.0
 11
207.00736465371401
 21
239.06153767361261
 31
0.0
  0
LINE
  5
67E
  8
1外形線
 10
203.50736465371401
 20
195.6556935177685
 30
0.0
 11
203.50736465371401
 21
239.06153767361261
 31
0.0
  0
LINE
  5
67F
  8
1外形線
 10
203.50736465371401
 20
195.6556935177685
 30
0.0
 11
207.00736465371401
 21
197.63296624504119
 31
0.0
  0
LINE
  5
680
  8
1外形線
 10
207.00736465371401
 20
198.20723787667279
 30
0.0
 11
210.50736465371401
 21
200.18451060394551
 31
0.0
  0
ARC
  5
681
  8
1外形線
 10
228.00736465371401
 20
208.93166754374241
 30
0.0
 40
1.0
 50
180.0
 51
0.0
  0
LINE
  5
682
  8
1外形線
 10
227.00736465371401
 20
208.9316648463442
 30
0.0
 11
227.00736465371401
 21
239.06153767361261
 31
0.0
  0
LINE
  5
683
  8
1外形線
 10
224.50736465371401
 20
207.51932988140479
 30
0.0
 11
224.50736465371401
 21
239.06153767361261
 31
0.0
  0
LINE
  5
684
  8
1外形線
 10
221.00736465371401
 20
205.54205715413201
 30
0.0
 11
221.00736465371401
 21
239.06153767361261
 31
0.0
  0
LINE
  5
685
  8
1外形線
 10
217.50736465371401
 20
203.56478442685949
 30
0.0
 11
217.50736465371401
 21
239.06153767361261
 31
0.0
  0
LINE
  5
686
  8
1外形線
 10
214.00736465371401
 20
201.58751169958651
 30
0.0
 11
214.00736465371401
 21
239.06153767361261
 31
0.0
  0
LINE
  5
687
  8
1外形線
 10
217.50736465371401
 20
203.56478442685949
 30
0.0
 11
221.00736465371401
 21
205.54205715413201
 31
0.0
  0
LINE
  5
688
  8
1外形線
 10
214.00736465371401
 20
202.16178333121829
 30
0.0
 11
217.50736465371401
 21
204.13905605849081
 31
0.0
  0
LINE
  5
689
  8
1外形線
 10
224.50736465371401
 20
207.51932988140479
 30
0.0
 11
227.00736465371401
 21
208.93166754374241
 31
0.0
  0
LINE
  5
68A
  8
1外形線
 10
221.00736465371401
 20
206.11632878576381
 30
0.0
 11
224.50736465371401
 21
208.0936015130363
 31
0.0
  0
LINE
  5
68B
  8
1外形線
 10
229.00736465371401
 20
239.06153767361269
 30
0.0
 11
229.00736465371401
 21
208.93166754374241
 31
0.0
  0
TEXT
  5
68C
  8
1外形線
 10
79.007364786048811
 20
342.56153911127291
 30
0.0
 40
10.0
  1
SEN-140
  7
KANJI
  0
LINE
  5
68D
  8
1外形線
 10
89.007364653714035
 20
311.56153767361258
 30
0.0
 11
145.00736465371401
 21
311.56153767361258
 31
0.0
  0
LINE
  5
68E
  8
1外形線
 10
145.00736465371401
 20
294.5693315548254
 30
0.0
 11
89.007364653714035
 21
294.5693315548254
 31
0.0
  0
LINE
  5
68F
  8
1外形線
 10
130.51562537581921
 20
303.72291885185888
 30
0.0
 11
89.007364653714035
 21
303.72291885185888
 31
0.0
  0
LINE
  5
690
  8
1外形線
 10
129.50736465371401
 20
309.66409426206479
 30
0.0
 11
89.007364653714035
 21
309.66409426206479
 31
0.0
  0
LINE
  5
691
  8
1外形線
 10
130.00736465371409
 20
599.6736271242512
 30
0.0
 11
86.007364653714149
 21
599.6736271242512
 31
0.0
  0
POLYLINE
  5
692
  8
1外形線
 66
     1
 10
0.0
 20
0.0
 30
0.0
  0
VERTEX
  5
AE2
  8
1外形線
 10
125.00736465371411
 20
462.8615376736127
 30
0.0
 42
0.0651523273407505
  0
VERTEX
  5
AE3
  8
1外形線
 10
124.64197952407901
 20
465.65371830840849
 30
0.0
 42
0.0779311886068326
  0
VERTEX
  5
AE4
  8
1外形線
 10
123.6893451690536
 20
467.81128514191852
 30
0.0
 42
0.1071771586261439
  0
VERTEX
  5
AE5
  8
1外形線
 10
122.1133190978785
 20
469.38895591074299
 30
0.0
 42
0.1440798755994582
  0
VERTEX
  5
AE6
  8
1外形線
 10
120.50736465371411
 20
469.86153767361259
 30
0.0
 42
0.1440798755994533
  0
VERTEX
  5
AE7
  8
1外形線
 10
118.90141020954999
 20
469.38895591074299
 30
0.0
 42
0.1071771586261344
  0
VERTEX
  5
AE8
  8
1外形線
 10
117.3253841383748
 20
467.81128514191852
 30
0.0
 42
0.0779311886068355
  0
VERTEX
  5
AE9
  8
1外形線
 10
116.3727497833497
 20
465.65371830840883
 30
0.0
 42
0.0651523273407654
  0
VERTEX
  5
AEA
  8
1外形線
 10
116.00736465371411
 20
462.8615376736127
 30
0.0
 42
0.0651523273407619
  0
SEQEND
  5
AEB
  8
1外形線
  0
LINE
  5
693
  8
1外形線
 10
130.00736465371409
 20
475.45300072417552
 30
0.0
 11
86.007364653714149
 21
475.45300072417552
 31
0.0
  0
LINE
  5
694
  8
1外形線
 10
86.007364653714149
 20
477.1615376736126
 30
0.0
 11
130.00736465371409
 21
477.1615376736126
 31
0.0
  0
LINE
  5
695
  8
1外形線
 10
118.99414622327269
 20
469.44632329347451
 30
0.0
 11
86.007364653714149
 21
469.44632329347451
 31
0.0
  0
LINE
  5
696
  8
1外形線
 10
116.00736465371411
 20
446.8615376736127
 30
0.0
 11
125.00736465371411
 21
446.8615376736127
 31
0.0
  0
LINE
  5
697
  8
1外形線
 10
130.00736465371409
 20
404.19089884102931
 30
0.0
 11
86.007364653714149
 21
404.19089884102931
 31
0.0
  0
LINE
  5
698
  8
1外形線
 10
130.00736465371429
 20
418.04849315305171
 30
0.0
 11
86.007364653714149
 21
418.04849315305171
 31
0.0
  0
LINE
  5
699
  8
1外形線
 10
130.00736465371429
 20
409.89737246511129
 30
0.0
 11
86.007364653714149
 21
409.89737246511129
 31
0.0
  0
LINE
  5
69A
  8
1外形線
 10
79.007364653714149
 20
402.56153767361258
 30
0.0
 11
141.00736465371409
 21
402.56153767361258
 31
0.0
  0
LINE
  5
69B
  8
1外形線
 10
79.007364653714149
 20
439.8615376736127
 30
0.0
 11
125.00736465371411
 21
439.8615376736127
 31
0.0
  0
ARC
  5
69C
  8
1外形線
 10
120.50736465371411
 20
514.1579390845252
 30
0.0
 40
4.5
 50
0.0
 51
180.0
  0
LINE
  5
69D
  8
1外形線
 10
130.00736465371409
 20
525.64225104479942
 30
0.0
 11
86.007364653714149
 21
525.64225104479942
 31
0.0
  0
LINE
  5
69E
  8
1外形線
 10
86.007364653714149
 20
509.1579390845252
 30
0.0
 11
130.00736465371409
 21
509.1579390845252
 31
0.0
  0
LINE
  5
69F
  8
1外形線
 10
79.007364653714376
 20
477.16153767361271
 30
0.0
 11
79.007364653714149
 21
402.56153767361258
 31
0.0
  0
LINE
  5
6A0
  8
1外形線
 10
86.007364653714149
 20
402.56153767361258
 30
0.0
 11
86.007364653714149
 21
477.16153767361271
 31
0.0
  0
LINE
  5
6A1
  8
1外形線
 10
87.275313846145409
 20
312.56153767361258
 30
0.0
 11
80.007364653714035
 21
312.56153767361258
 31
0.0
  0
ARC
  5
6A2
  8
1外形線
 10
80.007364653714035
 20
311.56153767361258
 30
0.0
 40
1.0
 50
90.0
 51
180.0
  0
ARC
  5
6A3
  8
1外形線
 10
87.275313846145409
 20
310.56153767361258
 30
0.0
 40
2.0
 50
30.00000000000049
 51
90.0
  0
LINE
  5
6A4
  8
1外形線
 10
79.007364653714149
 20
562.65793908452508
 30
0.0
 11
79.007364653714149
 21
509.1579390845252
 31
0.0
  0
LINE
  5
6A5
  8
1外形線
 10
86.007364653714149
 20
562.65793908452508
 30
0.0
 11
86.007364653714149
 21
509.1579390845252
 31
0.0
  0
ARC
  5
6A6
  8
1外形線
 10
84.275313846145295
 20
476.16153767361169
 30
0.0
 40
2.0
 50
30.000000000022379
 51
89.999999999996746
  0
ARC
  5
6A7
  8
1外形線
 10
84.275313846158042
 20
510.15793908453247
 30
0.0
 40
2.0
 50
266.56241139215541
 51
329.99999999969879
  0
ARC
  5
6A8
  8
1外形線
 10
80.007364653714376
 20
477.16153767361271
 30
0.0
 40
1.0
 50
90.0
 51
180.0
  0
LINE
  5
6A9
  8
1外形線
 10
84.275313846145295
 20
478.1615376736126
 30
0.0
 11
80.007364653714376
 21
478.16153767361271
 31
0.0
  0
ARC
  5
6AA
  8
1外形線
 10
80.007364653714149
 20
509.15793908452662
 30
0.0
 40
1.0
 50
180.0
 51
270.0000000000781
  0
LINE
  5
6AB
  8
1外形線
 10
84.275313846158042
 20
508.15793908453242
 30
0.0
 11
80.00736465371574
 21
508.1579390845265
 31
0.0
  0
LINE
  5
6AC
  8
1外形線
 10
116.00736465371411
 20
460.67722571333928
 30
0.0
 11
86.007364653714149
 21
460.67722571333928
 31
0.0
  0
LINE
  5
6AD
  8
1外形線
 10
116.00736465371411
 20
462.8615349762145
 30
0.0
 11
116.00736465371411
 21
446.8615376736127
 31
0.0
  0
LINE
  5
6AE
  8
1外形線
 10
116.00736465371411
 20
510.86647603396239
 30
0.0
 11
86.007364653714149
 21
510.86647603396239
 31
0.0
  0
LINE
  5
6AF
  8
1外形線
 10
116.9188258327044
 20
516.87315346466448
 30
0.0
 11
86.007364653714149
 21
516.87315346466448
 31
0.0
  0
LINE
  5
6B0
  8
1外形線
 10
116.00736465371411
 20
514.1579390845252
 30
0.0
 11
116.00736465371411
 21
509.15793908452508
 31
0.0
  0
LINE
  5
6B1
  8
1外形線
 10
116.9188258327044
 20
608.4427247043858
 30
0.0
 11
86.007364653714149
 21
608.4427247043858
 31
0.0
  0
LINE
  5
6B2
  8
1外形線
 10
186.50736465371409
 20
440.28385910218418
 30
0.0
 11
186.50736465371409
 21
420.56153767361258
 31
0.0
  0
LINE
  5
6B3
  8
1外形線
 10
183.00736465371409
 20
442.79010910218409
 30
0.0
 11
183.00736465371409
 21
420.56153767361258
 31
0.0
  0
LINE
  5
6B4
  8
1外形線
 10
176.0073646537144
 20
447.18763790553919
 30
0.0
 11
176.00736465371409
 21
420.56153767361258
 31
0.0
  0
LINE
  5
6B5
  8
1外形線
 10
172.50736465371409
 20
449.69388790553938
 30
0.0
 11
172.50736465371409
 21
420.56153767361258
 31
0.0
  0
LINE
  5
6B6
  8
1外形線
 10
169.00736465371409
 20
452.20013790553918
 30
0.0
 11
169.00736465371409
 21
420.56153767361258
 31
0.0
  0
LINE
  5
6B7
  8
1外形線
 10
189.00736465371409
 20
402.56153767361258
 30
0.0
 11
189.00736465371409
 21
438.49368322815383
 31
0.0
  0
LINE
  5
6B8
  8
1外形線
 10
191.00736465371409
 20
438.49368322815383
 30
0.0
 11
191.00736465371409
 21
402.56153767361258
 31
0.0
  0
LINE
  5
6B9
  8
1外形線
 10
179.50736465371401
 20
444.68138790553951
 30
0.0
 11
179.50736465371409
 21
420.56153767361258
 31
0.0
  0
LINE
  5
6BA
  8
1外形線
 10
165.50736465371409
 20
455.32135910218409
 30
0.0
 11
165.50736465371409
 21
420.56153767361258
 31
0.0
  0
LINE
  5
6BB
  8
1外形線
 10
162.00736465371409
 20
457.82760910218411
 30
0.0
 11
162.00736465371409
 21
420.56153767361258
 31
0.0
  0
LINE
  5
6BC
  8
1外形線
 10
141.00736465371409
 20
472.86510910218402
 30
0.0
 11
141.00736465371409
 21
420.56153767361258
 31
0.0
  0
LINE
  5
6BD
  8
1外形線
 10
130.00736465371409
 20
477.1615376736126
 30
0.0
 11
130.00736465371409
 21
402.56153767361258
 31
0.0
  0
LINE
  5
6BE
  8
1外形線
 10
135.00736465371409
 20
402.56153767361258
 30
0.0
 11
135.00736465371409
 21
477.1615376736126
 31
0.0
  0
LINE
  5
6BF
  8
1外形線
 10
144.50736465371409
 20
470.35885910218423
 30
0.0
 11
144.50736465371409
 21
420.56153767361258
 31
0.0
  0
LINE
  5
6C0
  8
1外形線
 10
148.00736465371409
 20
467.8526091021842
 30
0.0
 11
148.00736465371409
 21
420.56153767361258
 31
0.0
  0
LINE
  5
6C1
  8
1外形線
 10
158.50736465371409
 20
460.33385910218408
 30
0.0
 11
158.50736465371409
 21
420.56153767361258
 31
0.0
  0
LINE
  5
6C2
  8
1外形線
 10
155.00736465371409
 20
462.8401091021841
 30
0.0
 11
155.00736465371409
 21
420.56153767361258
 31
0.0
  0
LINE
  5
6C3
  8
1外形線
 10
151.50736465371409
 20
465.34635910218412
 30
0.0
 11
151.50736465371409
 21
420.56153767361258
 31
0.0
  0
LINE
  5
6C4
  8
1外形線
 10
179.00736465371401
 20
295.73401928873392
 30
0.0
 11
182.50736465371401
 21
293.7567465614614
 31
0.0
  0
LINE
  5
6C5
  8
1外形線
 10
151.49192813673341
 20
312.436293771576
 30
0.0
 11
227.14479076420781
 21
269.69733891060002
 31
0.0
  0
LINE
  5
6C6
  8
1外形線
 10
179.50736465371409
 20
402.56153767361258
 30
0.0
 11
183.00736465371409
 21
402.56153767361258
 31
0.0
  0
LINE
  5
6C7
  8
1外形線
 10
189.00736465371401
 20
414.56153767361269
 30
0.0
 11
135.00736465371409
 21
414.56153767361269
 31
0.0
  0
LINE
  5
6C8
  8
1外形線
 10
135.00736465371409
 20
420.56153767361258
 30
0.0
 11
189.00736465371401
 21
420.56153767361258
 31
0.0
  0
LINE
  5
6C9
  8
1外形線
 10
135.00736465371409
 20
417.56153767361269
 30
0.0
 11
191.00736465371401
 21
417.56153767361269
 31
0.0
  0
LINE
  5
6CA
  8
1外形線
 10
146.00736465371401
 20
312.56153767361258
 30
0.0
 11
151.00736465371401
 21
312.56153767361258
 31
0.0
  0
CIRCLE
  5
6CB
  8
1外形線
 10
134.00736465371401
 20
306.56153767361258
 30
0.0
 40
1.7
  0
ARC
  5
6CC
  8
1外形線
 10
134.00736465371401
 20
306.56153767361258
 30
0.0
 40
4.5
 50
180.0
 51
0.0
  0
LINE
  5
6CD
  8
1外形線
 10
129.50736465371401
 20
306.56153767361258
 30
0.0
 11
129.50736465371401
 21
311.56153767361258
 31
0.0
  0
LINE
  5
6CE
  8
1外形線
 10
138.50736465371401
 20
306.56153767361258
 30
0.0
 11
138.50736465371401
 21
311.56153767361258
 31
0.0
  0
LINE
  5
6CF
  8
1外形線
 10
145.00736465371401
 20
309.66409426206479
 30
0.0
 11
138.50736465371401
 21
309.66409426206479
 31
0.0
  0
LINE
  5
6D0
  8
1外形線
 10
145.00736465371401
 20
303.72291885185888
 30
0.0
 11
137.4991039316088
 21
303.72291885185888
 31
0.0
  0
ARC
  5
6D1
  8
1外形線
 10
146.00736465371401
 20
311.56153767361258
 30
0.0
 40
1.0
 50
90.0
 51
180.0
  0
LINE
  5
6D2
  8
1外形線
 10
161.50736465371401
 20
306.1946545567294
 30
0.0
 11
165.00736465371401
 21
304.21738182945671
 31
0.0
  0
LINE
  5
6D3
  8
1外形線
 10
152.00736465371401
 20
311.56153767361258
 30
0.0
 11
158.00736465371401
 21
308.17192728400221
 31
0.0
  0
LINE
  5
6D4
  8
1外形線
 10
158.00736465371401
 20
307.59765565237018
 30
0.0
 11
161.50736465371401
 21
305.62038292509749
 31
0.0
  0
ARC
  5
6D5
  8
1外形線
 10
151.00736465371401
 20
311.56153767361258
 30
0.0
 40
1.0
 50
0.0
 51
90.0
  0
LINE
  5
6D6
  8
1外形線
 10
172.00736465371401
 20
299.68856474327941
 30
0.0
 11
175.50736465371401
 21
297.71129201600672
 31
0.0
  0
LINE
  5
6D7
  8
1外形線
 10
168.50736465371401
 20
302.24010910218391
 30
0.0
 11
172.00736465371401
 21
300.26283637491122
 31
0.0
  0
LINE
  5
6D8
  8
1外形線
 10
165.00736465371401
 20
303.64311019782491
 30
0.0
 11
168.50736465371401
 21
301.66583747055199
 31
0.0
  0
LINE
  5
6D9
  8
1外形線
 10
175.50736465371401
 20
298.28556364763858
 30
0.0
 11
179.00736465371401
 21
296.30829092036572
 31
0.0
  0
LINE
  5
6DA
  8
1外形線
 10
148.00736465371409
 20
403.06153767361258
 30
0.0
 11
151.50736465371409
 21
403.06153767361258
 31
0.0
  0
ARC
  5
6DB
  8
1外形線
 10
135.00736465371409
 20
422.56153767361269
 30
0.0
 40
5.0
 50
180.0
 51
270.0
  0
LINE
  5
6DC
  8
1外形線
 10
144.50736465371409
 20
402.56153767361258
 30
0.0
 11
148.00736465371409
 21
402.56153767361258
 31
0.0
  0
LINE
  5
6DD
  8
1外形線
 10
141.00736465371409
 20
403.06153767361258
 30
0.0
 11
144.50736465371409
 21
403.06153767361258
 31
0.0
  0
LINE
  5
6DE
  8
1外形線
 10
148.00736465371409
 20
414.56153767361269
 30
0.0
 11
148.00736465371409
 21
402.56153767361258
 31
0.0
  0
LINE
  5
6DF
  8
1外形線
 10
144.50736465371409
 20
414.56153767361269
 30
0.0
 11
144.50736465371409
 21
402.56153767361258
 31
0.0
  0
LINE
  5
6E0
  8
1外形線
 10
141.00736465371409
 20
414.56153767361269
 30
0.0
 11
141.00736465371409
 21
402.56153767361258
 31
0.0
  0
LINE
  5
6E1
  8
1外形線
 10
162.00736465371409
 20
403.06153767361258
 30
0.0
 11
165.50736465371409
 21
403.06153767361258
 31
0.0
  0
LINE
  5
6E2
  8
1外形線
 10
155.00736465371409
 20
403.06153767361258
 30
0.0
 11
158.50736465371409
 21
403.06153767361258
 31
0.0
  0
LINE
  5
6E3
  8
1外形線
 10
151.50736465371409
 20
402.56153767361258
 30
0.0
 11
155.00736465371409
 21
402.56153767361258
 31
0.0
  0
LINE
  5
6E4
  8
1外形線
 10
155.00736465371409
 20
402.56153767361258
 30
0.0
 11
155.00736465371409
 21
414.56153767361269
 31
0.0
  0
LINE
  5
6E5
  8
1外形線
 10
151.50736465371409
 20
414.56153767361269
 30
0.0
 11
151.50736465371409
 21
402.56153767361258
 31
0.0
  0
LINE
  5
6E6
  8
1外形線
 10
162.00736465371409
 20
402.56153767361258
 30
0.0
 11
162.00736465371409
 21
414.56153767361269
 31
0.0
  0
LINE
  5
6E7
  8
1外形線
 10
158.50736465371409
 20
414.56153767361269
 30
0.0
 11
158.50736465371409
 21
402.56153767361258
 31
0.0
  0
LINE
  5
6E8
  8
1外形線
 10
158.50736465371409
 20
402.56153767361258
 30
0.0
 11
162.00736465371409
 21
402.56153767361258
 31
0.0
  0
LINE
  5
6E9
  8
1外形線
 10
169.00736465371409
 20
403.06153767361258
 30
0.0
 11
172.50736465371409
 21
403.06153767361258
 31
0.0
  0
LINE
  5
6EA
  8
1外形線
 10
169.00736465371409
 20
414.56153767361269
 30
0.0
 11
169.00736465371421
 21
403.06153767361258
 31
0.0
  0
LINE
  5
6EB
  8
1外形線
 10
169.00736465371409
 20
402.56153767361258
 30
0.0
 11
169.00736465371429
 21
403.06153767361258
 31
0.0
  0
LINE
  5
6EC
  8
1外形線
 10
165.50736465371409
 20
402.56153767361258
 30
0.0
 11
169.00736465371409
 21
402.56153767361258
 31
0.0
  0
LINE
  5
6ED
  8
1外形線
 10
165.50736465371409
 20
414.56153767361269
 30
0.0
 11
165.50736465371409
 21
402.56153767361258
 31
0.0
  0
LINE
  5
6EE
  8
1外形線
 10
179.50736465371421
 20
414.56153767361269
 30
0.0
 11
179.50736465371429
 21
403.06153767361258
 31
0.0
  0
LINE
  5
6EF
  8
1外形線
 10
176.00736465371409
 20
414.56153767361269
 30
0.0
 11
176.00736465371409
 21
403.06153767361258
 31
0.0
  0
LINE
  5
6F0
  8
1外形線
 10
172.50736465371409
 20
414.56153767361269
 30
0.0
 11
172.50736465371409
 21
403.06153767361258
 31
0.0
  0
LINE
  5
6F1
  8
1外形線
 10
179.50736465371429
 20
403.06153767361258
 30
0.0
 11
179.50736465371409
 21
402.56153767361258
 31
0.0
  0
LINE
  5
6F2
  8
1外形線
 10
176.00736465371409
 20
402.56153767361258
 30
0.0
 11
176.00736465371429
 21
403.06153767361258
 31
0.0
  0
LINE
  5
6F3
  8
1外形線
 10
176.00736465371409
 20
403.06153767361258
 30
0.0
 11
179.50736465371409
 21
403.06153767361258
 31
0.0
  0
LINE
  5
6F4
  8
1外形線
 10
172.50736465371429
 20
403.06153767361258
 30
0.0
 11
172.50736465371409
 21
402.56153767361258
 31
0.0
  0
LINE
  5
6F5
  8
1外形線
 10
172.50736465371409
 20
402.56153767361258
 30
0.0
 11
176.00736465371409
 21
402.56153767361258
 31
0.0
  0
LINE
  5
6F6
  8
1外形線
 10
210.50736465371401
 20
278.51283637491122
 30
0.0
 11
214.00736465371401
 21
276.5355636476387
 31
0.0
  0
LINE
  5
6F7
  8
1外形線
 10
193.00736465371401
 20
287.8249283796431
 30
0.0
 11
196.50736465371401
 21
285.84765565237041
 31
0.0
  0
LINE
  5
6F8
  8
1外形線
 10
203.50736465371401
 20
282.4673818294566
 30
0.0
 11
207.00736465371401
 21
280.49010910218391
 31
0.0
  0
LINE
  5
6F9
  8
1外形線
 10
196.50736465371401
 20
286.42192728400209
 30
0.0
 11
200.00736465371401
 21
284.4446545567294
 31
0.0
  0
LINE
  5
6FA
  8
1外形線
 10
200.00736465371401
 20
283.87038292509789
 30
0.0
 11
203.50736465371401
 21
281.89311019782491
 31
0.0
  0
LINE
  5
6FB
  8
1外形線
 10
207.00736465371401
 20
279.91583747055239
 30
0.0
 11
210.50736465371401
 21
277.9385647432797
 31
0.0
  0
LINE
  5
6FC
  8
1外形線
 10
186.00736465371401
 20
291.77947383418842
 30
0.0
 11
189.50736465371401
 21
289.8022011069159
 31
0.0
  0
LINE
  5
6FD
  8
1外形線
 10
182.50736465371401
 20
294.33101819309309
 30
0.0
 11
186.00736465371401
 21
292.3537454658204
 31
0.0
  0
LINE
  5
6FE
  8
1外形線
 10
189.50736465371401
 20
290.37647273854759
 30
0.0
 11
193.00736465371401
 21
288.3992000112749
 31
0.0
  0
ARC
  5
6FF
  8
1外形線
 10
228.00736465371401
 20
269.19140780348272
 30
0.0
 40
1.0
 50
0.0
 51
180.0
  0
LINE
  5
700
  8
1外形線
 10
217.50736465371401
 20
274.55829092036572
 30
0.0
 11
221.00736465371401
 21
272.5810181930932
 31
0.0
  0
LINE
  5
701
  8
1外形線
 10
214.00736465371401
 20
275.96129201600689
 30
0.0
 11
217.50736465371401
 21
273.98401928873437
 31
0.0
  0
LINE
  5
702
  8
1外形線
 10
221.00736465371401
 20
272.0067465614614
 30
0.0
 11
224.50736465371401
 21
270.02947383418888
 31
0.0
  0
LINE
  5
703
  8
1外形線
 10
224.50736465371401
 20
270.6037454658204
 30
0.0
 11
227.00736465371401
 21
269.19140780348272
 31
0.0
  0
LINE
  5
704
  8
1外形線
 10
186.50736465371409
 20
402.56153767361258
 30
0.0
 11
191.00736465371409
 21
402.56153767361258
 31
0.0
  0
LINE
  5
705
  8
1外形線
 10
183.00736465371409
 20
403.06153767361258
 30
0.0
 11
186.50736465371409
 21
403.06153767361258
 31
0.0
  0
LINE
  5
706
  8
1外形線
 10
186.50736465371409
 20
414.56153767361269
 30
0.0
 11
186.50736465371409
 21
402.56153767361258
 31
0.0
  0
LINE
  5
707
  8
1外形線
 10
183.00736465371409
 20
402.56153767361258
 30
0.0
 11
183.00736465371409
 21
414.56153767361269
 31
0.0
  0
LINE
  5
708
  8
1外形線
 10
179.50736465371409
 20
597.48383194166797
 30
0.0
 11
183.00736465371409
 21
596.01508194166797
 31
0.0
  0
LINE
  5
709
  8
1外形線
 10
179.50736465371409
 20
445.296359102184
 30
0.0
 11
183.00736465371409
 21
442.79010910218409
 31
0.0
  0
LINE
  5
70A
  8
1外形線
 10
179.50736465371409
 20
527.83204622738231
 30
0.0
 11
183.00736465371409
 21
529.30079622738231
 31
0.0
  0
LINE
  5
70B
  8
1外形線
 10
134.42927389239321
 20
508.25130101212608
 30
0.0
 11
189.1961939034054
 21
531.23384780246158
 31
0.0
  0
LINE
  5
70C
  8
1外形線
 10
151.50736465371409
 20
516.08204622738219
 30
0.0
 11
155.00736465371409
 21
517.55079622738219
 31
0.0
  0
LINE
  5
70D
  8
1外形線
 10
141.00736465371409
 20
511.67579622738231
 30
0.0
 11
141.00736465371409
 21
562.65793908452508
 31
0.0
  0
LINE
  5
70E
  8
1外形線
 10
135.00736465371409
 20
562.65793908452508
 30
0.0
 11
135.00736465371409
 21
509.1579390845252
 31
0.0
  0
LINE
  5
70F
  8
1外形線
 10
130.00736465371409
 20
562.65793908452508
 30
0.0
 11
130.00736465371409
 21
509.1579390845252
 31
0.0
  0
LINE
  5
710
  8
1外形線
 10
144.50736465371409
 20
513.14454622738231
 30
0.0
 11
144.50736465371409
 21
562.65793908452508
 31
0.0
  0
LINE
  5
711
  8
1外形線
 10
148.00736465371409
 20
514.61329622738219
 30
0.0
 11
148.00736465371409
 21
562.65793908452508
 31
0.0
  0
LINE
  5
712
  8
1外形線
 10
151.50736465371409
 20
516.08204622738219
 30
0.0
 11
151.50736465371409
 21
562.65793908452508
 31
0.0
  0
LINE
  5
713
  8
1外形線
 10
151.50736465371409
 20
464.73138790553912
 30
0.0
 11
148.00736465371409
 21
467.23763790553909
 31
0.0
  0
LINE
  5
714
  8
1外形線
 10
151.50736465371409
 20
516.62428697823646
 30
0.0
 11
148.00736465371409
 21
515.15553697823646
 31
0.0
  0
LINE
  5
715
  8
1外形線
 10
144.50736465371409
 20
469.74388790553922
 30
0.0
 11
141.00736465371409
 21
472.25013790553902
 31
0.0
  0
LINE
  5
716
  8
1外形線
 10
125.00736465371411
 20
446.8615376736127
 30
0.0
 11
125.00736465371411
 21
462.6580632599393
 31
0.0
  0
ARC
  5
717
  8
1外形線
 10
125.00736465371411
 20
434.86153767361259
 30
0.0
 40
5.0
 50
0.0
 51
90.0
  0
LINE
  5
718
  8
1外形線
 10
130.00736465371429
 20
469.44632329347451
 30
0.0
 11
122.0205830841557
 21
469.44632329347451
 31
0.0
  0
LINE
  5
719
  8
1外形線
 10
130.00736465371409
 20
460.67722571333928
 30
0.0
 11
125.0073646537143
 21
460.67722571333928
 31
0.0
  0
LINE
  5
71A
  8
1外形線
 10
144.50736465371409
 20
470.35885910218411
 30
0.0
 11
148.00736465371409
 21
467.85260910218409
 31
0.0
  0
LINE
  5
71B
  8
1外形線
 10
134.00736465371409
 20
478.1615376736126
 30
0.0
 11
131.00736465371409
 21
478.1615376736126
 31
0.0
  0
LINE
  5
71C
  8
1外形線
 10
134.0073646537216
 20
508.1579390845252
 30
0.0
 11
131.00736465370679
 21
508.15793908452508
 31
0.0
  0
ARC
  5
71D
  8
1外形線
 10
131.00736465371409
 20
477.1615376736126
 30
0.0
 40
1.0
 50
90.0
 51
180.0
  0
LINE
  5
71E
  8
1外形線
 10
130.00736465371409
 20
516.87315346466448
 30
0.0
 11
124.095903474724
 21
516.87315346466448
 31
0.0
  0
LINE
  5
71F
  8
1外形線
 10
130.00736465371409
 20
510.86647603396227
 30
0.0
 11
125.00736465371411
 21
510.86647603396227
 31
0.0
  0
CIRCLE
  5
720
  8
1外形線
 10
120.50736465371411
 20
514.1579390845252
 30
0.0
 40
1.7
  0
LINE
  5
721
  8
1外形線
 10
125.00736465371411
 20
514.1579390845252
 30
0.0
 11
125.00736465371411
 21
509.1579390845252
 31
0.0
  0
ARC
  5
722
  8
1外形線
 10
131.00736465370679
 20
509.1579390845252
 30
0.0
 40
1.0
 50
180.0
 51
276.92565503913443
  0
LINE
  5
723
  8
1外形線
 10
135.00736465371409
 20
477.1615376736126
 30
0.0
 11
141.00736465371409
 21
472.86510910218402
 31
0.0
  0
ARC
  5
724
  8
1外形線
 10
134.00736465371409
 20
477.1615376736126
 30
0.0
 40
1.0
 50
0.0
 51
90.0
  0
LINE
  5
725
  8
1外形線
 10
135.00736465371409
 20
509.1579390845252
 30
0.0
 11
141.00736465371409
 21
511.67579622738231
 31
0.0
  0
ARC
  5
726
  8
1外形線
 10
134.0073646537214
 20
509.1579390845252
 30
0.0
 40
1.0
 50
270.00000000000648
 51
0.0
  0
LINE
  5
727
  8
1外形線
 10
144.50736465371409
 20
513.14454622738231
 30
0.0
 11
148.00736465371409
 21
514.61329622738219
 31
0.0
  0
LINE
  5
728
  8
1外形線
 10
144.50736465371409
 20
513.68678697823646
 30
0.0
 11
141.00736465371409
 21
512.21803697823646
 31
0.0
  0
LINE
  5
729
  8
1外形線
 10
165.50736465371409
 20
454.70638790553932
 30
0.0
 11
162.00736465371409
 21
457.21263790553928
 31
0.0
  0
LINE
  5
72A
  8
1外形線
 10
158.50736465371409
 20
459.71888790553919
 30
0.0
 11
155.00736465371409
 21
462.2251379055391
 31
0.0
  0
LINE
  5
72B
  8
1外形線
 10
151.50736465371409
 20
465.34635910218412
 30
0.0
 11
155.00736465371409
 21
462.8401091021841
 31
0.0
  0
LINE
  5
72C
  8
1外形線
 10
158.50736465371409
 20
460.33385910218408
 30
0.0
 11
162.00736465371409
 21
457.82760910218411
 31
0.0
  0
LINE
  5
72D
  8
1外形線
 10
172.50736465371409
 20
450.3088591021841
 30
0.0
 11
176.00736465371409
 21
447.80260910218408
 31
0.0
  0
LINE
  5
72E
  8
1外形線
 10
176.00736465371409
 20
447.80260910218408
 30
0.0
 11
176.00736465371409
 21
447.18763790553942
 31
0.0
  0
LINE
  5
72F
  8
1外形線
 10
179.50736465371409
 20
445.296359102184
 30
0.0
 11
179.50736465371409
 21
444.6813879055394
 31
0.0
  0
LINE
  5
730
  8
1外形線
 10
179.50736465371409
 20
444.6813879055394
 30
0.0
 11
176.00736465371409
 21
447.18763790553942
 31
0.0
  0
LINE
  5
731
  8
1外形線
 10
172.50736465371409
 20
449.69388790553933
 30
0.0
 11
169.00736465371409
 21
452.20013790553918
 31
0.0
  0
LINE
  5
732
  8
1外形線
 10
165.50736465371409
 20
455.32135910218398
 30
0.0
 11
169.00736465371409
 21
452.81510910218401
 31
0.0
  0
LINE
  5
733
  8
1外形線
 10
169.00736465371409
 20
452.81510910218401
 30
0.0
 11
169.00736465371409
 21
452.20013790553918
 31
0.0
  0
LINE
  5
734
  8
1外形線
 10
172.50736465371409
 20
450.3088591021841
 30
0.0
 11
172.50736465371409
 21
449.69388790553933
 31
0.0
  0
LINE
  5
735
  8
1外形線
 10
130.00736465371409
 20
608.44272470438602
 30
0.0
 11
124.095903474724
 21
608.4427247043858
 31
0.0
  0
LINE
  5
736
  8
1外形線
 10
158.50736465371409
 20
606.29633194166809
 30
0.0
 11
158.50736465371409
 21
562.65793908452508
 31
0.0
  0
LINE
  5
737
  8
1外形線
 10
155.00736465371409
 20
607.76508194166809
 30
0.0
 11
155.00736465371409
 21
562.65793908452508
 31
0.0
  0
LINE
  5
738
  8
1外形線
 10
179.50736465371409
 20
597.48383194166797
 30
0.0
 11
179.50736465371409
 21
562.65793908452508
 31
0.0
  0
LINE
  5
739
  8
1外形線
 10
176.00736465371409
 20
598.95258194166797
 30
0.0
 11
176.00736465371409
 21
562.65793908452508
 31
0.0
  0
LINE
  5
73A
  8
1外形線
 10
172.50736465371409
 20
600.42133194166797
 30
0.0
 11
172.50736465371409
 21
562.65793908452508
 31
0.0
  0
LINE
  5
73B
  8
1外形線
 10
169.00736465371409
 20
601.89008194166797
 30
0.0
 11
169.00736465371409
 21
562.65793908452508
 31
0.0
  0
LINE
  5
73C
  8
1外形線
 10
165.50736465371409
 20
603.35883194166797
 30
0.0
 11
165.50736465371409
 21
562.65793908452508
 31
0.0
  0
LINE
  5
73D
  8
1外形線
 10
162.00736465371409
 20
604.82758194166797
 30
0.0
 11
162.00736465371409
 21
562.65793908452508
 31
0.0
  0
LINE
  5
73E
  8
1外形線
 10
165.50736465371409
 20
522.49928697823634
 30
0.0
 11
162.00736465371409
 21
521.03053697823634
 31
0.0
  0
LINE
  5
73F
  8
1外形線
 10
162.00736465371409
 20
520.48829622738219
 30
0.0
 11
162.00736465371409
 21
562.65793908452508
 31
0.0
  0
LINE
  5
740
  8
1外形線
 10
155.00736465371409
 20
517.55079622738219
 30
0.0
 11
155.00736465371409
 21
562.65793908452508
 31
0.0
  0
LINE
  5
741
  8
1外形線
 10
158.50736465371409
 20
519.01954622738219
 30
0.0
 11
158.50736465371409
 21
562.65793908452508
 31
0.0
  0
LINE
  5
742
  8
1外形線
 10
158.50736465371409
 20
519.56178697823646
 30
0.0
 11
155.00736465371409
 21
518.09303697823646
 31
0.0
  0
LINE
  5
743
  8
1外形線
 10
158.50736465371409
 20
519.01954622738219
 30
0.0
 11
162.00736465371409
 21
520.48829622738219
 31
0.0
  0
LINE
  5
744
  8
1外形線
 10
165.50736465371409
 20
521.95704622738219
 30
0.0
 11
165.50736465371409
 21
562.65793908452508
 31
0.0
  0
LINE
  5
745
  8
1外形線
 10
169.00736465371409
 20
523.42579622738219
 30
0.0
 11
169.00736465371409
 21
562.65793908452508
 31
0.0
  0
LINE
  5
746
  8
1外形線
 10
172.50736465371409
 20
524.89454622738219
 30
0.0
 11
172.50736465371409
 21
562.65793908452508
 31
0.0
  0
LINE
  5
747
  8
1外形線
 10
176.00736465371409
 20
526.36329622738231
 30
0.0
 11
176.00736465371409
 21
562.65793908452508
 31
0.0
  0
LINE
  5
748
  8
1外形線
 10
179.50736465371409
 20
527.83204622738231
 30
0.0
 11
179.50736465371409
 21
562.65793908452508
 31
0.0
  0
LINE
  5
749
  8
1外形線
 10
172.50736465371409
 20
525.43678697823634
 30
0.0
 11
169.00736465371409
 21
523.96803697823634
 31
0.0
  0
LINE
  5
74A
  8
1外形線
 10
165.50736465371409
 20
521.95704622738219
 30
0.0
 11
169.00736465371409
 21
523.42579622738219
 31
0.0
  0
LINE
  5
74B
  8
1外形線
 10
179.50736465371409
 20
528.37428697823634
 30
0.0
 11
176.00736465371409
 21
526.90553697823634
 31
0.0
  0
LINE
  5
74C
  8
1外形線
 10
172.50736465371409
 20
524.89454622738219
 30
0.0
 11
176.00736465371409
 21
526.36329622738231
 31
0.0
  0
LINE
  5
74D
  8
1外形線
 10
165.50736465371409
 20
602.81659119081405
 30
0.0
 11
162.00736465371409
 21
604.28534119081405
 31
0.0
  0
LINE
  5
74E
  8
1外形線
 10
158.50736465371409
 20
605.75409119081405
 30
0.0
 11
155.00736465371409
 21
607.22284119081405
 31
0.0
  0
LINE
  5
74F
  8
1外形線
 10
158.50736465371409
 20
606.29633194166809
 30
0.0
 11
162.00736465371409
 21
604.82758194166797
 31
0.0
  0
LINE
  5
750
  8
1外形線
 10
172.50736465371409
 20
599.87909119081405
 30
0.0
 11
169.00736465371409
 21
601.34784119081405
 31
0.0
  0
LINE
  5
751
  8
1外形線
 10
165.50736465371409
 20
603.35883194166797
 30
0.0
 11
169.00736465371409
 21
601.89008194166797
 31
0.0
  0
LINE
  5
752
  8
1外形線
 10
172.50736465371409
 20
600.42133194166797
 30
0.0
 11
176.00736465371409
 21
598.95258194166797
 31
0.0
  0
LINE
  5
753
  8
1外形線
 10
179.50736465371409
 20
596.94159119081405
 30
0.0
 11
176.00736465371409
 21
598.41034119081405
 31
0.0
  0
LINE
  5
754
  8
1外形線
 10
186.50736465371409
 20
440.28385910218418
 30
0.0
 11
189.00736465371409
 21
438.49368053075551
 31
0.0
  0
LINE
  5
755
  8
1外形線
 10
186.50736465371409
 20
439.66888790553941
 30
0.0
 11
183.00736465371409
 21
442.17513790553937
 31
0.0
  0
ARC
  5
756
  8
1外形線
 10
190.00736465371409
 20
438.49368053075551
 30
0.0
 40
1.0
 50
0.0
 51
180.0
  0
LINE
  5
757
  8
1外形線
 10
183.00736465371409
 20
596.01508194166797
 30
0.0
 11
183.00736465371409
 21
562.65793908452508
 31
0.0
  0
LINE
  5
758
  8
1外形線
 10
189.00736465371409
 20
562.65793908452508
 30
0.0
 11
189.00736465371961
 21
593.4972247988087
 31
0.0
  0
LINE
  5
759
  8
1外形線
 10
186.50736465371409
 20
594.54633194166797
 30
0.0
 11
186.50736465371409
 21
562.65793908452508
 31
0.0
  0
LINE
  5
75A
  8
1外形線
 10
191.00736465370679
 20
562.65793908452508
 30
0.0
 11
191.00736465370679
 21
593.49722098411371
 31
0.0
  0
LINE
  5
75B
  8
1外形線
 10
186.50736465371409
 20
530.76954622738231
 30
0.0
 11
186.50736465371409
 21
562.65793908452508
 31
0.0
  0
LINE
  5
75C
  8
1外形線
 10
189.00736465371409
 20
562.65793908452508
 30
0.0
 11
189.00736465371961
 21
531.81865337024169
 31
0.0
  0
LINE
  5
75D
  8
1外形線
 10
191.00736465370679
 20
562.65793908452508
 30
0.0
 11
191.00736465370679
 21
531.81865718493657
 31
0.0
  0
LINE
  5
75E
  8
1外形線
 10
183.00736465371409
 20
529.30079622738231
 30
0.0
 11
183.00736465371409
 21
562.65793908452508
 31
0.0
  0
LINE
  5
75F
  8
1外形線
 10
186.50736465371409
 20
530.76954622738231
 30
0.0
 11
189.00736465371961
 21
531.81865337024169
 31
0.0
  0
LINE
  5
760
  8
1外形線
 10
186.50736465371409
 20
531.31178697823634
 30
0.0
 11
183.00736465371409
 21
529.84303697823634
 31
0.0
  0
ARC
  5
761
  8
1外形線
 10
190.00736465370679
 20
531.81865718493657
 30
0.0
 40
1.0
 50
180.0
 51
0.0
  0
LINE
  5
762
  8
1外形線
 10
186.50736465371409
 20
594.54633194166797
 30
0.0
 11
189.00736465371961
 21
593.4972247988087
 31
0.0
  0
LINE
  5
763
  8
1外形線
 10
186.50736465371409
 20
594.00409119081405
 30
0.0
 11
183.00736465371409
 21
595.47284119081405
 31
0.0
  0
ARC
  5
764
  8
1外形線
 10
190.00736465370679
 20
593.49722098411371
 30
0.0
 40
1.0
 50
0.0
 51
180.0
  0
LINE
  5
765
  8
1外形線
 10
241.3412932251355
 20
584.24758194166805
 30
0.0
 11
241.3412932251355
 21
541.06829622738223
 31
0.0
  0
LINE
  5
766
  8
1外形線
 10
238.83504322513539
 20
585.016331941668
 30
0.0
 11
238.83504322513559
 21
540.29954622738217
 31
0.0
  0
LINE
  5
767
  8
1外形線
 10
236.94376442178049
 20
585.50284119081368
 30
0.0
 11
236.94376442178029
 21
539.81303697823648
 31
0.0
  0
LINE
  5
768
  8
1外形線
 10
241.9562644217805
 20
583.96534119081412
 30
0.0
 11
241.9562644217805
 21
541.35053697823616
 31
0.0
  0
LINE
  5
769
  8
1外形線
 10
221.00736465370699
 20
588.85793908452501
 30
0.0
 11
221.00736465370679
 21
562.65793908452486
 31
0.0
  0
LINE
  5
76A
  8
1外形線
 10
222.00736465370679
 20
562.65793908452508
 30
0.0
 11
222.0073646537071
 21
588.85793908452524
 31
0.0
  0
LINE
  5
76B
  8
1外形線
 10
231.31629322513541
 20
587.32258194166809
 30
0.0
 11
231.31629322513541
 21
537.99329622738242
 31
0.0
  0
LINE
  5
76C
  8
1外形線
 10
228.81004322513559
 20
588.09133194166816
 30
0.0
 11
228.81004322513559
 21
537.22454622738223
 31
0.0
  0
LINE
  5
76D
  8
1外形線
 10
226.91876442178059
 20
588.57784119081384
 30
0.0
 11
226.91876442178059
 21
536.73803697823632
 31
0.0
  0
LINE
  5
76E
  8
1外形線
 10
226.30379322513559
 20
588.85798194166819
 30
0.0
 11
226.30379322513559
 21
536.45579622738217
 31
0.0
  0
LINE
  5
76F
  8
1外形線
 10
236.32879322513551
 20
585.78508194166807
 30
0.0
 11
236.32879322513551
 21
539.53079622738233
 31
0.0
  0
LINE
  5
770
  8
1外形線
 10
233.82254322513541
 20
586.55383194166802
 30
0.0
 11
233.8225432251356
 21
538.76204622738214
 31
0.0
  0
LINE
  5
771
  8
1外形線
 10
231.93126442178041
 20
587.04034119081371
 30
0.0
 11
231.93126442178041
 21
538.27553697823657
 31
0.0
  0
LINE
  5
772
  8
1外形線
 10
222.00736465370679
 20
562.65793908452486
 30
0.0
 11
222.0073646537071
 21
536.45793908452515
 31
0.0
  0
LINE
  5
773
  8
1外形線
 10
221.00736465370699
 20
536.45793908452515
 30
0.0
 11
221.00736465370679
 21
562.65793908452508
 31
0.0
  0
LINE
  5
774
  8
1外形線
 10
260.00736465371398
 20
239.06153767361261
 30
0.0
 11
260.00736465371398
 21
284.06153767361258
 31
0.0
  0
LINE
  5
775
  8
1外形線
 10
259.00736465371398
 20
284.06153767361258
 30
0.0
 11
259.00736465371398
 21
239.06153767361261
 31
0.0
  0
LINE
  5
776
  8
1外形線
 10
342.00736465371398
 20
222.56153767361261
 30
0.0
 11
342.00736465371398
 21
255.56153767361261
 31
0.0
  0
LINE
  5
777
  8
1外形線
 10
344.00736465371398
 20
257.19140780348272
 30
0.0
 11
344.00736465371398
 21
220.93166754374241
 31
0.0
  0
LINE
  5
778
  8
1外形線
 10
344.00736465371398
 20
284.06153767361258
 30
0.0
 11
344.00736465371398
 21
194.06153767361261
 31
0.0
  0
LINE
  5
779
  8
1外形線
 10
307.22165036800021
 20
255.19140780348269
 30
0.0
 11
307.22165036799981
 21
222.93166754374241
 31
0.0
  0
LINE
  5
77A
  8
1外形線
 10
312.00736465371398
 20
255.56153767361261
 30
0.0
 11
312.00736465371398
 21
222.56153767361261
 31
0.0
  0
LINE
  5
77B
  8
1外形線
 10
263.86450751085709
 20
284.06192728400231
 30
0.0
 11
263.86450751085709
 21
194.0611480632231
 31
0.0
  0
LINE
  5
77C
  8
1外形線
 10
264.45891168860908
 20
283.60865565237037
 30
0.0
 11
264.45891168860908
 21
194.51441969485501
 31
0.0
  0
LINE
  5
77D
  8
1外形線
 10
266.11450751085709
 20
282.5036545567296
 30
0.0
 11
266.11450751085709
 21
195.61942079049581
 31
0.0
  0
LINE
  5
77E
  8
1外形線
 10
268.36450751085709
 20
280.9473818294569
 30
0.0
 11
268.36450751085709
 21
197.17569351776851
 31
0.0
  0
LINE
  5
77F
  8
1外形線
 10
268.95891168860919
 20
280.49411019782502
 30
0.0
 11
268.95891168860919
 21
197.62896514940039
 31
0.0
  0
LINE
  5
780
  8
1外形線
 10
270.61450751085709
 20
279.38910910218402
 30
0.0
 11
270.61450751085709
 21
198.7339662450411
 31
0.0
  0
LINE
  5
781
  8
1外形線
 10
272.86450751085709
 20
277.83283637491138
 30
0.0
 11
272.86450751085709
 21
200.2902389723138
 31
0.0
  0
LINE
  5
782
  8
1外形線
 10
273.45891168860919
 20
277.3795647432795
 30
0.0
 11
273.45891168860919
 21
200.74351060394591
 31
0.0
  0
LINE
  5
783
  8
1外形線
 10
275.11450751085709
 20
276.28385995177979
 30
0.0
 11
275.11450751085709
 21
201.83921539544559
 31
0.0
  0
LINE
  5
784
  8
1外形線
 10
277.36450751085709
 20
274.71829092036597
 30
0.0
 11
277.36450751085709
 21
203.40478442685921
 31
0.0
  0
LINE
  5
785
  8
1外形線
 10
277.95891168860919
 20
274.26501928873392
 30
0.0
 11
277.95891168860868
 21
203.85805605849129
 31
0.0
  0
LINE
  5
786
  8
1外形線
 10
279.61450751085709
 20
273.16001819309309
 30
0.0
 11
279.61450751085709
 21
204.96305715413229
 31
0.0
  0
LINE
  5
787
  8
1外形線
 10
281.86450751085709
 20
271.6037454658204
 30
0.0
 11
281.86450751085709
 21
206.51932988140501
 31
0.0
  0
LINE
  5
788
  8
1外形線
 10
282.45891168860868
 20
271.1504738341888
 30
0.0
 11
282.45891168860868
 21
206.97260151303661
 31
0.0
  0
LINE
  5
789
  8
1外形線
 10
284.11450751085709
 20
270.0454727385478
 30
0.0
 11
284.1145075108567
 21
208.07760260867761
 31
0.0
  0
LINE
  5
78A
  8
1外形線
 10
286.95891168860868
 20
268.03592837964339
 30
0.0
 11
286.95891168860868
 21
210.08714696758199
 31
0.0
  0
LINE
  5
78B
  8
1外形線
 10
286.36450751085709
 20
268.4892000112751
 30
0.0
 11
286.36450751085709
 21
209.63387533595031
 31
0.0
  0
LINE
  5
78C
  8
1外形線
 10
288.61450751085709
 20
266.93092728400239
 30
0.0
 11
288.61450751085709
 21
211.19214806322299
 31
0.0
  0
LINE
  5
78D
  8
1外形線
 10
290.86450751085709
 20
265.37465455672952
 30
0.0
 11
290.86450751085709
 21
213.0484207904959
 31
0.0
  0
LINE
  5
78E
  8
1外形線
 10
291.45891168860868
 20
264.92138292509782
 30
0.0
 11
291.45891168860868
 21
213.50169242212749
 31
0.0
  0
LINE
  5
78F
  8
1外形線
 10
293.11450751085709
 20
263.81638182945682
 30
0.0
 11
293.11450751085709
 21
214.60669351776829
 31
0.0
  0
LINE
  5
790
  8
1外形線
 10
295.95891168860868
 20
261.80683747055252
 30
0.0
 11
295.95891168860868
 21
216.6162378766729
 31
0.0
  0
LINE
  5
791
  8
1外形線
 10
295.36450751085709
 20
262.26010910218412
 30
0.0
 11
295.3645075108567
 21
216.16296624504119
 31
0.0
  0
LINE
  5
792
  8
1外形線
 10
297.61450751085709
 20
260.70183637491152
 30
0.0
 11
297.61450751085709
 21
217.7212389723139
 31
0.0
  0
LINE
  5
793
  8
1外形線
 10
299.86450751085709
 20
259.1455636476386
 30
0.0
 11
299.86450751085709
 21
219.2775116995868
 31
0.0
  0
LINE
  5
794
  8
1外形線
 10
300.45891168860823
 20
258.69229201600712
 30
0.0
 11
300.45891168860823
 21
219.73078333121819
 31
0.0
  0
LINE
  5
795
  8
1外形線
 10
302.11450751085709
 20
257.58729092036589
 30
0.0
 11
302.11450751085709
 21
220.83578442685939
 31
0.0
  0
LINE
  5
796
  8
1外形線
 10
304.36450751085709
 20
256.03101819309319
 30
0.0
 11
304.36450751085709
 21
222.39205715413209
 31
0.0
  0
LINE
  5
797
  8
1外形線
 10
304.95891168860823
 20
255.57774656146159
 30
0.0
 11
304.95891168860823
 21
222.8453287857636
 31
0.0
  0
LINE
  5
798
  8
1外形線
 10
306.61450751085709
 20
254.47274546582059
 30
0.0
 11
306.61450751085709
 21
223.9503298814048
 31
0.0
  0
ARC
  5
799
  8
1外形線
 10
317.55450751085669
 20
219.2775116995866
 30
0.0
 40
17.690000000000001
 50
180.0
 51
270.0
  0
ARC
  5
79A
  8
1外形線
 10
318.0279116886087
 20
219.73078333121819
 30
0.0
 40
17.568999999999999
 50
180.0
 51
270.0
  0
ARC
  5
79B
  8
1外形線
 10
319.38550751085683
 20
220.83578442685939
 30
0.0
 40
17.271000000000001
 50
180.0
 51
270.0
  0
ARC
  5
79C
  8
1外形線
 10
321.21450751085661
 20
222.39205715413209
 30
0.0
 40
16.850000000000001
 50
180.0
 51
270.0
  0
ARC
  5
79D
  8
1外形線
 10
321.68791168860849
 20
222.8453287857636
 30
0.0
 40
16.728999999999999
 50
180.0
 51
270.0
  0
ARC
  5
79E
  8
1外形線
 10
322.22165036799981
 20
222.93166754374241
 30
0.0
 40
15.0
 50
180.0
 51
270.0
  0
ARC
  5
79F
  8
1外形線
 10
323.04550751085708
 20
223.9503298814048
 30
0.0
 40
16.43099999999999
 50
180.0
 51
270.0
  0
LINE
  5
7A0
  8
1外形線
 10
324.00736465371398
 20
179.8282153954454
 30
0.0
 11
297.12550751085712
 21
179.8282153954456
 31
0.0
  0
LINE
  5
7A1
  8
1外形線
 10
324.00736465371398
 20
181.81478442685949
 30
0.0
 11
298.95450751085679
 21
181.81478442685929
 31
0.0
  0
LINE
  5
7A2
  8
1外形線
 10
324.00736465371398
 20
182.38905605849121
 30
0.0
 11
299.42791168860879
 21
182.38905605849121
 31
0.0
  0
LINE
  5
7A3
  8
1外形線
 10
324.00736465371398
 20
183.79205715413201
 30
0.0
 11
300.78550751085692
 21
183.79205715413201
 31
0.0
  0
LINE
  5
7A4
  8
1外形線
 10
324.00736465371398
 20
185.76932988140479
 30
0.0
 11
302.61450751085709
 21
185.76932988140479
 31
0.0
  0
LINE
  5
7A5
  8
1外形線
 10
324.00736465371398
 20
186.3436015130365
 30
0.0
 11
303.0879116886091
 21
186.3436015130367
 31
0.0
  0
LINE
  5
7A6
  8
1外形線
 10
324.00736465371398
 20
187.74660260867751
 30
0.0
 11
304.44550751085683
 21
187.74660260867751
 31
0.0
  0
LINE
  5
7A7
  8
1外形線
 10
315.50736465371398
 20
165.56153767361261
 30
0.0
 11
287.50736465371398
 21
165.56153767361261
 31
0.0
  0
LINE
  5
7A8
  8
1外形線
 10
324.00736465371398
 20
169.951148063223
 30
0.0
 11
287.97450751085682
 21
169.951148063223
 31
0.0
  0
LINE
  5
7A9
  8
1外形線
 10
324.00736465371398
 20
170.525419694855
 30
0.0
 11
288.44791168860871
 21
170.525419694855
 31
0.0
  0
LINE
  5
7AA
  8
1外形線
 10
324.00736465371398
 20
171.92842079049581
 30
0.0
 11
289.8055075108569
 21
171.92842079049581
 31
0.0
  0
LINE
  5
7AB
  8
1外形線
 10
324.00736465371398
 20
173.9056935177685
 30
0.0
 11
291.63450751085662
 21
173.9056935177685
 31
0.0
  0
LINE
  5
7AC
  8
1外形線
 10
324.00736465371398
 20
174.4799651494003
 30
0.0
 11
292.10791168860902
 21
174.4799651494003
 31
0.0
  0
LINE
  5
7AD
  8
1外形線
 10
324.00736465371398
 20
175.8829662450413
 30
0.0
 11
293.4655075108567
 21
175.8829662450413
 31
0.0
  0
LINE
  5
7AE
  8
1外形線
 10
324.00736465371398
 20
177.86023897231379
 30
0.0
 11
295.29450751085687
 21
177.86023897231379
 31
0.0
  0
LINE
  5
7AF
  8
1外形線
 10
324.00736465371398
 20
178.43451060394571
 30
0.0
 11
295.76791168860888
 21
178.43451060394571
 31
0.0
  0
LINE
  5
7B0
  8
1外形線
 10
316.50736465371398
 20
166.56153767361261
 30
0.0
 11
287.50736465371398
 21
166.56153767361261
 31
0.0
  0
ARC
  5
7B1
  8
1外形線
 10
308.10550751085708
 20
211.19214806322299
 30
0.0
 40
19.490999999999989
 50
180.0
 51
270.0
  0
ARC
  5
7B2
  8
1外形線
 10
310.23450751085699
 20
213.0484207904959
 30
0.0
 40
19.370000000000001
 50
180.0
 51
270.0
  0
ARC
  5
7B3
  8
1外形線
 10
310.70791168860848
 20
213.50169242212749
 30
0.0
 40
19.248999999999999
 50
180.0
 51
270.0
  0
ARC
  5
7B4
  8
1外形線
 10
312.06550751085712
 20
214.60669351776829
 30
0.0
 40
18.951000000000001
 50
180.0
 51
270.0
  0
ARC
  5
7B5
  8
1外形線
 10
313.8945075108569
 20
216.16296624504119
 30
0.0
 40
18.530000000000001
 50
180.0
 51
270.0
  0
ARC
  5
7B6
  8
1外形線
 10
314.36791168860879
 20
216.6162378766729
 30
0.0
 40
18.408999999999999
 50
180.0
 51
270.0
  0
ARC
  5
7B7
  8
1外形線
 10
315.72550751085703
 20
217.7212389723139
 30
0.0
 40
18.111000000000001
 50
180.0
 51
270.0
  0
ARC
  5
7B8
  8
1外形線
 10
306.27450751085701
 20
209.63387533595031
 30
0.0
 40
19.91
 50
180.0
 51
270.0
  0
ARC
  5
7B9
  8
1外形線
 10
306.74791168860838
 20
210.08714696758199
 30
0.0
 40
19.789000000000001
 50
180.0
 51
270.0
  0
ARC
  5
7BA
  8
1外形線
 10
295.29450751085687
 20
200.2902389723138
 30
0.0
 40
22.429999999999989
 50
180.0
 51
270.0
  0
ARC
  5
7BB
  8
1外形線
 10
295.76791168860888
 20
200.74351060394571
 30
0.0
 40
22.309000000000001
 50
180.0
 51
270.0
  0
ARC
  5
7BC
  8
1外形線
 10
297.12550751085712
 20
201.83921539544559
 30
0.0
 40
22.010999999999989
 50
180.0
 51
270.0
  0
ARC
  5
7BD
  8
1外形線
 10
298.95450751085679
 20
203.40478442685921
 30
0.0
 40
21.59
 50
180.0
 51
270.0
  0
ARC
  5
7BE
  8
1外形線
 10
299.42791168860879
 20
203.85805605849129
 30
0.0
 40
21.469000000000001
 50
180.0
 51
270.0
  0
ARC
  5
7BF
  8
1外形線
 10
287.50736465371398
 20
194.06153767361261
 30
0.0
 40
28.5
 50
180.0
 51
270.0
  0
ARC
  5
7C0
  8
1外形線
 10
287.50736465371398
 20
194.06153767361261
 30
0.0
 40
27.5
 50
180.0
 51
270.0
  0
ARC
  5
7C1
  8
1外形線
 10
287.97450751085682
 20
194.0611480632231
 30
0.0
 40
24.109999999999999
 50
180.0
 51
270.0
  0
ARC
  5
7C2
  8
1外形線
 10
288.44791168860871
 20
194.51441969485501
 30
0.0
 40
23.989000000000001
 50
180.0
 51
270.0
  0
ARC
  5
7C3
  8
1外形線
 10
291.63450751085662
 20
197.17569351776851
 30
0.0
 40
23.269999999999989
 50
180.0
 51
270.0
  0
ARC
  5
7C4
  8
1外形線
 10
292.10791168860902
 20
197.62896514940039
 30
0.0
 40
23.149000000000001
 50
180.0
 51
270.0
  0
ARC
  5
7C5
  8
1外形線
 10
293.4655075108567
 20
198.7339662450411
 30
0.0
 40
22.850999999999988
 50
180.0
 51
270.0
  0
ARC
  5
7C6
  8
1外形線
 10
289.8055075108569
 20
195.61942079049581
 30
0.0
 40
23.690999999999988
 50
180.0
 51
270.0
  0
LINE
  5
7C7
  8
1外形線
 10
259.00736465371398
 20
194.06153767361261
 30
0.0
 11
259.00736465371398
 21
239.06153767361261
 31
0.0
  0
LINE
  5
7C8
  8
1外形線
 10
260.00736465371398
 20
239.06153767361261
 30
0.0
 11
260.00736465371398
 21
194.06153767361261
 31
0.0
  0
ARC
  5
7C9
  8
1外形線
 10
300.78550751085692
 20
204.96305715413229
 30
0.0
 40
21.170999999999999
 50
180.0
 51
270.0
  0
ARC
  5
7CA
  8
1外形線
 10
302.61450751085709
 20
206.51932988140479
 30
0.0
 40
20.75
 50
180.0
 51
270.0
  0
ARC
  5
7CB
  8
1外形線
 10
303.0879116886091
 20
206.97260151303661
 30
0.0
 40
20.629000000000001
 50
180.0
 51
270.0
  0
ARC
  5
7CC
  8
1外形線
 10
304.44550751085683
 20
208.07760260867761
 30
0.0
 40
20.331
 50
180.0
 51
270.0
  0
ARC
  5
7CD
  8
1外形線
 10
329.00736465369988
 20
214.57686851940881
 30
0.0
 40
15.0
 50
273.82255372932951
 51
3.779052154666386
  0
ARC
  5
7CE
  8
1外形線
 10
329.00736465371398
 20
213.17386742377019
 30
0.0
 40
15.0
 50
273.82255372927392
 51
0.0
  0
ARC
  5
7CF
  8
1外形線
 10
329.00736465371398
 20
212.59959579213759
 30
0.0
 40
15.0
 50
273.82255372927392
 51
0.0
  0
ARC
  5
7D0
  8
1外形線
 10
329.00736465372847
 20
210.62232306486459
 30
0.0
 40
15.0
 50
273.82255372927392
 51
0.0
  0
ARC
  5
7D1
  8
1外形線
 10
332.00736465371398
 20
222.56153767361261
 30
0.0
 40
10.0
 50
270.0
 51
0.0
  0
ARC
  5
7D2
  8
1外形線
 10
331.00736465371398
 20
220.93166754374241
 30
0.0
 40
13.0
 50
270.0
 51
0.0
  0
ARC
  5
7D3
  8
1外形線
 10
329.00736465371398
 20
221.0829583328603
 30
0.0
 40
15.0
 50
273.82255372927392
 51
0.0
  0
ARC
  5
7D4
  8
1外形線
 10
329.00736465369988
 20
220.50868670122881
 30
0.0
 40
15.0
 50
273.82255372932951
 51
0.8367534043270243
  0
ARC
  5
7D5
  8
1外形線
 10
329.00736465369988
 20
218.53141397395601
 30
0.0
 40
15.0
 50
273.82255372932951
 51
359.39890414654349
  0
ARC
  5
7D6
  8
1外形線
 10
329.00736465369988
 20
217.128412878315
 30
0.0
 40
15.0
 50
273.82255372932951
 51
358.90315498049063
  0
ARC
  5
7D7
  8
1外形線
 10
329.00736465369988
 20
216.5541412466815
 30
0.0
 40
15.0
 50
273.82255372932951
 51
1.0968450195224051
  0
ARC
  5
7D8
  8
1外形線
 10
329.00736465374308
 20
189.44659469649909
 30
0.0
 40
15.0
 50
273.82255372927392
 51
311.96650893967751
  0
ARC
  5
7D9
  8
1外形線
 10
329.00736465374308
 20
188.87232306486709
 30
0.0
 40
15.0
 50
273.82255372927392
 51
306.46488373099282
  0
ARC
  5
7DA
  8
1外形線
 10
329.00736465375758
 20
193.40114015104459
 30
0.0
 40
15.0
 50
273.82255372927392
 51
352.87990325379218
  0
ARC
  5
7DB
  8
1外形線
 10
329.00736465375758
 20
192.82686851941261
 30
0.0
 40
15.0
 50
273.82255372927392
 51
346.71422280975139
  0
ARC
  5
7DC
  8
1外形線
 10
329.00736465374308
 20
190.84959579213989
 30
0.0
 40
15.0
 50
273.82255372927392
 51
325.96096989466241
  0
ARC
  5
7DD
  8
1外形線
 10
329.00736465374308
 20
197.35568560558869
 30
0.0
 40
15.0
 50
273.82255372927392
 51
0.0
  0
ARC
  5
7DE
  8
1外形線
 10
329.00736465372847
 20
209.21932196922361
 30
0.0
 40
15.0
 50
273.82255372927392
 51
0.0
  0
ARC
  5
7DF
  8
1外形線
 10
329.00736465372847
 20
208.6450503375921
 30
0.0
 40
15.0
 50
273.82255372927392
 51
0.0
  0
ARC
  5
7E0
  8
1外形線
 10
329.00736465372847
 20
206.66777761031929
 30
0.0
 40
15.0
 50
273.82255372927392
 51
0.0
  0
ARC
  5
7E1
  8
1外形線
 10
329.00736465372847
 20
205.2647765146792
 30
0.0
 40
15.0
 50
273.82255372927392
 51
0.0
  0
ARC
  5
7E2
  8
1外形線
 10
329.00736465372847
 20
204.6905048830489
 30
0.0
 40
15.0
 50
273.82255372927392
 51
0.0
  0
ARC
  5
7E3
  8
1外形線
 10
329.00736465372847
 20
202.7132321557763
 30
0.0
 40
15.0
 50
273.82255372927392
 51
0.0
  0
ARC
  5
7E4
  8
1外形線
 10
329.00736465372847
 20
201.31023106013399
 30
0.0
 40
15.0
 50
273.82255372927392
 51
0.0
  0
ARC
  5
7E5
  8
1外形線
 10
329.00736465372847
 20
200.7359594285015
 30
0.0
 40
15.0
 50
273.82255372927392
 51
0.0
  0
ARC
  5
7E6
  8
1外形線
 10
329.00736465372847
 20
198.75868670122949
 30
0.0
 40
15.0
 50
273.82255372927392
 51
0.0
  0
ARC
  5
7E7
  8
1外形線
 10
316.50736465371398
 20
194.06153767361261
 30
0.0
 40
27.5
 50
299.40035101021249
 51
0.0
  0
ARC
  5
7E8
  8
1外形線
 10
329.00736465374308
 20
196.78141397395649
 30
0.0
 40
15.0
 50
273.82255372927392
 51
0.0
  0
ARC
  5
7E9
  8
1外形線
 10
329.00736465374308
 20
194.79484494254419
 30
0.0
 40
15.0
 50
273.82255372927392
 51
0.0
  0
ARC
  5
7EA
  8
1外形線
 10
315.50736465371398
 20
194.06153767361261
 30
0.0
 40
28.5
 50
270.0
 51
0.0
  0
LINE
  5
7EB
  8
1外形線
 10
330.00736465371398
 20
169.52584938084269
 30
0.0
 11
330.00736465371398
 21
207.93166754374249
 31
0.0
  0
LINE
  5
7EC
  8
1外形線
 10
327.00736465371398
 20
211.06153767361261
 30
0.0
 11
327.00736465371398
 21
167.98472805280201
 31
0.0
  0
LINE
  5
7ED
  8
1外形線
 10
324.00736465371398
 20
166.8585966561416
 30
0.0
 11
324.00736465371398
 21
207.93166754374249
 31
0.0
  0
LINE
  5
7EE
  8
1外形線
 10
324.00736465371398
 20
194.2526924221273
 30
0.0
 11
310.70791168860848
 21
194.2526924221273
 31
0.0
  0
LINE
  5
7EF
  8
1外形線
 10
324.00736465371398
 20
193.67842079049581
 30
0.0
 11
310.23450751085699
 21
193.67842079049581
 31
0.0
  0
ARC
  5
7F0
  8
1外形線
 10
316.50736465371398
 20
194.06153767361261
 30
0.0
 40
27.5
 50
270.0
 51
285.82662013187172
  0
LINE
  5
7F1
  8
1外形線
 10
324.00736465371398
 20
189.72387533595031
 30
0.0
 11
306.27450751085701
 21
189.72387533595031
 31
0.0
  0
LINE
  5
7F2
  8
1外形線
 10
324.00736465371398
 20
190.298146967582
 30
0.0
 11
306.74791168860838
 21
190.298146967582
 31
0.0
  0
LINE
  5
7F3
  8
1外形線
 10
324.00736465371398
 20
191.701148063223
 30
0.0
 11
308.10550751085708
 21
191.701148063223
 31
0.0
  0
ARC
  5
7F4
  8
1外形線
 10
329.00736465375809
 20
186.89505033759431
 30
0.0
 40
15.0
 50
273.82255372927392
 51
288.65328287679358
  0
LINE
  5
7F5
  8
1外形線
 10
324.00736465371398
 20
195.6556935177685
 30
0.0
 11
312.06550751085712
 21
195.6556935177685
 31
0.0
  0
LINE
  5
7F6
  8
1外形線
 10
324.00736465371398
 20
197.63296624504119
 30
0.0
 11
313.8945075108569
 21
197.63296624504119
 31
0.0
  0
LINE
  5
7F7
  8
1外形線
 10
324.00736465371398
 20
201.58751169958651
 30
0.0
 11
317.55450751085669
 21
201.58751169958671
 31
0.0
  0
LINE
  5
7F8
  8
1外形線
 10
324.00736465371398
 20
202.16178333121829
 30
0.0
 11
318.0279116886087
 21
202.16178333121829
 31
0.0
  0
LINE
  5
7F9
  8
1外形線
 10
324.00736465371398
 20
203.56478442685949
 30
0.0
 11
319.38550751085683
 21
203.56478442685949
 31
0.0
  0
LINE
  5
7FA
  8
1外形線
 10
324.00736465371398
 20
205.54205715413201
 30
0.0
 11
321.21450751085661
 21
205.54205715413201
 31
0.0
  0
LINE
  5
7FB
  8
1外形線
 10
324.00736465371398
 20
198.20723787667279
 30
0.0
 11
314.36791168860879
 21
198.20723787667279
 31
0.0
  0
LINE
  5
7FC
  8
1外形線
 10
324.00736465371398
 20
199.61023897231399
 30
0.0
 11
315.72550751085703
 21
199.61023897231399
 31
0.0
  0
ARC
  5
7FD
  8
1外形線
 10
322.00736465371398
 20
222.56153767361261
 30
0.0
 40
10.0
 50
180.0
 51
270.0
  0
LINE
  5
7FE
  8
1外形線
 10
331.00736465371398
 20
207.93166754374249
 30
0.0
 11
322.22165036799981
 21
207.93166754374249
 31
0.0
  0
LINE
  5
7FF
  8
1外形線
 10
322.00736465371398
 20
212.56153767361261
 30
0.0
 11
332.00736465371398
 21
212.56153767361261
 31
0.0
  0
ARC
  5
800
  8
1外形線
 10
326.50736465371398
 20
211.06153767361261
 30
0.0
 40
0.5
 50
0.0
 51
90.0
  0
ARC
  5
801
  8
1外形線
 10
322.50736465371398
 20
212.06153767361261
 30
0.0
 40
0.5
 50
180.0
 51
270.0
  0
LINE
  5
802
  8
1外形線
 10
324.00736465371398
 20
207.51932988140479
 30
0.0
 11
323.04550751085668
 21
207.51932988140501
 31
0.0
  0
LINE
  5
803
  8
1外形線
 10
324.00736465371398
 20
206.11632878576381
 30
0.0
 11
321.68791168860849
 21
206.11632878576381
 31
0.0
  0
LINE
  5
804
  8
1外形線
 10
322.00736465371398
 20
212.56153767361261
 30
0.0
 11
322.00736465371398
 21
212.06153767361261
 31
0.0
  0
LINE
  5
805
  8
1外形線
 10
322.50736465371398
 20
211.56153767361261
 30
0.0
 11
326.50736465371398
 21
211.56153767361261
 31
0.0
  0
ARC
  5
806
  8
1外形線
 10
329.05350790845438
 20
222.4889710698092
 30
0.0
 40
15.0
 50
273.64592440365232
 51
287.58203992167472
  0
LINE
  5
807
  8
1外形線
 10
324.00736465371398
 20
296.30829092036589
 30
0.0
 11
298.95450751085679
 21
296.30829092036612
 31
0.0
  0
LINE
  5
808
  8
1外形線
 10
324.00736465371398
 20
295.73401928873392
 30
0.0
 11
299.42791168860879
 21
295.73401928873392
 31
0.0
  0
LINE
  5
809
  8
1外形線
 10
324.00736465371398
 20
298.2948599517797
 30
0.0
 11
297.12550751085661
 21
298.2948599517797
 31
0.0
  0
LINE
  5
80A
  8
1外形線
 10
324.00736465371398
 20
294.33101819309309
 30
0.0
 11
300.78550751085743
 21
294.33101819309309
 31
0.0
  0
LINE
  5
80B
  8
1外形線
 10
324.00736465371398
 20
292.3537454658204
 30
0.0
 11
302.61450751085709
 21
292.3537454658204
 31
0.0
  0
LINE
  5
80C
  8
1外形線
 10
324.00736465371398
 20
291.77947383418859
 30
0.0
 11
303.0879116886091
 21
291.77947383418859
 31
0.0
  0
LINE
  5
80D
  8
1外形線
 10
324.00736465371398
 20
290.37647273854759
 30
0.0
 11
304.44550751085683
 21
290.37647273854759
 31
0.0
  0
ARC
  5
80E
  8
1外形線
 10
317.25450751085702
 20
259.1455636476386
 30
0.0
 40
17.390000000000001
 50
90.0
 51
180.0
  0
ARC
  5
80F
  8
1外形線
 10
317.72791168860851
 20
258.69229201600712
 30
0.0
 40
17.268999999999998
 50
90.0
 51
180.0
  0
ARC
  5
810
  8
1外形線
 10
319.08550751085659
 20
257.58729092036589
 30
0.0
 40
16.971
 50
90.0
 51
180.0
  0
ARC
  5
811
  8
1外形線
 10
320.91450751085688
 20
256.03101819309319
 30
0.0
 40
16.550000000000001
 50
90.0
 51
180.0
  0
ARC
  5
812
  8
1外形線
 10
321.38791168860831
 20
255.57774656146159
 30
0.0
 40
16.428999999999998
 50
90.0
 51
180.0
  0
ARC
  5
813
  8
1外形線
 10
322.7455075108569
 20
254.47274546582059
 30
0.0
 40
16.131
 50
90.0
 51
180.0
  0
ARC
  5
814
  8
1外形線
 10
322.22165036800021
 20
255.19140780348269
 30
0.0
 40
15.0
 50
90.0
 51
180.0
  0
ARC
  5
815
  8
1外形線
 10
308.10550751085708
 20
266.93092728400239
 30
0.0
 40
19.490999999999989
 50
90.0
 51
180.0
  0
ARC
  5
816
  8
1外形線
 10
306.27450751085701
 20
268.4892000112751
 30
0.0
 40
19.91
 50
90.0
 51
180.0
  0
ARC
  5
817
  8
1外形線
 10
306.74791168860889
 20
268.03592837964339
 30
0.0
 40
19.789000000000001
 50
90.0
 51
180.0
  0
ARC
  5
818
  8
1外形線
 10
309.9345075108568
 20
265.37465455672952
 30
0.0
 40
19.07
 50
90.0
 51
180.0
  0
ARC
  5
819
  8
1外形線
 10
310.40791168860869
 20
264.92138292509782
 30
0.0
 40
18.949000000000002
 50
90.0
 51
180.0
  0
ARC
  5
81A
  8
1外形線
 10
311.76550751085699
 20
263.81638182945682
 30
0.0
 40
18.650999999999989
 50
90.0
 51
180.0
  0
ARC
  5
81B
  8
1外形線
 10
313.59450751085672
 20
262.26010910218412
 30
0.0
 40
18.23
 50
90.0
 51
180.0
  0
ARC
  5
81C
  8
1外形線
 10
314.0679116886086
 20
261.80683747055252
 30
0.0
 40
18.109000000000002
 50
90.0
 51
180.0
  0
ARC
  5
81D
  8
1外形線
 10
315.42550751085679
 20
260.70183637491152
 30
0.0
 40
17.811
 50
90.0
 51
180.0
  0
LINE
  5
81E
  8
1外形線
 10
324.00736465371398
 20
299.68856474327941
 30
0.0
 11
295.76791168860888
 21
299.68856474327941
 31
0.0
  0
LINE
  5
81F
  8
1外形線
 10
324.00736465371398
 20
300.26283637491139
 30
0.0
 11
295.29450751085687
 21
300.26283637491139
 31
0.0
  0
LINE
  5
820
  8
1外形線
 10
324.00736465371398
 20
302.24010910218408
 30
0.0
 11
293.4655075108567
 21
302.24010910218408
 31
0.0
  0
LINE
  5
821
  8
1外形線
 10
324.00736465371398
 20
303.64311019782491
 30
0.0
 11
292.10791168860902
 21
303.64311019782491
 31
0.0
  0
LINE
  5
822
  8
1外形線
 10
324.00736465371398
 20
304.21738182945688
 30
0.0
 11
291.63450751085708
 21
304.21738182945688
 31
0.0
  0
LINE
  5
823
  8
1外形線
 10
316.50736465371398
 20
311.56153767361258
 30
0.0
 11
287.50736465371398
 21
311.56153767361258
 31
0.0
  0
LINE
  5
824
  8
1外形線
 10
315.50736465371398
 20
312.56153767361258
 30
0.0
 11
287.50736465371398
 21
312.56153767361258
 31
0.0
  0
LINE
  5
825
  8
1外形線
 10
324.00736465371398
 20
306.19465455672957
 30
0.0
 11
289.8055075108569
 21
306.19465455672957
 31
0.0
  0
LINE
  5
826
  8
1外形線
 10
324.00736465371398
 20
307.59765565237041
 30
0.0
 11
288.44791168860922
 21
307.59765565237041
 31
0.0
  0
LINE
  5
827
  8
1外形線
 10
324.00736465371398
 20
308.17192728400221
 30
0.0
 11
287.97450751085682
 21
308.17192728400221
 31
0.0
  0
ARC
  5
828
  8
1外形線
 10
295.29450751085687
 20
277.83283637491138
 30
0.0
 40
22.429999999999989
 50
90.0
 51
180.0
  0
ARC
  5
829
  8
1外形線
 10
295.76791168860888
 20
277.3795647432795
 30
0.0
 40
22.309000000000001
 50
90.0
 51
180.0
  0
ARC
  5
82A
  8
1外形線
 10
297.12550751085661
 20
276.28385995177979
 30
0.0
 40
22.010999999999989
 50
90.0
 51
180.0
  0
ARC
  5
82B
  8
1外形線
 10
298.95450751085679
 20
274.71829092036597
 30
0.0
 40
21.59
 50
90.0
 51
180.0
  0
ARC
  5
82C
  8
1外形線
 10
299.42791168860879
 20
274.26501928873392
 30
0.0
 40
21.469000000000001
 50
90.0
 51
180.0
  0
ARC
  5
82D
  8
1外形線
 10
287.50736465371398
 20
284.06153767361258
 30
0.0
 40
27.5
 50
90.0
 51
180.0
  0
ARC
  5
82E
  8
1外形線
 10
287.50736465371398
 20
284.06153767361258
 30
0.0
 40
28.5
 50
90.0
 51
180.0
  0
ARC
  5
82F
  8
1外形線
 10
287.97450751085682
 20
284.06192728400231
 30
0.0
 40
24.109999999999999
 50
90.0
 51
180.0
  0
ARC
  5
830
  8
1外形線
 10
288.44791168860871
 20
283.60865565237037
 30
0.0
 40
23.989000000000001
 50
90.0
 51
180.0
  0
ARC
  5
831
  8
1外形線
 10
289.8055075108569
 20
282.5036545567296
 30
0.0
 40
23.690999999999988
 50
90.0
 51
180.0
  0
ARC
  5
832
  8
1外形線
 10
291.63450751085708
 20
280.9473818294569
 30
0.0
 40
23.269999999999989
 50
90.0
 51
180.0
  0
ARC
  5
833
  8
1外形線
 10
292.10791168860902
 20
280.49411019782502
 30
0.0
 40
23.149000000000001
 50
90.0
 51
180.0
  0
ARC
  5
834
  8
1外形線
 10
293.4655075108567
 20
279.38910910218402
 30
0.0
 40
22.850999999999988
 50
90.0
 51
180.0
  0
ARC
  5
835
  8
1外形線
 10
300.78550751085743
 20
273.16001819309309
 30
0.0
 40
21.170999999999999
 50
90.0
 51
180.0
  0
ARC
  5
836
  8
1外形線
 10
302.61450751085709
 20
271.6037454658204
 30
0.0
 40
20.75
 50
90.0
 51
180.0
  0
ARC
  5
837
  8
1外形線
 10
303.0879116886091
 20
271.1504738341888
 30
0.0
 40
20.629000000000001
 50
90.0
 51
180.0
  0
ARC
  5
838
  8
1外形線
 10
304.44550751085683
 20
270.0454727385478
 30
0.0
 40
20.331
 50
90.0
 51
180.0
  0
ARC
  5
839
  8
1外形線
 10
329.00736465367032
 20
289.25075228236398
 30
0.0
 40
15.0
 50
53.53511626820859
 51
86.177446270726094
  0
ARC
  5
83A
  8
1外形線
 10
329.00736465367032
 20
288.676480650732
 30
0.0
 40
15.0
 50
48.033491059370107
 51
86.177446270726094
  0
ARC
  5
83B
  8
1外形線
 10
316.50736465371398
 20
284.06153767361258
 30
0.0
 40
27.5
 50
0.0
 51
60.599648989787397
  0
ARC
  5
83C
  8
1外形線
 10
329.00736465371398
 20
275.40984319145127
 30
0.0
 40
15.0
 50
0.0
 51
86.177446270726094
  0
ARC
  5
83D
  8
1外形線
 10
329.00736465369988
 20
273.43257046417858
 30
0.0
 40
15.0
 50
0.0
 51
86.177446270726094
  0
ARC
  5
83E
  8
1外形線
 10
329.00736465369988
 20
276.81284428709228
 30
0.0
 40
15.0
 50
0.0
 51
86.177446270726094
  0
ARC
  5
83F
  8
1外形線
 10
329.00736465369948
 20
277.38711591872772
 30
0.0
 40
15.0
 50
0.0
 51
86.177446270726094
  0
ARC
  5
840
  8
1外形線
 10
329.00736465367032
 20
279.36438864600029
 30
0.0
 40
15.0
 50
0.0
 51
86.177446270726094
  0
ARC
  5
841
  8
1外形線
 10
329.00736465367032
 20
280.76738974164169
 30
0.0
 40
15.0
 50
0.0
 51
86.177446270726094
  0
ARC
  5
842
  8
1外形線
 10
329.00736465368487
 20
281.34166137327259
 30
0.0
 40
15.0
 50
0.0
 51
86.177446270726094
  0
ARC
  5
843
  8
1外形線
 10
329.00736465367032
 20
283.32823040468639
 30
0.0
 40
15.0
 50
0.0
 51
86.177446270726094
  0
ARC
  5
844
  8
1外形線
 10
329.00736465367032
 20
284.72193519618651
 30
0.0
 40
15.0
 50
7.1200967360260679
 51
86.177446270726094
  0
ARC
  5
845
  8
1外形線
 10
329.00736465367032
 20
285.29620682781871
 30
0.0
 40
15.0
 50
13.285777184894039
 51
86.177446270726094
  0
ARC
  5
846
  8
1外形線
 10
329.00736465367032
 20
287.27347955509128
 30
0.0
 40
15.0
 50
34.039030103801757
 51
86.177446270726094
  0
ARC
  5
847
  8
1外形線
 10
332.00736465371398
 20
255.56153767361261
 30
0.0
 40
10.0
 50
0.0
 51
90.0
  0
ARC
  5
848
  8
1外形線
 10
329.00736465369988
 20
272.85829883254911
 30
0.0
 40
15.0
 50
0.0
 51
86.177446270726094
  0
ARC
  5
849
  8
1外形線
 10
331.00736465371398
 20
257.19140780348272
 30
0.0
 40
13.0
 50
0.0
 51
90.0
  0
ARC
  5
84A
  8
1外形線
 10
329.00736465364167
 20
257.61438864600137
 30
0.0
 40
15.0
 50
0.0
 51
86.177446270726094
  0
ARC
  5
84B
  8
1外形線
 10
329.00736465364167
 20
257.04011701436991
 30
0.0
 40
15.0
 50
0.0
 51
86.177446270726094
  0
ARC
  5
84C
  8
1外形線
 10
329.00736465367078
 20
271.45529773690788
 30
0.0
 40
15.0
 50
0.0
 51
86.177446270726094
  0
ARC
  5
84D
  8
1外形線
 10
329.00736465367078
 20
269.47802500963581
 30
0.0
 40
15.0
 50
0.0
 51
86.177446270726094
  0
ARC
  5
84E
  8
1外形線
 10
329.00736465367078
 20
268.90375337800413
 30
0.0
 40
15.0
 50
0.0
 51
86.177446270726094
  0
ARC
  5
84F
  8
1外形線
 10
329.00736465369948
 20
267.50075228236312
 30
0.0
 40
15.0
 50
0.0
 51
86.177446270726094
  0
ARC
  5
850
  8
1外形線
 10
329.00736465368527
 20
265.52347955509032
 30
0.0
 40
15.0
 50
0.0
 51
86.177446270726094
  0
ARC
  5
851
  8
1外形線
 10
329.00736465368527
 20
264.94920792345857
 30
0.0
 40
15.0
 50
0.0
 51
86.177446270726094
  0
ARC
  5
852
  8
1外形線
 10
329.00736465368527
 20
263.54620682781763
 30
0.0
 40
15.0
 50
0.0
 51
86.177446270726094
  0
ARC
  5
853
  8
1外形線
 10
329.00736465368527
 20
261.5689341005467
 30
0.0
 40
15.0
 50
0.0
 51
86.177446270726094
  0
ARC
  5
854
  8
1外形線
 10
329.00736465365583
 20
260.99466246891512
 30
0.0
 40
15.0
 50
0.0
 51
86.177446270726094
  0
ARC
  5
855
  8
1外形線
 10
329.00736465365583
 20
259.59166137327412
 30
0.0
 40
15.0
 50
0.0
 51
86.177446270726094
  0
ARC
  5
856
  8
1外形線
 10
315.50736465371398
 20
284.06153767361258
 30
0.0
 40
28.5
 50
0.0
 51
90.0
  0
LINE
  5
857
  8
1外形線
 10
330.00736465371398
 20
270.19140780348272
 30
0.0
 11
330.00736465371398
 21
308.5972259663825
 31
0.0
  0
LINE
  5
858
  8
1外形線
 10
327.00736465371398
 20
267.06153767361258
 30
0.0
 11
327.00736465371398
 21
310.1383472944234
 31
0.0
  0
LINE
  5
859
  8
1外形線
 10
324.00736465371398
 20
270.19140780348272
 30
0.0
 11
324.00736465371398
 21
311.26447869108398
 31
0.0
  0
LINE
  5
85A
  8
1外形線
 10
324.00736465371398
 20
279.91583747055239
 30
0.0
 11
314.0679116886086
 21
279.91583747055239
 31
0.0
  0
LINE
  5
85B
  8
1外形線
 10
324.00736465371398
 20
280.49010910218419
 30
0.0
 11
313.59450751085711
 21
280.49010910218419
 31
0.0
  0
LINE
  5
85C
  8
1外形線
 10
324.00736465371398
 20
282.46738182945688
 30
0.0
 11
311.76550751085699
 21
282.46738182945688
 31
0.0
  0
LINE
  5
85D
  8
1外形線
 10
324.00736465371398
 20
275.96129201600712
 30
0.0
 11
317.72791168860851
 21
275.96129201600712
 31
0.0
  0
LINE
  5
85E
  8
1外形線
 10
324.00736465371398
 20
276.5355636476387
 30
0.0
 11
317.25450751085702
 21
276.5355636476387
 31
0.0
  0
LINE
  5
85F
  8
1外形線
 10
324.00736465371398
 20
278.51283637491139
 30
0.0
 11
315.42550751085679
 21
278.51283637491139
 31
0.0
  0
LINE
  5
860
  8
1外形線
 10
324.00736465371398
 20
274.55829092036589
 30
0.0
 11
319.08550751085659
 21
274.55829092036589
 31
0.0
  0
LINE
  5
861
  8
1外形線
 10
324.00736465371398
 20
283.87038292509789
 30
0.0
 11
310.40791168860869
 21
283.87038292509789
 31
0.0
  0
LINE
  5
862
  8
1外形線
 10
324.00736465371398
 20
284.44465455672969
 30
0.0
 11
309.9345075108568
 21
284.44465455672969
 31
0.0
  0
LINE
  5
863
  8
1外形線
 10
324.00736465371398
 20
286.42192728400238
 30
0.0
 11
308.10550751085708
 21
286.42192728400238
 31
0.0
  0
LINE
  5
864
  8
1外形線
 10
324.00736465371398
 20
272.00674656146163
 30
0.0
 11
321.38791168860831
 21
272.00674656146163
 31
0.0
  0
LINE
  5
865
  8
1外形線
 10
324.00736465371398
 20
272.5810181930932
 30
0.0
 11
320.91450751085688
 21
272.5810181930932
 31
0.0
  0
ARC
  5
866
  8
1外形線
 10
322.00736465371398
 20
255.56153767361261
 30
0.0
 40
10.0
 50
90.0
 51
180.0
  0
LINE
  5
867
  8
1外形線
 10
332.00736465371398
 20
265.56153767361258
 30
0.0
 11
322.00736465371398
 21
265.56153767361258
 31
0.0
  0
LINE
  5
868
  8
1外形線
 10
322.22165036800021
 20
270.19140780348272
 30
0.0
 11
331.00736465371398
 21
270.19140780348272
 31
0.0
  0
ARC
  5
869
  8
1外形線
 10
326.50736465371398
 20
267.06153767361258
 30
0.0
 40
0.5
 50
270.0
 51
0.0
  0
LINE
  5
86A
  8
1外形線
 10
324.00736465371398
 20
270.6037454658204
 30
0.0
 11
322.7455075108569
 21
270.6037454658204
 31
0.0
  0
LINE
  5
86B
  8
1外形線
 10
322.00736465371398
 20
265.56153767361258
 30
0.0
 11
322.00736465371398
 21
266.06153767361258
 31
0.0
  0
ARC
  5
86C
  8
1外形線
 10
322.50736465371398
 20
266.06153767361258
 30
0.0
 40
0.5
 50
90.0
 51
180.0
  0
LINE
  5
86D
  8
1外形線
 10
322.50736465371398
 20
266.56153767361258
 30
0.0
 11
326.50736465371398
 21
266.56153767361258
 31
0.0
  0
ARC
  5
86E
  8
1外形線
 10
329.00736465367078
 20
255.6371159187286
 30
0.0
 40
15.0
 50
72.628649437257138
 51
86.177446270726094
  0
ARC
  5
86F
  8
1外形線
 10
316.50736465371398
 20
284.06153767361258
 30
0.0
 40
27.5
 50
74.173379868128237
 51
90.0
  0
LINE
  5
870
  8
1外形線
 10
324.00736465371398
 20
287.82492837964338
 30
0.0
 11
306.74791168860889
 21
287.82492837964338
 31
0.0
  0
LINE
  5
871
  8
1外形線
 10
324.00736465371398
 20
288.39920001127513
 30
0.0
 11
306.27450751085701
 21
288.39920001127513
 31
0.0
  0
ARC
  5
872
  8
1外形線
 10
329.00736465367032
 20
291.22802500963581
 30
0.0
 40
15.0
 50
71.346717122638935
 51
86.177446270726094
  0
LINE
  5
873
  8
1外形線
 10
279.6073700485037
 20
535.1579390845252
 30
0.0
 11
279.607338221644
 21
509.55813911106242
 31
0.0
  0
LINE
  5
874
  8
1外形線
 10
276.60736465370701
 20
508.71930533081888
 30
0.0
 11
276.60736465370701
 21
530.81865718493668
 31
0.0
  0
LINE
  5
875
  8
1外形線
 10
282.60736465370718
 20
510.82168497745278
 30
0.0
 11
282.60736465370701
 21
530.81865718493668
 31
0.0
  0
ARC
  5
876
  8
1外形線
 10
281.6073646537065
 20
529.57992577447794
 30
0.0
 40
15.0
 50
273.82255372927392
 51
308.19928656020858
  0
ARC
  5
877
  8
1外形線
 10
281.6073646537065
 20
530.12216652533209
 30
0.0
 40
15.0
 50
273.82255372927392
 51
314.92195270734078
  0
ARC
  5
878
  8
1外形線
 10
281.6073646537065
 20
531.04867577447749
 30
0.0
 40
15.0
 50
273.82255372927392
 51
326.90051535326148
  0
ARC
  5
879
  8
1外形線
 10
271.307364653707
 20
533.45793908452515
 30
0.0
 40
25.300000000000001
 50
270.0
 51
0.0
  0
ARC
  5
87A
  8
1外形線
 10
281.6073646537065
 20
533.05966652533277
 30
0.0
 40
15.0
 50
273.82255372927392
 51
0.0
  0
ARC
  5
87B
  8
1外形線
 10
281.60736465370672
 20
533.98617577447908
 30
0.0
 40
15.0
 50
273.82255372927392
 51
0.0
  0
ARC
  5
87C
  8
1外形線
 10
272.307364653707
 20
533.45793908452515
 30
0.0
 40
24.300000000000001
 50
295.0790523028947
 51
0.0
  0
ARC
  5
87D
  8
1外形線
 10
281.6073646537065
 20
532.51742577447772
 30
0.0
 40
15.0
 50
273.82255372927392
 51
348.00236865967349
  0
ARC
  5
87E
  8
1外形線
 10
272.307364653707
 20
533.45793908452515
 30
0.0
 40
24.300000000000001
 50
270.0
 51
280.19243157537261
  0
LINE
  5
87F
  8
1外形線
 10
276.60736465370701
 20
516.08204622738219
 30
0.0
 11
256.50254322513558
 21
516.08204622738219
 31
0.0
  0
LINE
  5
880
  8
1外形線
 10
276.60736465370701
 20
515.15553697823646
 30
0.0
 11
255.0512644217803
 21
515.15553697823646
 31
0.0
  0
LINE
  5
881
  8
1外形線
 10
276.60736465370701
 20
514.61329622738219
 30
0.0
 11
254.69629322513561
 21
514.61329622738219
 31
0.0
  0
LINE
  5
882
  8
1外形線
 10
276.60736465370701
 20
513.14454622738231
 30
0.0
 11
252.89004322513551
 21
513.14454622738231
 31
0.0
  0
LINE
  5
883
  8
1外形線
 10
276.60736465370701
 20
512.21803697823646
 30
0.0
 11
251.4387644217806
 21
512.21803697823646
 31
0.0
  0
LINE
  5
884
  8
1外形線
 10
276.60736465370701
 20
511.67579622738231
 30
0.0
 11
251.08379322513559
 21
511.67579622738231
 31
0.0
  0
LINE
  5
885
  8
1外形線
 10
272.307364653707
 20
509.15793908452503
 30
0.0
 11
249.307364653707
 21
509.15793908452508
 31
0.0
  0
LINE
  5
886
  8
1外形線
 10
271.307364653707
 20
508.15793908452508
 30
0.0
 11
249.307364653707
 21
508.15793908452508
 31
0.0
  0
ARC
  5
887
  8
1外形線
 10
281.6073646537065
 20
526.64242577447897
 30
0.0
 40
15.0
 50
273.82255372927392
 51
276.00895424753611
  0
ARC
  5
888
  8
1外形線
 10
281.60736465370718
 20
527.18466652533209
 30
0.0
 40
15.0
 50
273.82255372927392
 51
281.40349309225422
  0
ARC
  5
889
  8
1外形線
 10
281.60736465370633
 20
528.11117577447806
 30
0.0
 40
15.0
 50
273.82255372927392
 51
291.1919005001742
  0
LINE
  5
88A
  8
1外形線
 10
276.60736465370672
 20
600.42133194166797
 30
0.0
 11
267.34004322513528
 21
600.42133194166797
 31
0.0
  0
LINE
  5
88B
  8
1外形線
 10
276.60736465370672
 20
601.89008194166797
 30
0.0
 11
265.53379322513558
 21
601.89008194166797
 31
0.0
  0
LINE
  5
88C
  8
1外形線
 10
276.60736465370672
 20
601.34784119081405
 30
0.0
 11
265.88876442178042
 21
601.34784119081405
 31
0.0
  0
LINE
  5
88D
  8
1外形線
 10
276.60736465370701
 20
603.35883194166797
 30
0.0
 11
263.72754322513561
 21
603.35883194166797
 31
0.0
  0
LINE
  5
88E
  8
1外形線
 10
276.60736465370672
 20
598.95258194166797
 30
0.0
 11
269.14629322513542
 21
598.95258194166797
 31
0.0
  0
LINE
  5
88F
  8
1外形線
 10
276.60736465370672
 20
598.41034119081405
 30
0.0
 11
269.50126442178038
 21
598.41034119081405
 31
0.0
  0
LINE
  5
890
  8
1外形線
 10
276.60736465370701
 20
596.01508194166797
 30
0.0
 11
272.75879322513532
 21
596.01508194166797
 31
0.0
  0
LINE
  5
891
  8
1外形線
 10
276.60736465370701
 20
595.47284119081405
 30
0.0
 11
273.11376442178027
 21
595.47284119081405
 31
0.0
  0
LINE
  5
892
  8
1外形線
 10
276.60736465370701
 20
597.48383194166797
 30
0.0
 11
270.95254322513551
 21
597.48383194166797
 31
0.0
  0
LINE
  5
893
  8
1外形線
 10
276.60736465370701
 20
604.82758194166797
 30
0.0
 11
261.92129322513551
 21
604.82758194166797
 31
0.0
  0
LINE
  5
894
  8
1外形線
 10
276.60736465370701
 20
607.22284119081382
 30
0.0
 11
258.66376442178051
 21
607.22284119081382
 31
0.0
  0
LINE
  5
895
  8
1外形線
 10
276.60736465370701
 20
606.29633194166809
 30
0.0
 11
260.11504322513542
 21
606.29633194166809
 31
0.0
  0
LINE
  5
896
  8
1外形線
 10
276.60736465370701
 20
604.28534119081405
 30
0.0
 11
262.27626442178052
 21
604.28534119081405
 31
0.0
  0
LINE
  5
897
  8
1外形線
 10
276.60736465370701
 20
607.76508194166809
 30
0.0
 11
258.3087932251355
 21
607.76508194166809
 31
0.0
  0
ARC
  5
898
  8
1外形線
 10
274.56504322513558
 20
578.86633194166802
 30
0.0
 40
15.68
 50
90.0
 51
180.0
  0
ARC
  5
899
  8
1外形線
 10
274.6752217965643
 20
579.4972209841136
 30
0.0
 40
15.0
 50
90.0
 51
180.0
  0
ARC
  5
89A
  8
1外形線
 10
274.60736465370718
 20
579.15793908452508
 30
0.0
 40
10.0
 50
90.0
 51
180.0
  0
LINE
  5
89B
  8
1外形線
 10
276.60736465370701
 20
529.30079622738231
 30
0.0
 11
272.75879322513561
 21
529.30079622738231
 31
0.0
  0
LINE
  5
89C
  8
1外形線
 10
276.60736465370701
 20
529.84303697823634
 30
0.0
 11
273.1137644217801
 21
529.84303697823634
 31
0.0
  0
LINE
  5
89D
  8
1外形線
 10
276.60736465370701
 20
524.89454622738219
 30
0.0
 11
267.3400432251355
 21
524.89454622738219
 31
0.0
  0
LINE
  5
89E
  8
1外形線
 10
276.60736465370701
 20
523.96803697823634
 30
0.0
 11
265.88876442178042
 21
523.96803697823634
 31
0.0
  0
LINE
  5
89F
  8
1外形線
 10
276.60736465370701
 20
523.42579622738219
 30
0.0
 11
265.53379322513541
 21
523.42579622738219
 31
0.0
  0
LINE
  5
8A0
  8
1外形線
 10
276.60736465370701
 20
521.95704622738219
 30
0.0
 11
263.72754322513578
 21
521.95704622738219
 31
0.0
  0
LINE
  5
8A1
  8
1外形線
 10
276.60736465370701
 20
526.90553697823634
 30
0.0
 11
269.50126442178038
 21
526.90553697823634
 31
0.0
  0
LINE
  5
8A2
  8
1外形線
 10
276.60736465370701
 20
526.36329622738231
 30
0.0
 11
269.14629322513559
 21
526.36329622738231
 31
0.0
  0
LINE
  5
8A3
  8
1外形線
 10
276.60736465370701
 20
527.83204622738231
 30
0.0
 11
270.95254322513551
 21
527.83204622738231
 31
0.0
  0
LINE
  5
8A4
  8
1外形線
 10
276.60736465370701
 20
521.03053697823634
 30
0.0
 11
262.27626442178052
 21
521.03053697823634
 31
0.0
  0
LINE
  5
8A5
  8
1外形線
 10
276.60736465370701
 20
520.48829622738219
 30
0.0
 11
261.92129322513551
 21
520.48829622738219
 31
0.0
  0
LINE
  5
8A6
  8
1外形線
 10
276.60736465370701
 20
519.01954622738219
 30
0.0
 11
260.11504322513559
 21
519.01954622738219
 31
0.0
  0
LINE
  5
8A7
  8
1外形線
 10
276.60736465370701
 20
518.09303697823646
 30
0.0
 11
258.66376442178051
 21
518.09303697823646
 31
0.0
  0
LINE
  5
8A8
  8
1外形線
 10
276.60736465370701
 20
517.55079622738219
 30
0.0
 11
258.3087932251355
 21
517.55079622738219
 31
0.0
  0
ARC
  5
8A9
  8
1外形線
 10
274.56504322513541
 20
546.44954622738226
 30
0.0
 40
15.68
 50
180.0
 51
270.0
  0
ARC
  5
8AA
  8
1外形線
 10
274.6752217965643
 20
545.81865718493657
 30
0.0
 40
15.0
 50
180.0
 51
270.0
  0
ARC
  5
8AB
  8
1外形線
 10
274.60736465370701
 20
546.15793908452508
 30
0.0
 40
10.0
 50
180.0
 51
270.0
  0
LINE
  5
8AC
  8
1外形線
 10
264.60736465370701
 20
546.15793908452508
 30
0.0
 11
264.60736465370718
 21
579.15793908452508
 31
0.0
  0
LINE
  5
8AD
  8
1外形線
 10
243.8475432251355
 20
583.4788319416682
 30
0.0
 11
243.84754322513569
 21
541.83704622738219
 31
0.0
  0
LINE
  5
8AE
  8
1外形線
 10
258.88504322513558
 20
578.86633194166802
 30
0.0
 11
258.88504322513541
 21
546.44954622738226
 31
0.0
  0
LINE
  5
8AF
  8
1外形線
 10
256.99376442178021
 20
579.35284119081393
 30
0.0
 11
256.99376442177999
 21
545.96303697823635
 31
0.0
  0
LINE
  5
8B0
  8
1外形線
 10
256.37879322513538
 20
579.63508194166786
 30
0.0
 11
256.37879322513538
 21
545.68079622738242
 31
0.0
  0
LINE
  5
8B1
  8
1外形線
 10
253.8725432251355
 20
580.40383194166805
 30
0.0
 11
253.8725432251355
 21
544.91204622738223
 31
0.0
  0
LINE
  5
8B2
  8
1外形線
 10
251.98126442178039
 20
580.89034119081396
 30
0.0
 11
251.98126442178039
 21
544.42553697823632
 31
0.0
  0
LINE
  5
8B3
  8
1外形線
 10
251.36629322513559
 20
581.17258194166811
 30
0.0
 11
251.36629322513559
 21
544.14329622738228
 31
0.0
  0
LINE
  5
8B4
  8
1外形線
 10
248.86004322513551
 20
581.94133194166795
 30
0.0
 11
248.86004322513551
 21
543.37454622738233
 31
0.0
  0
LINE
  5
8B5
  8
1外形線
 10
246.96876442178029
 20
582.42784119081398
 30
0.0
 11
246.96876442178029
 21
542.88803697823641
 31
0.0
  0
LINE
  5
8B6
  8
1外形線
 10
246.3537932251356
 20
582.71008194166802
 30
0.0
 11
246.35379322513529
 21
542.60579622738226
 31
0.0
  0
LINE
  5
8B7
  8
1外形線
 10
259.6752217965643
 20
579.4972209841136
 30
0.0
 11
259.6752217965643
 21
545.81865718493657
 31
0.0
  0
ARC
  5
8B8
  8
1外形線
 10
267.3400432251355
 20
543.37454622738233
 30
0.0
 40
18.48
 50
180.0
 51
270.0
  0
ARC
  5
8B9
  8
1外形線
 10
265.88876442178042
 20
542.88803697823641
 30
0.0
 40
18.920000000000002
 50
180.0
 51
270.0
  0
ARC
  5
8BA
  8
1外形線
 10
273.1137644217801
 20
545.96303697823635
 30
0.0
 40
16.120000000000001
 50
180.0
 51
270.0
  0
ARC
  5
8BB
  8
1外形線
 10
272.75879322513561
 20
545.68079622738242
 30
0.0
 40
16.379999999999988
 50
180.0
 51
270.0
  0
ARC
  5
8BC
  8
1外形線
 10
270.95254322513551
 20
544.91204622738223
 30
0.0
 40
17.079999999999998
 50
180.0
 51
270.0
  0
ARC
  5
8BD
  8
1外形線
 10
269.50126442178038
 20
544.42553697823632
 30
0.0
 40
17.519999999999989
 50
180.0
 51
270.0
  0
ARC
  5
8BE
  8
1外形線
 10
269.14629322513559
 20
544.14329622738228
 30
0.0
 40
17.780000000000001
 50
180.0
 51
270.0
  0
ARC
  5
8BF
  8
1外形線
 10
267.3400432251355
 20
581.94133194166795
 30
0.0
 40
18.48
 50
90.0
 51
180.0
  0
ARC
  5
8C0
  8
1外形線
 10
265.88876442178042
 20
582.42784119081398
 30
0.0
 40
18.920000000000002
 50
90.0
 51
180.0
  0
ARC
  5
8C1
  8
1外形線
 10
273.11376442178027
 20
579.35284119081393
 30
0.0
 40
16.120000000000001
 50
90.0
 51
180.0
  0
ARC
  5
8C2
  8
1外形線
 10
272.75879322513561
 20
579.63508194166786
 30
0.0
 40
16.379999999999988
 50
90.0
 51
180.0
  0
ARC
  5
8C3
  8
1外形線
 10
270.95254322513551
 20
580.40383194166805
 30
0.0
 40
17.079999999999998
 50
90.0
 51
180.0
  0
ARC
  5
8C4
  8
1外形線
 10
269.50126442178038
 20
580.89034119081396
 30
0.0
 40
17.519999999999989
 50
90.0
 51
180.0
  0
ARC
  5
8C5
  8
1外形線
 10
269.14629322513542
 20
581.17258194166811
 30
0.0
 40
17.780000000000001
 50
90.0
 51
180.0
  0
LINE
  5
8C6
  8
1外形線
 10
296.60736465370701
 20
581.49722098411371
 30
0.0
 11
296.60736465370701
 21
543.81865718493657
 31
0.0
  0
LINE
  5
8C7
  8
1外形線
 10
294.60736465370701
 20
579.15793908452508
 30
0.0
 11
294.60736465370701
 21
546.15793908452508
 31
0.0
  0
LINE
  5
8C8
  8
1外形線
 10
296.60736465370701
 20
591.85793908452524
 30
0.0
 11
296.60736465370701
 21
533.45793908452515
 31
0.0
  0
ARC
  5
8C9
  8
1外形線
 10
281.6073646536924
 20
544.80966652533255
 30
0.0
 40
15.0
 50
273.82255372927392
 51
309.24351455775889
  0
ARC
  5
8CA
  8
1外形線
 10
281.60736465370701
 20
538.39242577447772
 30
0.0
 40
15.0
 50
273.82255372927392
 51
0.0
  0
ARC
  5
8CB
  8
1外形線
 10
281.60736465370701
 20
538.93466652533175
 30
0.0
 40
15.0
 50
273.82255372927392
 51
0.0
  0
ARC
  5
8CC
  8
1外形線
 10
281.60736465369217
 20
544.26742577447817
 30
0.0
 40
15.0
 50
273.82255372927392
 51
335.59416845622218
  0
ARC
  5
8CD
  8
1外形線
 10
281.60736465370672
 20
535.45492577447794
 30
0.0
 40
15.0
 50
273.82255372927392
 51
0.0
  0
ARC
  5
8CE
  8
1外形線
 10
281.60736465370672
 20
535.99716652533152
 30
0.0
 40
15.0
 50
273.82255372927392
 51
0.0
  0
ARC
  5
8CF
  8
1外形線
 10
281.60736465370701
 20
536.92367577447749
 30
0.0
 40
15.0
 50
273.82255372927392
 51
0.0
  0
ARC
  5
8D0
  8
1外形線
 10
281.60736465366381
 20
542.79867577447794
 30
0.0
 40
15.0
 50
273.82255372927392
 51
0.0
  0
ARC
  5
8D1
  8
1外形線
 10
281.60736465370718
 20
541.8721665253322
 30
0.0
 40
15.0
 50
273.82255372927392
 51
0.0
  0
ARC
  5
8D2
  8
1外形線
 10
283.6073646537069
 20
543.81865718493657
 30
0.0
 40
13.0
 50
270.0
 51
0.0
  0
ARC
  5
8D3
  8
1外形線
 10
281.60736465370718
 20
541.32992577447749
 30
0.0
 40
15.0
 50
273.82255372927392
 51
0.0
  0
ARC
  5
8D4
  8
1外形線
 10
281.60736465370701
 20
539.86117577447715
 30
0.0
 40
15.0
 50
273.82255372927392
 51
0.0
  0
ARC
  5
8D5
  8
1外形線
 10
284.60736465370701
 20
546.15793908452508
 30
0.0
 40
10.0
 50
270.0
 51
0.0
  0
LINE
  5
8D6
  8
1外形線
 10
283.6073646537069
 20
530.81865718493668
 30
0.0
 11
274.6752217965643
 21
530.81865718493668
 31
0.0
  0
LINE
  5
8D7
  8
1外形線
 10
284.60736465370701
 20
536.1579390845252
 30
0.0
 11
274.60736465370701
 21
536.1579390845252
 31
0.0
  0
LINE
  5
8D8
  8
1外形線
 10
274.6073700485037
 20
536.1579390845252
 30
0.0
 11
274.6073700485037
 21
535.1579390845252
 31
0.0
  0
LINE
  5
8D9
  8
1外形線
 10
276.60736465370701
 20
530.76954622738231
 30
0.0
 11
274.56504322513541
 21
530.76954622738231
 31
0.0
  0
LINE
  5
8DA
  8
1外形線
 10
274.6073700485037
 20
535.1579390845252
 30
0.0
 11
279.6073700485037
 21
535.1579390845252
 31
0.0
  0
ARC
  5
8DB
  8
1外形線
 10
281.6073646536924
 20
545.73617577447658
 30
0.0
 40
15.0
 50
273.82255372927392
 51
276.01131170262818
  0
ARC
  5
8DC
  8
1外形線
 10
281.60736465373628
 20
580.50621164371421
 30
0.0
 40
15.0
 50
50.756485441023173
 51
86.177446270726094
  0
ARC
  5
8DD
  8
1外形線
 10
281.60736465370701
 20
585.45470239457165
 30
0.0
 40
15.0
 50
0.0
 51
86.177446270726094
  0
ARC
  5
8DE
  8
1外形線
 10
281.60736465370701
 20
586.38121164371773
 30
0.0
 40
15.0
 50
0.0
 51
86.177446270726094
  0
ARC
  5
8DF
  8
1外形線
 10
281.60736465373628
 20
589.8609523945704
 30
0.0
 40
15.0
 50
0.0
 51
86.177446270726094
  0
ARC
  5
8E0
  8
1外形線
 10
281.60736465370701
 20
589.31871164371637
 30
0.0
 40
15.0
 50
0.0
 51
86.177446270726094
  0
ARC
  5
8E1
  8
1外形線
 10
281.60736465370701
 20
588.392202394572
 30
0.0
 40
15.0
 50
0.0
 51
86.177446270726094
  0
ARC
  5
8E2
  8
1外形線
 10
281.60736465370701
 20
586.92345239457165
 30
0.0
 40
15.0
 50
0.0
 51
86.177446270726094
  0
ARC
  5
8E3
  8
1外形線
 10
281.60736465373628
 20
581.04845239456881
 30
0.0
 40
15.0
 50
24.4058315392579
 51
86.177446270726094
  0
ARC
  5
8E4
  8
1外形線
 10
281.60736465373628
 20
582.51720239457075
 30
0.0
 40
15.0
 50
0.0
 51
86.177446270726094
  0
ARC
  5
8E5
  8
1外形線
 10
281.60736465373611
 20
583.44371164371682
 30
0.0
 40
15.0
 50
0.0
 51
86.177446270726094
  0
ARC
  5
8E6
  8
1外形線
 10
281.60736465370701
 20
583.98595239457075
 30
0.0
 40
15.0
 50
0.0
 51
86.177446270726094
  0
ARC
  5
8E7
  8
1外形線
 10
283.6073646537069
 20
581.49722098411371
 30
0.0
 40
13.0
 50
0.0
 51
90.0
  0
ARC
  5
8E8
  8
1外形線
 10
284.60736465370701
 20
579.15793908452508
 30
0.0
 40
10.0
 50
0.0
 51
90.0
  0
LINE
  5
8E9
  8
1外形線
 10
274.60736465370718
 20
589.1579390845252
 30
0.0
 11
284.60736465370701
 21
589.1579390845252
 31
0.0
  0
LINE
  5
8EA
  8
1外形線
 10
274.6752217965643
 20
594.49722098411371
 30
0.0
 11
283.6073646537069
 21
594.49722098411371
 31
0.0
  0
LINE
  5
8EB
  8
1外形線
 10
276.60736465370701
 20
594.54633194166797
 30
0.0
 11
274.56504322513541
 21
594.54633194166797
 31
0.0
  0
LINE
  5
8EC
  8
1外形線
 10
274.6073700485037
 20
589.1579390845252
 30
0.0
 11
274.6073700485037
 21
590.1579390845252
 31
0.0
  0
LINE
  5
8ED
  8
1外形線
 10
274.6073700485037
 20
590.1579390845252
 30
0.0
 11
279.6073700485037
 21
590.1579390845252
 31
0.0
  0
ARC
  5
8EE
  8
1外形線
 10
281.6073646536924
 20
579.57970239457381
 30
0.0
 40
15.0
 50
83.988688297371723
 51
86.177446270726094
  0
LINE
  5
8EF
  8
1外形線
 10
394.00736465371398
 20
677.15793908452122
 30
0.0
 11
29.007364653714141
 21
677.15793908452122
 31
0.0
  0
LINE
  5
8F0
  8
1外形線
 10
394.00736465371398
 20
946.6579390845211
 30
0.0
 11
29.007364653714141
 21
946.6579390845211
 31
0.0
  0
LINE
  5
8F1
  8
1外形線
 10
29.007364653714141
 20
1197.1579390845211
 30
0.0
 11
394.00736465371398
 21
1197.1579390845211
 31
0.0
  0
ARC
  5
8F2
  8
1外形線
 10
227.607364653714
 20
1086.4579390845211
 30
0.0
 40
13.5
 50
270.0
 51
0.0
  0
ARC
  5
8F3
  8
1外形線
 10
227.60736465371409
 20
1119.4579390845211
 30
0.0
 40
13.5
 50
0.0
 51
90.0
  0
ARC
  5
8F4
  8
1外形線
 10
247.90736465371401
 20
828.1579390845211
 30
0.0
 40
13.199999999999999
 50
180.0
 51
270.0
  0
ARC
  5
8F5
  8
1外形線
 10
247.90736465371401
 20
828.45793908452106
 30
0.0
 40
10.0
 50
180.0
 51
270.0
  0
LINE
  5
8F6
  8
1外形線
 10
231.90736465371401
 20
803.95793908452117
 30
0.0
 11
245.90736465371401
 21
803.95793908452117
 31
0.0
  0
LINE
  5
8F7
  8
1外形線
 10
231.90736465371401
 20
803.25793908452101
 30
0.0
 11
245.20736465371411
 21
803.25793908452124
 31
0.0
  0
ARC
  5
8F8
  8
1外形線
 10
247.90736465371401
 20
861.45793908452106
 30
0.0
 40
10.0
 50
90.0
 51
180.0
  0
ARC
  5
8F9
  8
1外形線
 10
247.90736465371401
 20
861.75793908452113
 30
0.0
 40
13.199999999999999
 50
90.0
 51
180.0
  0
LINE
  5
8FA
  8
1外形線
 10
231.90736465371401
 20
886.6579390845211
 30
0.0
 11
245.20736465371411
 21
886.6579390845211
 31
0.0
  0
LINE
  5
8FB
  8
1外形線
 10
231.90736465371401
 20
885.95793908452117
 30
0.0
 11
245.90736465371401
 21
885.95793908452117
 31
0.0
  0
TEXT
  5
8FC
  8
1外形線
 10
79.007364786048811
 20
647.15794052218155
 30
0.0
 40
10.0
  1
SEN-100
  7
KANJI
  0
TEXT
  5
8FD
  8
1外形線
 10
79.007364786048811
 20
916.65794052218132
 30
0.0
 40
10.0
  1
SEN-77
  7
KANJI
  0
LINE
  5
8FE
  8
1外形線
 10
86.007364653714149
 20
616.15793908452531
 30
0.0
 11
130.00736465371409
 21
616.15793908452531
 31
0.0
  0
LINE
  5
8FF
  8
1外形線
 10
125.00736465371411
 20
721.93484872240901
 30
0.0
 11
85.007364653714149
 21
721.93484872240901
 31
0.0
  0
LINE
  5
900
  8
1外形線
 10
125.00736465371411
 20
714.10445931488482
 30
0.0
 11
85.007364653714149
 21
714.10445931488482
 31
0.0
  0
LINE
  5
901
  8
1外形線
 10
125.00736465371411
 20
708.95215739239404
 30
0.0
 11
85.007364653714149
 21
708.95215739239404
 31
0.0
  0
LINE
  5
902
  8
1外形線
 10
125.00736465371411
 20
755.76692844485228
 30
0.0
 11
85.007364653714149
 21
755.76692844485228
 31
0.0
  0
LINE
  5
903
  8
1外形線
 10
125.00736465371411
 20
764.59124353279549
 30
0.0
 11
85.007364653714149
 21
764.59124353279549
 31
0.0
  0
LINE
  5
904
  8
1外形線
 10
125.00736465371411
 20
770.48746236882835
 30
0.0
 11
85.007364653714149
 21
770.48746236882835
 31
0.0
  0
LINE
  5
905
  8
1外形線
 10
108.50736465371411
 20
883.67573328985054
 30
0.0
 11
119.50736465371411
 21
883.67573328985054
 31
0.0
  0
ARC
  5
906
  8
1外形線
 10
114.00736465371411
 20
877.95793908452117
 30
0.0
 40
5.5
 50
180.0
 51
0.0
  0
LINE
  5
907
  8
1外形線
 10
85.007364653714077
 20
869.05144364513865
 30
0.0
 11
125.00736465371411
 21
869.05144364513865
 31
0.0
  0
LINE
  5
908
  8
1外形線
 10
85.007364653714077
 20
884.20493777977265
 30
0.0
 11
125.00736465371411
 21
884.20493777977276
 31
0.0
  0
LINE
  5
909
  8
1外形線
 10
85.007364653714077
 20
885.95793908452117
 30
0.0
 11
125.00736465371411
 21
885.95793908452117
 31
0.0
  0
LINE
  5
90A
  8
1外形線
 10
108.50736465371411
 20
806.2401448791918
 30
0.0
 11
119.50736465371411
 21
806.2401448791918
 31
0.0
  0
ARC
  5
90B
  8
1外形線
 10
114.00736465371411
 20
811.95793908452117
 30
0.0
 40
5.5
 50
0.0
 51
180.0
  0
LINE
  5
90C
  8
1外形線
 10
79.007364653714149
 20
739.85793908452115
 30
0.0
 11
119.00736465371411
 21
739.85793908452115
 31
0.0
  0
LINE
  5
90D
  8
1外形線
 10
79.007364653714149
 20
707.15793908452122
 30
0.0
 11
137.00736465371409
 21
707.15793908452122
 31
0.0
  0
LINE
  5
90E
  8
1外形線
 10
85.007364653714149
 20
772.55793908452108
 30
0.0
 11
125.00736465371411
 21
772.55793908452108
 31
0.0
  0
LINE
  5
90F
  8
1外形線
 10
85.007364653714149
 20
820.86443452390358
 30
0.0
 11
125.00736465371411
 21
820.86443452390358
 31
0.0
  0
LINE
  5
910
  8
1外形線
 10
85.007364653714149
 20
805.71094038926969
 30
0.0
 11
125.00736465371411
 21
805.71094038926969
 31
0.0
  0
LINE
  5
911
  8
1外形線
 10
85.007364653714149
 20
803.95793908452117
 30
0.0
 11
125.00736465371411
 21
803.95793908452117
 31
0.0
  0
ARC
  5
912
  8
1外形線
 10
84.275313846158042
 20
615.15793908451803
 30
0.0
 40
2.0
 50
30.000000000301071
 51
93.437588607844546
  0
ARC
  5
913
  8
1外形線
 10
80.007364653714149
 20
616.15793908452383
 30
0.0
 40
1.0
 50
89.99999999992184
 51
180.0
  0
LINE
  5
914
  8
1外形線
 10
84.275313846158042
 20
617.15793908451803
 30
0.0
 11
80.00736465371574
 21
617.15793908452383
 31
0.0
  0
LINE
  5
915
  8
1外形線
 10
116.00736465371411
 20
614.44940213508801
 30
0.0
 11
86.007364653714149
 21
614.44940213508801
 31
0.0
  0
LINE
  5
916
  8
1外形線
 10
116.00736465371411
 20
611.1579390845252
 30
0.0
 11
116.00736465371411
 21
616.15793908452542
 31
0.0
  0
LINE
  5
917
  8
1外形線
 10
85.007364653714149
 20
772.85793908452115
 30
0.0
 11
85.007364653714149
 21
707.15793908452122
 31
0.0
  0
LINE
  5
918
  8
1外形線
 10
79.007364653714149
 20
772.25793908452124
 30
0.0
 11
79.007364653714149
 21
707.15793908452122
 31
0.0
  0
ARC
  5
919
  8
1外形線
 10
84.607364653714058
 20
772.85793908452115
 30
0.0
 40
0.4
 50
0.0
 51
90.0
  0
ARC
  5
91A
  8
1外形線
 10
80.007364653714149
 20
772.25793908452124
 30
0.0
 40
1.0
 50
90.0
 51
180.0
  0
LINE
  5
91B
  8
1外形線
 10
80.007364653714149
 20
773.25793908452124
 30
0.0
 11
84.607364653714058
 21
773.25793908452124
 31
0.0
  0
LINE
  5
91C
  8
1外形線
 10
79.007364653714149
 20
844.95793908452117
 30
0.0
 11
79.007364653714092
 21
885.65793908452099
 31
0.0
  0
LINE
  5
91D
  8
1外形線
 10
85.007364653714077
 20
886.25793908452101
 30
0.0
 11
85.007364653714149
 21
844.95793908452117
 31
0.0
  0
LINE
  5
91E
  8
1外形線
 10
85.007364653714077
 20
878.11063853576502
 30
0.0
 11
108.50736465371411
 21
878.11063853576525
 31
0.0
  0
LINE
  5
91F
  8
1外形線
 10
85.007364653714149
 20
811.8052396332771
 30
0.0
 11
108.50736465371411
 21
811.8052396332771
 31
0.0
  0
LINE
  5
920
  8
1外形線
 10
79.007364653714149
 20
844.95793908452117
 30
0.0
 11
79.007364653714149
 21
804.25793908452124
 31
0.0
  0
LINE
  5
921
  8
1外形線
 10
85.007364653714149
 20
803.6579390845211
 30
0.0
 11
85.007364653714149
 21
844.95793908452117
 31
0.0
  0
ARC
  5
922
  8
1外形線
 10
84.607364653714058
 20
803.6579390845211
 30
0.0
 40
0.4
 50
270.0
 51
0.0
  0
LINE
  5
923
  8
1外形線
 10
80.007364653714149
 20
803.25793908452124
 30
0.0
 11
84.607364653714058
 21
803.25793908452101
 31
0.0
  0
ARC
  5
924
  8
1外形線
 10
80.007364653714149
 20
804.25793908452124
 30
0.0
 40
1.0
 50
180.0
 51
270.0
  0
LINE
  5
925
  8
1外形線
 10
108.50736465371411
 20
811.95793908452117
 30
0.0
 11
108.50736465371411
 21
806.2401448791918
 31
0.0
  0
CIRCLE
  5
926
  8
1外形線
 10
114.00736465371411
 20
811.95793908452117
 30
0.0
 40
2.0
  0
LINE
  5
927
  8
1外形線
 10
108.50736465371411
 20
877.95793908452117
 30
0.0
 11
108.50736465371411
 21
883.67573328985054
 31
0.0
  0
CIRCLE
  5
928
  8
1外形線
 10
114.00736465371411
 20
877.95793908452117
 30
0.0
 40
2.0
  0
ARC
  5
929
  8
1外形線
 10
84.607364653714001
 20
886.25793908452101
 30
0.0
 40
0.4
 50
0.0
 51
90.0
  0
ARC
  5
92A
  8
1外形線
 10
80.007364653714077
 20
885.65793908452099
 30
0.0
 40
1.0
 50
90.0
 51
180.0
  0
LINE
  5
92B
  8
1外形線
 10
80.007364653714077
 20
886.6579390845211
 30
0.0
 11
84.607364653714001
 21
886.6579390845211
 31
0.0
  0
LINE
  5
92C
  8
1外形線
 10
134.0073646537216
 20
617.1579390845252
 30
0.0
 11
131.00736465370679
 21
617.15793908452531
 31
0.0
  0
LINE
  5
92D
  8
1外形線
 10
130.00736465371409
 20
614.44940213508801
 30
0.0
 11
125.00736465371411
 21
614.44940213508801
 31
0.0
  0
CIRCLE
  5
92E
  8
1外形線
 10
120.50736465371411
 20
611.1579390845252
 30
0.0
 40
1.7
  0
LINE
  5
92F
  8
1外形線
 10
125.00736465371411
 20
611.1579390845252
 30
0.0
 11
125.00736465371411
 21
616.15793908452531
 31
0.0
  0
ARC
  5
930
  8
1外形線
 10
131.00736465370679
 20
616.15793908452531
 30
0.0
 40
1.0
 50
83.074344960865531
 51
180.0
  0
LINE
  5
931
  8
1外形線
 10
135.00736465371409
 20
616.15793908452531
 30
0.0
 11
141.00736465371409
 21
613.64008194166809
 31
0.0
  0
ARC
  5
932
  8
1外形線
 10
134.0073646537214
 20
616.15793908452508
 30
0.0
 40
1.0
 50
0.0
 51
89.999999999993491
  0
LINE
  5
933
  8
1外形線
 10
144.50736465371409
 20
612.17133194166809
 30
0.0
 11
148.00736465371409
 21
610.70258194166809
 31
0.0
  0
LINE
  5
934
  8
1外形線
 10
144.50736465371409
 20
611.62909119081405
 30
0.0
 11
141.00736465371409
 21
613.09784119081405
 31
0.0
  0
LINE
  5
935
  8
1外形線
 10
151.00736465371409
 20
757.05793908452131
 30
0.0
 11
147.50736465371409
 21
759.52384817543032
 31
0.0
  0
LINE
  5
936
  8
1外形線
 10
129.00736465371409
 20
721.35793908452115
 30
0.0
 11
172.00736465371409
 21
721.35793908452115
 31
0.0
  0
LINE
  5
937
  8
1外形線
 10
129.00736465371409
 20
727.35793908452115
 30
0.0
 11
172.00736465371409
 21
727.35793908452115
 31
0.0
  0
LINE
  5
938
  8
1外形線
 10
129.00736465371409
 20
724.35793908452115
 30
0.0
 11
174.00736465371409
 21
724.35793908452115
 31
0.0
  0
LINE
  5
939
  8
1外形線
 10
147.50736465371409
 20
707.15793908452122
 30
0.0
 11
151.00736465371409
 21
707.15793908452122
 31
0.0
  0
LINE
  5
93A
  8
1外形線
 10
144.00736465371409
 20
727.35793908452115
 30
0.0
 11
144.00736465371409
 21
761.37812332812132
 31
0.0
  0
LINE
  5
93B
  8
1外形線
 10
147.50736465371409
 20
727.35793908452115
 30
0.0
 11
147.50736465371409
 21
758.91221423721208
 31
0.0
  0
LINE
  5
93C
  8
1外形線
 10
125.00736465371411
 20
772.85793908452115
 30
0.0
 11
125.00736465371411
 21
707.15793908452122
 31
0.0
  0
LINE
  5
93D
  8
1外形線
 10
129.00736465371409
 20
707.15793908452122
 30
0.0
 11
129.00736465371409
 21
772.85793908452115
 31
0.0
  0
LINE
  5
93E
  8
1外形線
 10
140.50736465371409
 20
727.35793908452115
 30
0.0
 11
140.50736465371429
 21
764.45566635724845
 31
0.0
  0
LINE
  5
93F
  8
1外形線
 10
137.00736465371409
 20
727.35793908452115
 30
0.0
 11
137.00736465371389
 21
766.92157544815768
 31
0.0
  0
ARC
  5
940
  8
1外形線
 10
129.00736465371409
 20
729.35793908452115
 30
0.0
 40
5.0
 50
180.0
 51
270.0
  0
ARC
  5
941
  8
1外形線
 10
119.00736465371411
 20
734.85793908452126
 30
0.0
 40
5.0
 50
0.0
 51
90.0
  0
LINE
  5
942
  8
1外形線
 10
124.00736465371411
 20
734.85793908452126
 30
0.0
 11
124.00736465371411
 21
729.35793908452115
 31
0.0
  0
LINE
  5
943
  8
1外形線
 10
140.50736465371409
 20
707.15793908452122
 30
0.0
 11
144.00736465371409
 21
707.15793908452122
 31
0.0
  0
LINE
  5
944
  8
1外形線
 10
137.00736465371409
 20
707.6579390845211
 30
0.0
 11
140.50736465371409
 21
707.6579390845211
 31
0.0
  0
LINE
  5
945
  8
1外形線
 10
137.00736465371409
 20
707.15793908452122
 30
0.0
 11
137.00736465371409
 21
721.35793908452115
 31
0.0
  0
LINE
  5
946
  8
1外形線
 10
140.50736465371409
 20
707.15793908452122
 30
0.0
 11
140.50736465371409
 21
721.35793908452115
 31
0.0
  0
LINE
  5
947
  8
1外形線
 10
144.00736465371409
 20
707.6579390845211
 30
0.0
 11
147.50736465371409
 21
707.6579390845211
 31
0.0
  0
LINE
  5
948
  8
1外形線
 10
144.00736465371409
 20
707.15793908452122
 30
0.0
 11
144.00736465371409
 21
721.35793908452115
 31
0.0
  0
LINE
  5
949
  8
1外形線
 10
147.50736465371409
 20
707.15793908452122
 30
0.0
 11
147.50736465371409
 21
721.35793908452115
 31
0.0
  0
LINE
  5
94A
  8
1外形線
 10
137.00736465371389
 20
766.92157544815768
 30
0.0
 11
129.00736465371409
 21
772.55793908452108
 31
0.0
  0
ARC
  5
94B
  8
1外形線
 10
125.407364653714
 20
772.85793908452115
 30
0.0
 40
0.4
 50
90.0
 51
180.0
  0
ARC
  5
94C
  8
1外形線
 10
128.6073646537142
 20
772.85793908452115
 30
0.0
 40
0.4
 50
0.0
 51
90.0
  0
LINE
  5
94D
  8
1外形線
 10
128.6073646537142
 20
773.25793908452124
 30
0.0
 11
125.407364653714
 21
773.25793908452124
 31
0.0
  0
LINE
  5
94E
  8
1外形線
 10
144.00736465371409
 20
761.98975726633932
 30
0.0
 11
140.50736465371409
 21
764.45566635724845
 31
0.0
  0
LINE
  5
94F
  8
1外形線
 10
140.50736465371409
 20
763.84403241903044
 30
0.0
 11
137.00736465371389
 21
766.30994150993956
 31
0.0
  0
LINE
  5
950
  8
1外形線
 10
144.00736465371409
 20
761.37812332812143
 30
0.0
 11
144.00736465371409
 21
761.98975726633932
 31
0.0
  0
LINE
  5
951
  8
1外形線
 10
147.50736465371409
 20
758.91221423721208
 30
0.0
 11
147.50736465371409
 21
759.52384817543032
 31
0.0
  0
LINE
  5
952
  8
1外形線
 10
147.50736465371409
 20
758.91221423721208
 30
0.0
 11
144.00736465371409
 21
761.37812332812132
 31
0.0
  0
LINE
  5
953
  8
1外形線
 10
161.50736465371429
 20
727.35793908452115
 30
0.0
 11
161.50736465371429
 21
749.04857787357582
 31
0.0
  0
LINE
  5
954
  8
1外形線
 10
158.00736465371389
 20
727.35793908452115
 30
0.0
 11
158.00736465371389
 21
751.51448696448495
 31
0.0
  0
LINE
  5
955
  8
1外形線
 10
165.00736465371409
 20
727.35793908452115
 30
0.0
 11
165.00736465371409
 21
747.19430272088493
 31
0.0
  0
LINE
  5
956
  8
1外形線
 10
154.50736465371409
 20
727.35793908452115
 30
0.0
 11
154.50736465371409
 21
753.98039605539395
 31
0.0
  0
LINE
  5
957
  8
1外形線
 10
151.00736465371409
 20
727.35793908452115
 30
0.0
 11
151.00736465371401
 21
756.44630514630308
 31
0.0
  0
LINE
  5
958
  8
1外形線
 10
161.50736465371409
 20
707.15793908452122
 30
0.0
 11
165.00736465371409
 21
707.15793908452122
 31
0.0
  0
LINE
  5
959
  8
1外形線
 10
154.50736465371409
 20
707.15793908452122
 30
0.0
 11
158.00736465371409
 21
707.15793908452122
 31
0.0
  0
LINE
  5
95A
  8
1外形線
 10
151.00736465371409
 20
707.6579390845211
 30
0.0
 11
154.50736465371409
 21
707.6579390845211
 31
0.0
  0
LINE
  5
95B
  8
1外形線
 10
151.00736465371409
 20
707.15793908452122
 30
0.0
 11
151.00736465371409
 21
721.35793908452115
 31
0.0
  0
LINE
  5
95C
  8
1外形線
 10
154.50736465371409
 20
707.15793908452122
 30
0.0
 11
154.50736465371409
 21
721.35793908452115
 31
0.0
  0
LINE
  5
95D
  8
1外形線
 10
158.00736465371409
 20
707.6579390845211
 30
0.0
 11
161.50736465371409
 21
707.6579390845211
 31
0.0
  0
LINE
  5
95E
  8
1外形線
 10
158.00736465371409
 20
707.15793908452122
 30
0.0
 11
158.00736465371409
 21
721.35793908452115
 31
0.0
  0
LINE
  5
95F
  8
1外形線
 10
161.50736465371409
 20
707.15793908452122
 30
0.0
 11
161.50736465371429
 21
721.35793908452115
 31
0.0
  0
LINE
  5
960
  8
1外形線
 10
172.00736465371409
 20
707.15793908452122
 30
0.0
 11
172.00736465371409
 21
741.55793908452119
 31
0.0
  0
LINE
  5
961
  8
1外形線
 10
172.00736465371409
 20
707.15793908452122
 30
0.0
 11
172.00736465371409
 21
741.55793908452119
 31
0.0
  0
LINE
  5
962
  8
1外形線
 10
174.00736465371409
 20
707.15793908452122
 30
0.0
 11
174.00736465371409
 21
741.55793908452119
 31
0.0
  0
LINE
  5
963
  8
1外形線
 10
168.50736465371409
 20
707.15793908452122
 30
0.0
 11
174.00736465371409
 21
707.15793908452122
 31
0.0
  0
LINE
  5
964
  8
1外形線
 10
165.00736465371409
 20
707.6579390845211
 30
0.0
 11
168.50736465371409
 21
707.6579390845211
 31
0.0
  0
LINE
  5
965
  8
1外形線
 10
165.00736465371409
 20
707.15793908452122
 30
0.0
 11
165.00736465371409
 21
721.35793908452115
 31
0.0
  0
LINE
  5
966
  8
1外形線
 10
168.50736465371409
 20
707.15793908452122
 30
0.0
 11
168.50736465371409
 21
721.35793908452115
 31
0.0
  0
ARC
  5
967
  8
1外形線
 10
173.00736465371409
 20
741.55793908452119
 30
0.0
 40
1.0
 50
0.0
 51
180.0
  0
LINE
  5
968
  8
1外形線
 10
168.50736465371409
 20
744.11675969175758
 30
0.0
 11
165.00736465371409
 21
746.58266878266681
 31
0.0
  0
LINE
  5
969
  8
1外形線
 10
172.1898822205832
 20
742.13389261695443
 30
0.0
 11
168.50736465371409
 21
744.72839362997581
 31
0.0
  0
LINE
  5
96A
  8
1外形線
 10
168.50736465371409
 20
727.35793908452115
 30
0.0
 11
168.50736465371409
 21
744.72839362997581
 31
0.0
  0
LINE
  5
96B
  8
1外形線
 10
161.50736465371429
 20
749.66021181179394
 30
0.0
 11
165.00736465371409
 21
747.19430272088493
 31
0.0
  0
LINE
  5
96C
  8
1外形線
 10
158.00736465371389
 20
752.12612090270318
 30
0.0
 11
154.50736465371409
 21
754.59202999361207
 31
0.0
  0
LINE
  5
96D
  8
1外形線
 10
151.00736465371409
 20
756.44630514630308
 30
0.0
 11
151.00736465371409
 21
757.05793908452131
 31
0.0
  0
LINE
  5
96E
  8
1外形線
 10
154.50736465371409
 20
753.98039605539395
 30
0.0
 11
151.00736465371409
 21
756.44630514630308
 31
0.0
  0
LINE
  5
96F
  8
1外形線
 10
154.50736465371429
 20
753.98039605539395
 30
0.0
 11
154.50736465371409
 21
754.59202999361207
 31
0.0
  0
LINE
  5
970
  8
1外形線
 10
161.50736465371429
 20
749.04857787357582
 30
0.0
 11
161.50736465371429
 21
749.66021181179394
 31
0.0
  0
LINE
  5
971
  8
1外形線
 10
158.00736465371389
 20
751.51448696448506
 30
0.0
 11
158.00736465371389
 21
752.12612090270318
 31
0.0
  0
LINE
  5
972
  8
1外形線
 10
161.50736465371429
 20
749.04857787357582
 30
0.0
 11
158.00736465371389
 21
751.51448696448506
 31
0.0
  0
LINE
  5
973
  8
1外形線
 10
172.04260083247641
 20
874.22105649031323
 30
0.0
 11
129.00736465371409
 21
885.95793908452117
 31
0.0
  0
LINE
  5
974
  8
1外形線
 10
129.00736465371409
 20
844.95793908452117
 30
0.0
 11
129.00736465371409
 21
886.25793908452101
 31
0.0
  0
LINE
  5
975
  8
1外形線
 10
125.00736465371411
 20
886.25793908452101
 30
0.0
 11
125.00736465371411
 21
844.95793908452117
 31
0.0
  0
LINE
  5
976
  8
1外形線
 10
172.04260083247641
 20
815.69482167872911
 30
0.0
 11
129.00736465371409
 21
803.95793908452117
 31
0.0
  0
LINE
  5
977
  8
1外形線
 10
129.00736465371409
 20
844.95793908452117
 30
0.0
 11
129.00736465371409
 21
803.6579390845211
 31
0.0
  0
LINE
  5
978
  8
1外形線
 10
125.00736465371411
 20
803.6579390845211
 30
0.0
 11
125.00736465371411
 21
844.95793908452117
 31
0.0
  0
LINE
  5
979
  8
1外形線
 10
137.00736465371389
 20
806.1397572663393
 30
0.0
 11
137.00736465371389
 21
844.95793908452117
 31
0.0
  0
LINE
  5
97A
  8
1外形線
 10
140.50736465371409
 20
807.0943027208848
 30
0.0
 11
140.50736465371409
 21
844.95793908452117
 31
0.0
  0
LINE
  5
97B
  8
1外形線
 10
144.00736465371409
 20
808.04884817543029
 30
0.0
 11
144.00736465371409
 21
844.95793908452117
 31
0.0
  0
LINE
  5
97C
  8
1外形線
 10
147.50736465371409
 20
809.00339362997568
 30
0.0
 11
147.50736465371409
 21
844.95793908452117
 31
0.0
  0
ARC
  5
97D
  8
1外形線
 10
125.407364653714
 20
803.6579390845211
 30
0.0
 40
0.4
 50
180.0
 51
270.0
  0
LINE
  5
97E
  8
1外形線
 10
119.50736465371411
 20
811.95793908452117
 30
0.0
 11
119.50736465371411
 21
806.2401448791918
 31
0.0
  0
LINE
  5
97F
  8
1外形線
 10
119.50736465371411
 20
811.8052396332771
 30
0.0
 11
125.00736465371411
 21
811.8052396332771
 31
0.0
  0
ARC
  5
980
  8
1外形線
 10
128.607364653714
 20
803.6579390845211
 30
0.0
 40
0.4
 50
270.0
 51
0.0
  0
LINE
  5
981
  8
1外形線
 10
128.607364653714
 20
803.25793908452124
 30
0.0
 11
125.407364653714
 21
803.25793908452124
 31
0.0
  0
LINE
  5
982
  8
1外形線
 10
140.50736465371409
 20
807.61256427774799
 30
0.0
 11
137.00736465371389
 21
806.6580188232025
 31
0.0
  0
LINE
  5
983
  8
1外形線
 10
147.50736465371409
 20
809.52165518683887
 30
0.0
 11
144.00736465371409
 21
808.56710973229349
 31
0.0
  0
LINE
  5
984
  8
1外形線
 10
119.50736465371411
 20
877.95793908452117
 30
0.0
 11
119.50736465371411
 21
883.67573328985054
 31
0.0
  0
LINE
  5
985
  8
1外形線
 10
119.50736465371411
 20
878.11063853576525
 30
0.0
 11
125.00736465371411
 21
878.11063853576525
 31
0.0
  0
LINE
  5
986
  8
1外形線
 10
137.00736465371389
 20
883.77612090270304
 30
0.0
 11
137.00736465371389
 21
844.95793908452117
 31
0.0
  0
LINE
  5
987
  8
1外形線
 10
140.50736465371409
 20
882.82157544815755
 30
0.0
 11
140.50736465371409
 21
844.95793908452117
 31
0.0
  0
LINE
  5
988
  8
1外形線
 10
144.00736465371409
 20
881.86702999361205
 30
0.0
 11
144.00736465371409
 21
844.95793908452117
 31
0.0
  0
LINE
  5
989
  8
1外形線
 10
147.50736465371409
 20
880.91248453906655
 30
0.0
 11
147.50736465371409
 21
844.95793908452117
 31
0.0
  0
LINE
  5
98A
  8
1外形線
 10
140.50736465371409
 20
882.30331389129435
 30
0.0
 11
137.00736465371389
 21
883.25785934583985
 31
0.0
  0
LINE
  5
98B
  8
1外形線
 10
147.50736465371409
 20
880.39422298220336
 30
0.0
 11
144.00736465371409
 21
881.34876843674886
 31
0.0
  0
LINE
  5
98C
  8
1外形線
 10
172.00736465371409
 20
815.95793908452106
 30
0.0
 11
172.00736465371409
 21
844.95793908452117
 31
0.0
  0
LINE
  5
98D
  8
1外形線
 10
172.00736465371409
 20
815.95793908452106
 30
0.0
 11
172.00736465371409
 21
844.95793908452117
 31
0.0
  0
LINE
  5
98E
  8
1外形線
 10
151.00736465371409
 20
809.95793908452117
 30
0.0
 11
151.00736465371409
 21
844.95793908452117
 31
0.0
  0
LINE
  5
98F
  8
1外形線
 10
154.50736465371409
 20
810.91248453906667
 30
0.0
 11
154.50736465371409
 21
844.95793908452117
 31
0.0
  0
LINE
  5
990
  8
1外形線
 10
158.00736465371341
 20
811.86702999361205
 30
0.0
 11
158.00736465371341
 21
844.95793908452117
 31
0.0
  0
LINE
  5
991
  8
1外形線
 10
161.50736465371429
 20
812.82157544815743
 30
0.0
 11
161.50736465371429
 21
844.95793908452117
 31
0.0
  0
LINE
  5
992
  8
1外形線
 10
165.00736465371409
 20
813.77612090270293
 30
0.0
 11
165.00736465371409
 21
844.95793908452117
 31
0.0
  0
LINE
  5
993
  8
1外形線
 10
168.50736465371409
 20
814.73066635724842
 30
0.0
 11
168.50736465371409
 21
844.95793908452117
 31
0.0
  0
LINE
  5
994
  8
1外形線
 10
174.00736465371409
 20
815.95793908452106
 30
0.0
 11
174.00736465371409
 21
844.95793908452117
 31
0.0
  0
LINE
  5
995
  8
1外形線
 10
154.50736465371409
 20
811.43074609592986
 30
0.0
 11
151.00736465371409
 21
810.47620064138437
 31
0.0
  0
LINE
  5
996
  8
1外形線
 10
161.50736465371429
 20
813.33983700502085
 30
0.0
 11
158.00736465371369
 21
812.38529155047524
 31
0.0
  0
ARC
  5
997
  8
1外形線
 10
173.00736465371409
 20
815.95793908452106
 30
0.0
 40
1.0
 50
180.0
 51
0.0
  0
LINE
  5
998
  8
1外形線
 10
168.50736465371409
 20
815.24892791411185
 30
0.0
 11
165.00736465371409
 21
814.29438245956612
 31
0.0
  0
LINE
  5
999
  8
1外形線
 10
151.00736465371409
 20
879.95793908452106
 30
0.0
 11
151.00736465371409
 21
844.95793908452117
 31
0.0
  0
LINE
  5
99A
  8
1外形線
 10
154.50736465371409
 20
879.00339362997579
 30
0.0
 11
154.50736465371409
 21
844.95793908452117
 31
0.0
  0
LINE
  5
99B
  8
1外形線
 10
158.00736465371341
 20
878.04884817543041
 30
0.0
 11
158.00736465371341
 21
844.95793908452117
 31
0.0
  0
LINE
  5
99C
  8
1外形線
 10
161.50736465371429
 20
877.09430272088468
 30
0.0
 11
161.50736465371429
 21
844.95793908452117
 31
0.0
  0
LINE
  5
99D
  8
1外形線
 10
154.50736465371409
 20
878.48513207311237
 30
0.0
 11
151.00736465371409
 21
879.43967752765786
 31
0.0
  0
LINE
  5
99E
  8
1外形線
 10
161.50736465371429
 20
876.57604116402149
 30
0.0
 11
158.00736465371369
 21
877.5305866185671
 31
0.0
  0
LINE
  5
99F
  8
1外形線
 10
172.00736465371409
 20
873.95793908452106
 30
0.0
 11
172.00736465371409
 21
844.95793908452117
 31
0.0
  0
LINE
  5
9A0
  8
1外形線
 10
172.00736465371409
 20
873.95793908452106
 30
0.0
 11
172.00736465371409
 21
844.95793908452117
 31
0.0
  0
LINE
  5
9A1
  8
1外形線
 10
165.00736465371409
 20
876.13975726633919
 30
0.0
 11
165.00736465371409
 21
844.95793908452117
 31
0.0
  0
LINE
  5
9A2
  8
1外形線
 10
168.50736465371409
 20
875.18521181179392
 30
0.0
 11
168.50736465371409
 21
844.95793908452117
 31
0.0
  0
LINE
  5
9A3
  8
1外形線
 10
174.00736465371409
 20
873.95793908452106
 30
0.0
 11
174.00736465371409
 21
844.95793908452117
 31
0.0
  0
ARC
  5
9A4
  8
1外形線
 10
173.00736465371409
 20
873.95793908452106
 30
0.0
 40
1.0
 50
0.0
 51
180.0
  0
LINE
  5
9A5
  8
1外形線
 10
168.50736465371409
 20
874.66695025493073
 30
0.0
 11
165.00736465371409
 21
875.62149570947599
 31
0.0
  0
ARC
  5
9A6
  8
1外形線
 10
125.407364653714
 20
886.25793908452101
 30
0.0
 40
0.4
 50
90.0
 51
180.0
  0
ARC
  5
9A7
  8
1外形線
 10
128.607364653714
 20
886.25793908452101
 30
0.0
 40
0.4
 50
0.0
 51
90.0
  0
LINE
  5
9A8
  8
1外形線
 10
128.607364653714
 20
886.6579390845211
 30
0.0
 11
125.407364653714
 21
886.6579390845211
 31
0.0
  0
ARC
  5
9A9
  8
1外形線
 10
231.90736465371401
 20
858.75793908452124
 30
0.0
 40
27.899999999999999
 50
90.0
 51
180.0
  0
ARC
  5
9AA
  8
1外形線
 10
231.90736465371401
 20
858.75793908452124
 30
0.0
 40
27.199999999999999
 50
90.0
 51
180.0
  0
ARC
  5
9AB
  8
1外形線
 10
236.40963738098679
 20
859.22157544815775
 30
0.0
 40
23.600000000000001
 50
121.2209325479617
 51
180.0
  0
ARC
  5
9AC
  8
1外形線
 10
235.54372829007769
 20
858.57612090270311
 30
0.0
 40
25.199999999999999
 50
120.6443810624538
 51
180.0
  0
ARC
  5
9AD
  8
1外形線
 10
236.40963738098679
 20
830.69430272088471
 30
0.0
 40
23.600000000000001
 50
180.0
 51
238.77906745203819
  0
ARC
  5
9AE
  8
1外形線
 10
231.90736465371401
 20
831.15793908452099
 30
0.0
 40
27.199999999999999
 50
180.0
 51
270.0
  0
ARC
  5
9AF
  8
1外形線
 10
231.90736465371401
 20
831.15793908452099
 30
0.0
 40
27.899999999999999
 50
180.0
 51
270.0
  0
ARC
  5
9B0
  8
1外形線
 10
235.54372829007769
 20
831.33975726633923
 30
0.0
 40
25.199999999999999
 50
180.0
 51
239.35561893754601
  0
LINE
  5
9B1
  8
1外形線
 10
210.34372829007771
 20
831.33975726633935
 30
0.0
 11
210.34372829007771
 21
858.57612090270311
 31
0.0
  0
LINE
  5
9B2
  8
1外形線
 10
204.70736465371419
 20
844.95793908452117
 30
0.0
 11
204.70736465371419
 21
831.15793908452099
 31
0.0
  0
LINE
  5
9B3
  8
1外形線
 10
204.00736465371409
 20
844.95793908452117
 30
0.0
 11
204.00736465371409
 21
831.15793908452099
 31
0.0
  0
LINE
  5
9B4
  8
1外形線
 10
204.00736465371409
 20
844.95793908452117
 30
0.0
 11
204.00736465371409
 21
858.75793908452124
 31
0.0
  0
LINE
  5
9B5
  8
1外形線
 10
204.70736465371419
 20
844.95793908452117
 30
0.0
 11
204.70736465371419
 21
858.75793908452124
 31
0.0
  0
LINE
  5
9B6
  8
1外形線
 10
217.7414555628049
 20
830.20339362997549
 30
0.0
 11
217.7414555628049
 21
859.71248453906662
 31
0.0
  0
LINE
  5
9B7
  8
1外形線
 10
215.27554647189589
 20
830.84884817543025
 30
0.0
 11
215.27554647189589
 21
859.0670299936121
 31
0.0
  0
LINE
  5
9B8
  8
1外形線
 10
212.80963738098669
 20
830.69430272088471
 30
0.0
 11
212.80963738098691
 21
859.22157544815775
 31
0.0
  0
LINE
  5
9B9
  8
1外形線
 10
230.0710010173504
 20
829.37612090270295
 30
0.0
 11
230.0710010173504
 21
860.53975726633939
 31
0.0
  0
LINE
  5
9BA
  8
1外形線
 10
227.60509192644139
 20
829.22157544815764
 30
0.0
 11
227.60509192644139
 21
860.69430272088471
 31
0.0
  0
LINE
  5
9BB
  8
1外形線
 10
225.13918283553221
 20
829.86702999361194
 30
0.0
 11
225.13918283553221
 21
860.04884817543041
 31
0.0
  0
LINE
  5
9BC
  8
1外形線
 10
222.6732737446232
 20
829.71248453906662
 30
0.0
 11
222.6732737446232
 21
860.20339362997584
 31
0.0
  0
LINE
  5
9BD
  8
1外形線
 10
220.20736465371391
 20
830.35793908452115
 30
0.0
 11
220.20736465371411
 21
859.55793908452119
 31
0.0
  0
LINE
  5
9BE
  8
1外形線
 10
232.5369101082596
 20
828.73066635724854
 30
0.0
 11
232.53691010825941
 21
861.75793908452113
 31
0.0
  0
LINE
  5
9BF
  8
1外形線
 10
234.70736465371419
 20
861.75793908452113
 30
0.0
 11
234.70736465371419
 21
828.1579390845211
 31
0.0
  0
LINE
  5
9C0
  8
1外形線
 10
237.90736465371401
 20
861.45793908452106
 30
0.0
 11
237.90736465371401
 21
828.45793908452106
 31
0.0
  0
ARC
  5
9C1
  8
1外形線
 10
238.941455562805
 20
830.20339362997572
 30
0.0
 40
21.199999999999999
 50
180.0
 51
237.14017117331019
  0
ARC
  5
9C2
  8
1外形線
 10
243.13918283553221
 20
829.86702999361194
 30
0.0
 40
18.0
 50
180.0
 51
233.85847036343009
  0
ARC
  5
9C3
  8
1外形線
 10
244.00509192644131
 20
829.22157544815764
 30
0.0
 40
16.399999999999991
 50
180.0
 51
232.54794094371121
  0
ARC
  5
9C4
  8
1外形線
 10
240.607364653714
 20
830.35793908452115
 30
0.0
 40
20.399999999999999
 50
180.0
 51
236.09033073151031
  0
ARC
  5
9C5
  8
1外形線
 10
241.4732737446231
 20
829.71248453906662
 30
0.0
 40
18.800000000000001
 50
180.0
 51
235.1160998896238
  0
ARC
  5
9C6
  8
1外形線
 10
238.0755464718959
 20
830.84884817543025
 30
0.0
 40
22.800000000000001
 50
180.0
 51
237.88270263406531
  0
ARC
  5
9C7
  8
1外形線
 10
245.67100101735051
 20
829.37612090270295
 30
0.0
 40
15.6
 50
180.0
 51
230.99618239655899
  0
ARC
  5
9C8
  8
1外形線
 10
246.5369101082596
 20
828.73066635724854
 30
0.0
 40
14.0
 50
180.0
 51
229.17184255175391
  0
ARC
  5
9C9
  8
1外形線
 10
238.941455562805
 20
859.71248453906662
 30
0.0
 40
21.199999999999999
 50
122.85982882668959
 51
180.0
  0
ARC
  5
9CA
  8
1外形線
 10
244.00509192644131
 20
860.69430272088471
 30
0.0
 40
16.399999999999991
 50
127.4520590562889
 51
180.0
  0
ARC
  5
9CB
  8
1外形線
 10
243.13918283553221
 20
860.04884817543041
 30
0.0
 40
18.0
 50
126.1415296365698
 51
180.0
  0
ARC
  5
9CC
  8
1外形線
 10
241.4732737446231
 20
860.20339362997584
 30
0.0
 40
18.800000000000001
 50
124.883900110376
 51
180.0
  0
ARC
  5
9CD
  8
1外形線
 10
240.607364653714
 20
859.55793908452119
 30
0.0
 40
20.399999999999999
 50
123.90966926848959
 51
180.0
  0
ARC
  5
9CE
  8
1外形線
 10
238.0755464718959
 20
859.0670299936121
 30
0.0
 40
22.800000000000001
 50
122.1172973659346
 51
180.0
  0
ARC
  5
9CF
  8
1外形線
 10
245.67100101735051
 20
860.53975726633939
 30
0.0
 40
15.6
 50
129.00381760344089
 51
180.0
  0
ARC
  5
9D0
  8
1外形線
 10
246.5369101082596
 20
861.18521181179369
 30
0.0
 40
14.0
 50
130.828157448246
 51
180.0
  0
TEXT
  5
9D1
  8
1外形線
 10
79.007364786048811
 20
1167.157940522181
 30
0.0
 40
10.0
  1
SEN-66
  7
KANJI
  0
LINE
  5
9D2
  8
1外形線
 10
120.00736465371411
 20
978.27169299528191
 30
0.0
 11
85.007364653714077
 21
978.27169299528191
 31
0.0
  0
LINE
  5
9D3
  8
1外形線
 10
120.00736465371411
 20
982.86727532336658
 30
0.0
 11
85.007364653714077
 21
982.86727532336658
 31
0.0
  0
LINE
  5
9D4
  8
1外形線
 10
120.00736465371411
 20
989.74505031838123
 30
0.0
 11
85.007364653714077
 21
989.74505031838123
 31
0.0
  0
LINE
  5
9D5
  8
1外形線
 10
120.00736465371401
 20
1023.118878147756
 30
0.0
 11
85.007364653714077
 21
1023.118878147756
 31
0.0
  0
LINE
  5
9D6
  8
1外形線
 10
120.00736465371401
 20
1030.969923189235
 30
0.0
 11
85.007364653714077
 21
1030.969923189235
 31
0.0
  0
LINE
  5
9D7
  8
1外形線
 10
120.00736465371401
 20
1036.215823771294
 30
0.0
 11
85.007364653714077
 21
1036.215823771294
 31
0.0
  0
LINE
  5
9D8
  8
1外形線
 10
85.007364653714077
 20
1084.3970000212851
 30
0.0
 11
120.00736465371411
 21
1084.3970000212851
 31
0.0
  0
LINE
  5
9D9
  8
1外形線
 10
85.007364653713978
 20
1071.3000543977471
 30
0.0
 11
120.00736465371411
 21
1071.3000543977471
 31
0.0
  0
LINE
  5
9DA
  8
1外形線
 10
85.007364653714077
 20
1121.5188781477559
 30
0.0
 11
120.00736465371411
 21
1121.5188781477559
 31
0.0
  0
LINE
  5
9DB
  8
1外形線
 10
85.007364653713978
 20
1134.6158237712939
 30
0.0
 11
120.00736465371411
 21
1134.6158237712939
 31
0.0
  0
LINE
  5
9DC
  8
1外形線
 10
85.007364653714149
 20
1069.4579390845211
 30
0.0
 11
120.00736465371411
 21
1069.4579390845211
 31
0.0
  0
ARC
  5
9DD
  8
1外形線
 10
114.00736465371411
 20
1077.4579390845211
 30
0.0
 40
5.5
 50
0.0
 51
180.0
  0
LINE
  5
9DE
  8
1外形線
 10
108.50736465371411
 20
1071.7401448791909
 30
0.0
 11
119.50736465371411
 21
1071.7401448791909
 31
0.0
  0
LINE
  5
9DF
  8
1外形線
 10
108.50736465371411
 20
1134.1757332898501
 30
0.0
 11
119.50736465371411
 21
1134.1757332898501
 31
0.0
  0
ARC
  5
9E0
  8
1外形線
 10
114.00736465371411
 20
1128.4579390845211
 30
0.0
 40
5.5
 50
180.0
 51
0.0
  0
LINE
  5
9E1
  8
1外形線
 10
85.007364653714149
 20
1136.4579390845211
 30
0.0
 11
120.00736465371411
 21
1136.4579390845211
 31
0.0
  0
LINE
  5
9E2
  8
1外形線
 10
85.007364653714077
 20
1038.057939084521
 30
0.0
 11
120.00736465371401
 21
1038.057939084521
 31
0.0
  0
ARC
  5
9E3
  8
1外形線
 10
114.00736465371411
 20
1002.357939084521
 30
0.0
 40
5.0
 50
0.0
 51
90.0
  0
LINE
  5
9E4
  8
1外形線
 10
79.007364653714149
 20
976.65793908452099
 30
0.0
 11
124.00736465371411
 21
976.65793908452099
 31
0.0
  0
LINE
  5
9E5
  8
1外形線
 10
79.007364653714092
 20
1007.357939084521
 30
0.0
 11
114.00736465371411
 21
1007.357939084521
 31
0.0
  0
LINE
  5
9E6
  8
1外形線
 10
85.007364653714077
 20
1038.3579390845209
 30
0.0
 11
85.007364653714149
 21
976.65793908452099
 31
0.0
  0
LINE
  5
9E7
  8
1外形線
 10
79.007364653714092
 20
1037.757939084521
 30
0.0
 11
79.007364653714149
 21
976.65793908452099
 31
0.0
  0
ARC
  5
9E8
  8
1外形線
 10
84.607364653714058
 20
1038.3579390845209
 30
0.0
 40
0.4
 50
0.0
 51
90.0
  0
ARC
  5
9E9
  8
1外形線
 10
80.007364653714149
 20
1037.757939084521
 30
0.0
 40
1.0
 50
90.0
 51
180.0
  0
LINE
  5
9EA
  8
1外形線
 10
80.007364653714149
 20
1038.757939084521
 30
0.0
 11
84.607364653714058
 21
1038.757939084521
 31
0.0
  0
LINE
  5
9EB
  8
1外形線
 10
85.007364653713978
 20
1076.5459549798061
 30
0.0
 11
108.50736465371421
 21
1076.5459549798061
 31
0.0
  0
LINE
  5
9EC
  8
1外形線
 10
85.007364653713978
 20
1129.3699231892349
 30
0.0
 11
108.50736465371421
 21
1129.369923189236
 31
0.0
  0
LINE
  5
9ED
  8
1外形線
 10
79.007364653714149
 20
1102.9579390845199
 30
0.0
 11
79.007364653713978
 21
1136.1579390845211
 31
0.0
  0
LINE
  5
9EE
  8
1外形線
 10
85.007364653713978
 20
1136.757939084521
 30
0.0
 11
85.007364653714149
 21
1102.9579390845199
 31
0.0
  0
LINE
  5
9EF
  8
1外形線
 10
79.007364653714149
 20
1102.9579390845211
 30
0.0
 11
79.007364653713978
 21
1069.757939084521
 31
0.0
  0
LINE
  5
9F0
  8
1外形線
 10
85.007364653713978
 20
1069.1579390845211
 30
0.0
 11
85.007364653714149
 21
1102.9579390845211
 31
0.0
  0
ARC
  5
9F1
  8
1外形線
 10
84.607364653714001
 20
1069.1579390845211
 30
0.0
 40
0.4
 50
270.0
 51
0.0
  0
ARC
  5
9F2
  8
1外形線
 10
80.007364653714077
 20
1069.757939084521
 30
0.0
 40
1.0
 50
180.0
 51
270.0
  0
LINE
  5
9F3
  8
1外形線
 10
80.007364653714077
 20
1068.757939084521
 30
0.0
 11
84.607364653714001
 21
1068.757939084521
 31
0.0
  0
ARC
  5
9F4
  8
1外形線
 10
84.607364653714001
 20
1136.757939084521
 30
0.0
 40
0.4
 50
0.0
 51
90.0
  0
ARC
  5
9F5
  8
1外形線
 10
80.007364653714077
 20
1136.1579390845211
 30
0.0
 40
1.0
 50
90.0
 51
180.0
  0
LINE
  5
9F6
  8
1外形線
 10
80.007364653714077
 20
1137.1579390845211
 30
0.0
 11
84.607364653714001
 21
1137.1579390845211
 31
0.0
  0
LINE
  5
9F7
  8
1外形線
 10
108.50736465371411
 20
1077.4579390845211
 30
0.0
 11
108.50736465371411
 21
1071.7401448791909
 31
0.0
  0
CIRCLE
  5
9F8
  8
1外形線
 10
114.00736465371411
 20
1077.4579390845211
 30
0.0
 40
2.0
  0
LINE
  5
9F9
  8
1外形線
 10
108.50736465371411
 20
1128.4579390845211
 30
0.0
 11
108.50736465371411
 21
1134.1757332898501
 31
0.0
  0
CIRCLE
  5
9FA
  8
1外形線
 10
114.00736465371411
 20
1128.4579390845211
 30
0.0
 40
2.0
  0
ARC
  5
9FB
  8
1外形線
 10
203.95736465371391
 20
1092.3416522281491
 30
0.0
 40
22.0
 50
180.0
 51
270.0
  0
ARC
  5
9FC
  8
1外形線
 10
203.90736465371421
 20
1093.65793908452
 30
0.0
 40
24.199999999999989
 50
180.0
 51
270.0
  0
ARC
  5
9FD
  8
1外形線
 10
203.90736465371421
 20
1093.65793908452
 30
0.0
 40
24.899999999999991
 50
180.0
 51
270.0
  0
ARC
  5
9FE
  8
1外形線
 10
203.90736465371421
 20
1112.257939084521
 30
0.0
 40
24.899999999999991
 50
90.0
 51
180.0
  0
ARC
  5
9FF
  8
1外形線
 10
203.90736465371421
 20
1112.257939084521
 30
0.0
 40
24.199999999999989
 50
90.0
 51
180.0
  0
ARC
  5
A00
  8
1外形線
 10
203.95736465371391
 20
1113.574225940893
 30
0.0
 40
22.0
 50
90.0
 51
180.0
  0
ARC
  5
A01
  8
1外形線
 10
148.00736465371421
 20
1011.057939084521
 30
0.0
 40
1.0
 50
0.0
 51
180.0
  0
LINE
  5
A02
  8
1外形線
 10
124.00736465371411
 20
993.85793908452115
 30
0.0
 11
149.00736465371421
 21
993.85793908452115
 31
0.0
  0
LINE
  5
A03
  8
1外形線
 10
143.50736465371421
 20
976.65793908452099
 30
0.0
 11
149.00736465371421
 21
976.65793908452099
 31
0.0
  0
LINE
  5
A04
  8
1外形線
 10
136.5073646537146
 20
1023.9954390845199
 30
0.0
 11
140.00736465371421
 21
1020.057939084521
 31
0.0
  0
LINE
  5
A05
  8
1外形線
 10
136.5073646537144
 20
996.85793908452115
 30
0.0
 11
136.5073646537146
 21
1023.9954390845199
 31
0.0
  0
LINE
  5
A06
  8
1外形線
 10
126.00736465371421
 20
996.85793908452115
 30
0.0
 11
126.00736465371411
 21
1035.807939084521
 31
0.0
  0
LINE
  5
A07
  8
1外形線
 10
129.50736465371421
 20
996.85793908452115
 30
0.0
 11
129.50736465371421
 21
1031.870439084521
 31
0.0
  0
LINE
  5
A08
  8
1外形線
 10
133.00736465371401
 20
996.85793908452115
 30
0.0
 11
133.00736465371409
 21
1027.932939084521
 31
0.0
  0
LINE
  5
A09
  8
1外形線
 10
120.00736465371401
 20
1038.3579390845209
 30
0.0
 11
120.00736465371411
 21
976.65793908452099
 31
0.0
  0
LINE
  5
A0A
  8
1外形線
 10
124.00736465371411
 20
976.65793908452099
 30
0.0
 11
124.00736465371421
 21
1038.3579390845209
 31
0.0
  0
LINE
  5
A0B
  8
1外形線
 10
124.00736465371411
 20
996.85793908452115
 30
0.0
 11
147.00736465371421
 21
996.85793908452115
 31
0.0
  0
LINE
  5
A0C
  8
1外形線
 10
124.00736465371411
 20
990.85793908452115
 30
0.0
 11
147.00736465371421
 21
990.85793908452115
 31
0.0
  0
LINE
  5
A0D
  8
1外形線
 10
129.50736465371421
 20
976.65793908452099
 30
0.0
 11
133.00736465371421
 21
976.65793908452099
 31
0.0
  0
LINE
  5
A0E
  8
1外形線
 10
119.00736465371411
 20
1002.357939084521
 30
0.0
 11
119.00736465371411
 21
998.85793908452115
 31
0.0
  0
LINE
  5
A0F
  8
1外形線
 10
124.00736465371421
 20
976.65793908452099
 30
0.0
 11
126.00736465371421
 21
976.65793908452099
 31
0.0
  0
ARC
  5
A10
  8
1外形線
 10
124.00736465371411
 20
998.85793908452115
 30
0.0
 40
5.0
 50
180.0
 51
270.0
  0
LINE
  5
A11
  8
1外形線
 10
126.00736465371421
 20
977.1579390845211
 30
0.0
 11
129.50736465371421
 21
977.1579390845211
 31
0.0
  0
LINE
  5
A12
  8
1外形線
 10
126.00736465371421
 20
976.65793908452099
 30
0.0
 11
126.00736465371421
 21
990.85793908452115
 31
0.0
  0
LINE
  5
A13
  8
1外形線
 10
129.50736465371421
 20
976.65793908452099
 30
0.0
 11
129.50736465371421
 21
990.85793908452115
 31
0.0
  0
LINE
  5
A14
  8
1外形線
 10
140.00736465371421
 20
996.85793908452115
 30
0.0
 11
140.00736465371421
 21
1020.057939084521
 31
0.0
  0
LINE
  5
A15
  8
1外形線
 10
143.50736465371421
 20
996.85793908452115
 30
0.0
 11
143.50736465371421
 21
1016.120439084521
 31
0.0
  0
LINE
  5
A16
  8
1外形線
 10
147.00736465371421
 20
976.65793908452099
 30
0.0
 11
147.00736465371421
 21
1011.057939084521
 31
0.0
  0
LINE
  5
A17
  8
1外形線
 10
147.00736465371421
 20
976.65793908452099
 30
0.0
 11
147.00736465371421
 21
1011.057939084521
 31
0.0
  0
LINE
  5
A18
  8
1外形線
 10
140.00736465371421
 20
977.1579390845211
 30
0.0
 11
143.50736465371421
 21
977.1579390845211
 31
0.0
  0
LINE
  5
A19
  8
1外形線
 10
133.00736465371421
 20
977.1579390845211
 30
0.0
 11
136.50736465371421
 21
977.1579390845211
 31
0.0
  0
LINE
  5
A1A
  8
1外形線
 10
136.50736465371421
 20
976.65793908452099
 30
0.0
 11
140.00736465371421
 21
976.65793908452099
 31
0.0
  0
LINE
  5
A1B
  8
1外形線
 10
140.00736465371421
 20
976.65793908452099
 30
0.0
 11
140.00736465371421
 21
990.85793908452115
 31
0.0
  0
LINE
  5
A1C
  8
1外形線
 10
133.00736465371421
 20
976.65793908452099
 30
0.0
 11
133.00736465371421
 21
990.85793908452115
 31
0.0
  0
LINE
  5
A1D
  8
1外形線
 10
136.50736465371421
 20
976.65793908452099
 30
0.0
 11
136.5073646537144
 21
990.85793908452115
 31
0.0
  0
LINE
  5
A1E
  8
1外形線
 10
143.50736465371421
 20
976.65793908452099
 30
0.0
 11
143.50736465371421
 21
990.85793908452115
 31
0.0
  0
LINE
  5
A1F
  8
1外形線
 10
140.00736465371421
 20
1019.245131450452
 30
0.0
 11
143.50736465371421
 21
1015.307631450452
 31
0.0
  0
LINE
  5
A20
  8
1外形線
 10
143.50736465371421
 20
1016.120439084521
 30
0.0
 11
147.34300081488439
 21
1011.805348403205
 31
0.0
  0
LINE
  5
A21
  8
1外形線
 10
129.50736465371421
 20
1031.870439084521
 30
0.0
 11
133.00736465371421
 21
1027.932939084521
 31
0.0
  0
LINE
  5
A22
  8
1外形線
 10
124.00736465371421
 20
1038.057939084521
 30
0.0
 11
126.00736465371411
 21
1035.807939084521
 31
0.0
  0
ARC
  5
A23
  8
1外形線
 10
123.6073646537142
 20
1038.3579390845209
 30
0.0
 40
0.4
 50
0.0
 51
90.0
  0
ARC
  5
A24
  8
1外形線
 10
120.407364653714
 20
1038.3579390845209
 30
0.0
 40
0.4
 50
90.0
 51
180.0
  0
LINE
  5
A25
  8
1外形線
 10
123.6073646537142
 20
1038.757939084521
 30
0.0
 11
120.407364653714
 21
1038.757939084521
 31
0.0
  0
LINE
  5
A26
  8
1外形線
 10
126.00736465371411
 20
1034.9951314504519
 30
0.0
 11
129.50736465371421
 21
1031.0576314504519
 31
0.0
  0
LINE
  5
A27
  8
1外形線
 10
133.00736465371409
 20
1027.1201314504519
 30
0.0
 11
136.5073646537146
 21
1023.182631450452
 31
0.0
  0
LINE
  5
A28
  8
1外形線
 10
149.00736465371421
 20
976.65793908452099
 30
0.0
 11
149.00736465371421
 21
1011.057939084521
 31
0.0
  0
ARC
  5
A29
  8
1外形線
 10
148.00736465371409
 20
1073.9579390845211
 30
0.0
 40
1.0
 50
180.0
 51
0.0
  0
ARC
  5
A2A
  8
1外形線
 10
148.00736465371409
 20
1131.9579390845211
 30
0.0
 40
1.0
 50
0.0
 51
180.0
  0
LINE
  5
A2B
  8
1外形線
 10
147.00736465371409
 20
1131.9579390845211
 30
0.0
 11
147.00736465371409
 21
1102.9579390845211
 31
0.0
  0
LINE
  5
A2C
  8
1外形線
 10
147.00736465371409
 20
1131.9579390845211
 30
0.0
 11
147.00736465371409
 21
1102.9579390845211
 31
0.0
  0
LINE
  5
A2D
  8
1外形線
 10
140.00736465371409
 20
1133.4579390845211
 30
0.0
 11
140.00736465371409
 21
1102.9579390845211
 31
0.0
  0
LINE
  5
A2E
  8
1外形線
 10
143.50736465371401
 20
1132.8016890845211
 30
0.0
 11
143.50736465371409
 21
1102.9579390845211
 31
0.0
  0
LINE
  5
A2F
  8
1外形線
 10
126.00736465371411
 20
1136.0829390845211
 30
0.0
 11
126.00736465371411
 21
1102.9579390845211
 31
0.0
  0
LINE
  5
A30
  8
1外形線
 10
129.50736465371409
 20
1135.4266890845211
 30
0.0
 11
129.50736465371409
 21
1102.9579390845211
 31
0.0
  0
LINE
  5
A31
  8
1外形線
 10
133.00736465371341
 20
1134.7704390845211
 30
0.0
 11
133.00736465371341
 21
1102.9579390845211
 31
0.0
  0
LINE
  5
A32
  8
1外形線
 10
136.50736465371429
 20
1134.1141890845211
 30
0.0
 11
136.50736465371429
 21
1102.9579390845211
 31
0.0
  0
LINE
  5
A33
  8
1外形線
 10
124.00736465371411
 20
1102.9579390845211
 30
0.0
 11
124.00736465371401
 21
1136.757939084521
 31
0.0
  0
LINE
  5
A34
  8
1外形線
 10
120.00736465371411
 20
1136.757939084521
 30
0.0
 11
120.00736465371411
 21
1102.9579390845211
 31
0.0
  0
LINE
  5
A35
  8
1外形線
 10
147.0244924667798
 20
1073.7736505494711
 30
0.0
 11
124.00736465371411
 21
1069.4579390845211
 31
0.0
  0
LINE
  5
A36
  8
1外形線
 10
120.00736465371411
 20
1069.1579390845211
 30
0.0
 11
120.00736465371411
 21
1102.9579390845211
 31
0.0
  0
LINE
  5
A37
  8
1外形線
 10
124.00736465371411
 20
1102.9579390845211
 30
0.0
 11
124.00736465371401
 21
1069.1579390845211
 31
0.0
  0
LINE
  5
A38
  8
1外形線
 10
126.00736465371411
 20
1069.8329390845211
 30
0.0
 11
126.00736465371411
 21
1102.9579390845211
 31
0.0
  0
LINE
  5
A39
  8
1外形線
 10
129.50736465371409
 20
1070.4891890845211
 30
0.0
 11
129.50736465371409
 21
1102.9579390845211
 31
0.0
  0
LINE
  5
A3A
  8
1外形線
 10
119.50736465371411
 20
1076.5459549798061
 30
0.0
 11
120.00736465371411
 21
1076.5459549798061
 31
0.0
  0
ARC
  5
A3B
  8
1外形線
 10
123.607364653714
 20
1069.1579390845211
 30
0.0
 40
0.4
 50
270.0
 51
0.0
  0
ARC
  5
A3C
  8
1外形線
 10
120.407364653714
 20
1069.1579390845211
 30
0.0
 40
0.4
 50
180.0
 51
270.0
  0
LINE
  5
A3D
  8
1外形線
 10
123.607364653714
 20
1068.757939084521
 30
0.0
 11
120.407364653714
 21
1068.757939084521
 31
0.0
  0
LINE
  5
A3E
  8
1外形線
 10
119.50736465371411
 20
1077.4579390845211
 30
0.0
 11
119.50736465371411
 21
1071.7401448791909
 31
0.0
  0
LINE
  5
A3F
  8
1外形線
 10
129.50736465371409
 20
1070.9979022281491
 30
0.0
 11
126.00736465371411
 21
1070.3416522281491
 31
0.0
  0
LINE
  5
A40
  8
1外形線
 10
147.00736465371409
 20
1073.9579390845211
 30
0.0
 11
147.00736465371409
 21
1102.9579390845211
 31
0.0
  0
LINE
  5
A41
  8
1外形線
 10
147.00736465371409
 20
1073.9579390845211
 30
0.0
 11
147.00736465371409
 21
1102.9579390845211
 31
0.0
  0
LINE
  5
A42
  8
1外形線
 10
133.00736465371341
 20
1071.1454390845199
 30
0.0
 11
133.00736465371341
 21
1102.9579390845211
 31
0.0
  0
LINE
  5
A43
  8
1外形線
 10
136.50736465371429
 20
1071.8016890845211
 30
0.0
 11
136.50736465371429
 21
1102.9579390845211
 31
0.0
  0
LINE
  5
A44
  8
1外形線
 10
140.00736465371409
 20
1072.4579390845211
 30
0.0
 11
140.00736465371409
 21
1102.9579390845211
 31
0.0
  0
LINE
  5
A45
  8
1外形線
 10
143.50736465371401
 20
1073.1141890845211
 30
0.0
 11
143.50736465371409
 21
1102.9579390845211
 31
0.0
  0
LINE
  5
A46
  8
1外形線
 10
143.50736465371389
 20
1073.6229022281491
 30
0.0
 11
140.00736465371409
 21
1072.9666522281491
 31
0.0
  0
LINE
  5
A47
  8
1外形線
 10
136.50736465371429
 20
1072.3104022281491
 30
0.0
 11
133.00736465371349
 21
1071.6541522281491
 31
0.0
  0
LINE
  5
A48
  8
1外形線
 10
147.0244924667798
 20
1132.142227619571
 30
0.0
 11
124.00736465371411
 21
1136.4579390845211
 31
0.0
  0
LINE
  5
A49
  8
1外形線
 10
119.50736465371411
 20
1129.369923189236
 30
0.0
 11
120.00736465371411
 21
1129.3699231892349
 31
0.0
  0
ARC
  5
A4A
  8
1外形線
 10
123.607364653714
 20
1136.757939084521
 30
0.0
 40
0.4
 50
0.0
 51
90.0
  0
ARC
  5
A4B
  8
1外形線
 10
120.407364653714
 20
1136.757939084521
 30
0.0
 40
0.4
 50
90.0
 51
180.0
  0
LINE
  5
A4C
  8
1外形線
 10
123.607364653714
 20
1137.1579390845211
 30
0.0
 11
120.407364653714
 21
1137.1579390845211
 31
0.0
  0
LINE
  5
A4D
  8
1外形線
 10
119.50736465371411
 20
1128.4579390845211
 30
0.0
 11
119.50736465371411
 21
1134.1757332898501
 31
0.0
  0
LINE
  5
A4E
  8
1外形線
 10
129.50736465371409
 20
1134.9179759408919
 30
0.0
 11
126.00736465371411
 21
1135.574225940893
 31
0.0
  0
LINE
  5
A4F
  8
1外形線
 10
143.50736465371389
 20
1132.292975940893
 30
0.0
 11
140.00736465371409
 21
1132.949225940893
 31
0.0
  0
LINE
  5
A50
  8
1外形線
 10
136.50736465371429
 20
1133.605475940893
 30
0.0
 11
133.00736465371349
 21
1134.261725940893
 31
0.0
  0
LINE
  5
A51
  8
1外形線
 10
149.00736465371409
 20
1131.9579390845211
 30
0.0
 11
149.00736465371409
 21
1102.9579390845211
 31
0.0
  0
LINE
  5
A52
  8
1外形線
 10
149.00736465371409
 20
1073.9579390845211
 30
0.0
 11
149.00736465371409
 21
1102.9579390845211
 31
0.0
  0
LINE
  5
A53
  8
1外形線
 10
179.00736465371409
 20
1102.9579390845211
 30
0.0
 11
179.00736465371421
 21
1093.65793908452
 31
0.0
  0
LINE
  5
A54
  8
1外形線
 10
179.70736465371419
 20
1102.9579390845211
 30
0.0
 11
179.70736465371419
 21
1093.65793908452
 31
0.0
  0
LINE
  5
A55
  8
1外形線
 10
179.70736465371419
 20
1102.9579390845211
 30
0.0
 11
179.70736465371419
 21
1112.257939084521
 31
0.0
  0
LINE
  5
A56
  8
1外形線
 10
179.00736465371409
 20
1102.9579390845211
 30
0.0
 11
179.00736465371421
 21
1112.257939084521
 31
0.0
  0
ARC
  5
A57
  8
1外形線
 10
219.90736465371401
 20
1090.6579390845211
 30
0.0
 40
21.199999999999999
 50
270.0
 51
309.10756395173968
  0
ARC
  5
A58
  8
1外形線
 10
207.83236465371391
 20
1089.6541522281491
 30
0.0
 40
18.0
 50
180.0
 51
270.0
  0
ARC
  5
A59
  8
1外形線
 10
205.89486465371419
 20
1090.9979022281491
 30
0.0
 40
20.0
 50
180.0
 51
270.0
  0
ARC
  5
A5A
  8
1外形線
 10
219.20736465371391
 20
1090.6579390845211
 30
0.0
 40
21.899999999999991
 50
270.0
 51
313.0396663472772
  0
LINE
  5
A5B
  8
1外形線
 10
203.90736465371441
 20
1137.1579390845211
 30
0.0
 11
219.20736465371419
 21
1137.1579390845211
 31
0.0
  0
LINE
  5
A5C
  8
1外形線
 10
203.90736465371441
 20
1136.4579390845211
 30
0.0
 11
219.90736465371421
 21
1136.4579390845211
 31
0.0
  0
ARC
  5
A5D
  8
1外形線
 10
218.9073646537141
 20
1119.4579390845211
 30
0.0
 40
10.0
 50
90.0
 51
180.0
  0
ARC
  5
A5E
  8
1外形線
 10
215.64486465371391
 20
1118.292975940893
 30
0.0
 40
14.0
 50
93.998031422875783
 51
180.0
  0
ARC
  5
A5F
  8
1外形線
 10
218.90736465371401
 20
1086.1579390845211
 30
0.0
 40
13.199999999999999
 50
180.0
 51
270.0
  0
ARC
  5
A60
  8
1外形線
 10
218.90736465371401
 20
1086.4579390845211
 30
0.0
 40
10.0
 50
180.0
 51
270.0
  0
ARC
  5
A61
  8
1外形線
 10
211.70736465371391
 20
1086.9666522281491
 30
0.0
 40
14.0
 50
180.0
 51
270.0
  0
ARC
  5
A62
  8
1外形線
 10
215.64486465371391
 20
1087.6229022281491
 30
0.0
 40
14.0
 50
180.0
 51
266.00196857712422
  0
LINE
  5
A63
  8
1外形線
 10
203.90736465371441
 20
1068.7579390845201
 30
0.0
 11
219.20736465371419
 21
1068.757939084521
 31
0.0
  0
LINE
  5
A64
  8
1外形線
 10
203.90736465371441
 20
1069.4579390845199
 30
0.0
 11
219.90736465371421
 21
1069.4579390845211
 31
0.0
  0
ARC
  5
A65
  8
1外形線
 10
218.9073646537141
 20
1119.757939084521
 30
0.0
 40
13.199999999999999
 50
90.0
 51
180.0
  0
ARC
  5
A66
  8
1外形線
 10
211.707364653714
 20
1118.949225940893
 30
0.0
 40
14.0
 50
90.0
 51
180.0
  0
LINE
  5
A67
  8
1外形線
 10
205.70736465371431
 20
1119.757939084521
 30
0.0
 11
205.70736465371431
 21
1102.9579390845211
 31
0.0
  0
LINE
  5
A68
  8
1外形線
 10
208.9073646537141
 20
1119.4579390845211
 30
0.0
 11
208.90736465371421
 21
1102.9579390845199
 31
0.0
  0
LINE
  5
A69
  8
1外形線
 10
201.6448646537138
 20
1118.292975940893
 30
0.0
 11
201.6448646537138
 21
1102.9579390845211
 31
0.0
  0
LINE
  5
A6A
  8
1外形線
 10
197.70736465371391
 20
1118.949225940893
 30
0.0
 11
197.70736465371391
 21
1102.9579390845211
 31
0.0
  0
LINE
  5
A6B
  8
1外形線
 10
193.76986465371439
 20
1117.605475940893
 30
0.0
 11
193.76986465371439
 21
1102.9579390845211
 31
0.0
  0
LINE
  5
A6C
  8
1外形線
 10
189.832364653714
 20
1116.261725940893
 30
0.0
 11
189.832364653714
 21
1102.9579390845211
 31
0.0
  0
LINE
  5
A6D
  8
1外形線
 10
185.89486465371411
 20
1114.917975940893
 30
0.0
 11
185.89486465371411
 21
1102.9579390845211
 31
0.0
  0
ARC
  5
A6E
  8
1外形線
 10
209.76986465371439
 20
1088.3104022281491
 30
0.0
 40
16.0
 50
180.0
 51
270.0
  0
LINE
  5
A6F
  8
1外形線
 10
185.89486465371411
 20
1090.9979022281491
 30
0.0
 11
185.89486465371411
 21
1102.9579390845211
 31
0.0
  0
LINE
  5
A70
  8
1外形線
 10
189.832364653714
 20
1089.6541522281491
 30
0.0
 11
189.832364653714
 21
1102.9579390845211
 31
0.0
  0
LINE
  5
A71
  8
1外形線
 10
193.76986465371439
 20
1088.3104022281491
 30
0.0
 11
193.76986465371439
 21
1102.9579390845211
 31
0.0
  0
LINE
  5
A72
  8
1外形線
 10
181.95736465371391
 20
1092.3416522281491
 30
0.0
 11
181.95736465371391
 21
1102.9579390845211
 31
0.0
  0
LINE
  5
A73
  8
1外形線
 10
181.95736465371391
 20
1113.574225940893
 30
0.0
 11
181.95736465371391
 21
1102.9579390845211
 31
0.0
  0
LINE
  5
A74
  8
1外形線
 10
197.70736465371391
 20
1086.9666522281491
 30
0.0
 11
197.70736465371391
 21
1102.9579390845211
 31
0.0
  0
LINE
  5
A75
  8
1外形線
 10
201.6448646537138
 20
1087.6229022281491
 30
0.0
 11
201.6448646537138
 21
1102.9579390845211
 31
0.0
  0
LINE
  5
A76
  8
1外形線
 10
208.9073646537141
 20
1086.4579390845211
 30
0.0
 11
208.90736465371421
 21
1102.9579390845211
 31
0.0
  0
LINE
  5
A77
  8
1外形線
 10
205.70736465371431
 20
1086.1579390845211
 30
0.0
 11
205.70736465371431
 21
1102.9579390845211
 31
0.0
  0
ARC
  5
A78
  8
1外形線
 10
205.89486465371419
 20
1114.917975940893
 30
0.0
 40
20.0
 50
90.0
 51
180.0
  0
ARC
  5
A79
  8
1外形線
 10
207.832364653714
 20
1116.261725940893
 30
0.0
 40
18.0
 50
90.0
 51
180.0
  0
ARC
  5
A7A
  8
1外形線
 10
209.76986465371439
 20
1117.605475940893
 30
0.0
 40
16.0
 50
90.0
 51
180.0
  0
LINE
  5
A7B
  8
1外形線
 10
238.9073646537141
 20
1102.9579390845199
 30
0.0
 11
238.9073646537141
 21
1119.4579390845211
 31
0.0
  0
LINE
  5
A7C
  8
1外形線
 10
241.107364653714
 20
1119.4579390845211
 30
0.0
 11
241.10736465371409
 21
1102.9579390845199
 31
0.0
  0
LINE
  5
A7D
  8
1外形線
 10
228.9073646537141
 20
1076.4579390845211
 30
0.0
 11
218.9073646537141
 21
1076.4579390845211
 31
0.0
  0
LINE
  5
A7E
  8
1外形線
 10
227.60736465371409
 20
1072.9579390845211
 30
0.0
 11
218.9073646537141
 21
1072.9579390845211
 31
0.0
  0
LINE
  5
A7F
  8
1外形線
 10
218.9073646537141
 20
1075.267189470974
 30
0.0
 11
223.9073646537141
 21
1075.267189470974
 31
0.0
  0
LINE
  5
A80
  8
1外形線
 10
218.9073646537141
 20
1075.267189470974
 30
0.0
 11
218.9073646537141
 21
1076.4579390845211
 31
0.0
  0
LINE
  5
A81
  8
1外形線
 10
226.9073646537141
 20
1070.646942107858
 30
0.0
 11
226.9073646537141
 21
1072.9579390845211
 31
0.0
  0
LINE
  5
A82
  8
1外形線
 10
220.90736465371401
 20
1069.4815371238469
 30
0.0
 11
220.9073646537141
 21
1072.9579390845211
 31
0.0
  0
LINE
  5
A83
  8
1外形線
 10
223.9073646537141
 20
1069.8387171970439
 30
0.0
 11
223.9073646537141
 21
1075.267189470974
 31
0.0
  0
LINE
  5
A84
  8
1外形線
 10
241.107364653714
 20
1086.4579390845211
 30
0.0
 11
241.10736465371409
 21
1102.9579390845199
 31
0.0
  0
LINE
  5
A85
  8
1外形線
 10
238.9073646537141
 20
1102.9579390845199
 30
0.0
 11
238.9073646537141
 21
1086.4579390845211
 31
0.0
  0
ARC
  5
A86
  8
1外形線
 10
228.9073646537139
 20
1086.4579390845211
 30
0.0
 40
10.0
 50
270.0
 51
0.0
  0
LINE
  5
A87
  8
1外形線
 10
227.60736465371409
 20
1132.9579390845211
 30
0.0
 11
218.9073646537141
 21
1132.9579390845211
 31
0.0
  0
LINE
  5
A88
  8
1外形線
 10
228.9073646537141
 20
1129.4579390845211
 30
0.0
 11
218.9073646537141
 21
1129.4579390845211
 31
0.0
  0
ARC
  5
A89
  8
1外形線
 10
219.20736465371391
 20
1115.257939084521
 30
0.0
 40
21.899999999999991
 50
46.96033365272276
 51
90.0
  0
ARC
  5
A8A
  8
1外形線
 10
219.90736465371401
 20
1115.257939084521
 30
0.0
 40
21.199999999999999
 50
50.89243604826013
 51
90.0
  0
LINE
  5
A8B
  8
1外形線
 10
218.9073646537141
 20
1130.648688698067
 30
0.0
 11
223.9073646537141
 21
1130.648688698067
 31
0.0
  0
LINE
  5
A8C
  8
1外形線
 10
218.9073646537141
 20
1130.648688698067
 30
0.0
 11
218.9073646537141
 21
1129.4579390845211
 31
0.0
  0
LINE
  5
A8D
  8
1外形線
 10
226.9073646537141
 20
1135.268936061183
 30
0.0
 11
226.9073646537141
 21
1132.9579390845211
 31
0.0
  0
LINE
  5
A8E
  8
1外形線
 10
223.9073646537141
 20
1136.077160971998
 30
0.0
 11
223.9073646537141
 21
1130.648688698067
 31
0.0
  0
LINE
  5
A8F
  8
1外形線
 10
220.90736465371401
 20
1136.4343410451941
 30
0.0
 11
220.9073646537141
 21
1132.9579390845211
 31
0.0
  0
ARC
  5
A90
  8
1外形線
 10
228.9073646537141
 20
1119.4579390845211
 30
0.0
 40
10.0
 50
0.0
 51
90.0
  0
ARC
  5
A91
  8
1外形線
 10
272.307364653707
 20
591.85793908452524
 30
0.0
 40
24.300000000000001
 50
79.807568424627391
 51
90.0
  0
LINE
  5
A92
  8
1外形線
 10
276.60736465370701
 20
609.23383194166809
 30
0.0
 11
256.50254322513541
 21
609.23383194166809
 31
0.0
  0
LINE
  5
A93
  8
1外形線
 10
276.60736465370701
 20
613.64008194166809
 30
0.0
 11
251.08589322513549
 21
613.64008194166809
 31
0.0
  0
LINE
  5
A94
  8
1外形線
 10
276.60736465370701
 20
613.09784119081405
 30
0.0
 11
251.4387644217806
 21
613.09784119081382
 31
0.0
  0
LINE
  5
A95
  8
1外形線
 10
276.60736465370701
 20
612.17133194166809
 30
0.0
 11
252.89004322513551
 21
612.17133194166809
 31
0.0
  0
LINE
  5
A96
  8
1外形線
 10
276.60736465370701
 20
610.70258194166809
 30
0.0
 11
254.69629322513561
 21
610.70258194166809
 31
0.0
  0
LINE
  5
A97
  8
1外形線
 10
276.60736465370701
 20
610.16034119081382
 30
0.0
 11
255.0512644217803
 21
610.16034119081382
 31
0.0
  0
LINE
  5
A98
  8
1外形線
 10
271.307364653707
 20
617.15793908452486
 30
0.0
 11
249.307364653707
 21
617.15793908452486
 31
0.0
  0
LINE
  5
A99
  8
1外形線
 10
272.307364653707
 20
616.15793908452508
 30
0.0
 11
249.307364653707
 21
616.15793908452508
 31
0.0
  0
ARC
  5
A9A
  8
1外形線
 10
281.60736465375089
 20
598.67345239456824
 30
0.0
 40
15.0
 50
83.991045752653847
 51
86.177446270726094
  0
ARC
  5
A9B
  8
1外形線
 10
281.60736465375089
 20
598.13121164371432
 30
0.0
 40
15.0
 50
78.59650690796424
 51
86.177446270726094
  0
ARC
  5
A9C
  8
1外形線
 10
281.60736465375089
 20
597.20470239456824
 30
0.0
 40
15.0
 50
68.808099500156445
 51
86.177446270726094
  0
LINE
  5
A9D
  8
1外形線
 10
252.90736465371401
 20
884.9234306614336
 30
0.0
 11
252.90736465371401
 21
872.64868869806753
 31
0.0
  0
ARC
  5
A9E
  8
1外形線
 10
245.90736465371401
 20
861.75793908452135
 30
0.0
 40
24.199999999999989
 50
0.0
 51
90.0
  0
ARC
  5
A9F
  8
1外形線
 10
245.20736465371411
 20
861.75793908452135
 30
0.0
 40
24.899999999999999
 50
0.0
 51
90.0
  0
LINE
  5
AA0
  8
1外形線
 10
249.90736465371401
 20
885.62507129599578
 30
0.0
 11
249.90736465371401
 21
874.95793908452106
 31
0.0
  0
ARC
  5
AA1
  8
1外形線
 10
245.20736465371411
 20
828.1579390845211
 30
0.0
 40
24.899999999999999
 50
270.0
 51
0.0
  0
ARC
  5
AA2
  8
1外形線
 10
245.90736465371401
 20
828.1579390845211
 30
0.0
 40
24.199999999999989
 50
270.0
 51
0.0
  0
LINE
  5
AA3
  8
1外形線
 10
267.90736465371401
 20
828.45793908452106
 30
0.0
 11
267.90736465371401
 21
861.45793908452106
 31
0.0
  0
LINE
  5
AA4
  8
1外形線
 10
270.107364653714
 20
828.1579390845211
 30
0.0
 11
270.107364653714
 21
844.95793908452117
 31
0.0
  0
ARC
  5
AA5
  8
1外形線
 10
257.9073646537139
 20
828.45793908452106
 30
0.0
 40
10.0
 50
270.0
 51
0.0
  0
ARC
  5
AA6
  8
1外形線
 10
256.607364653714
 20
828.45793908452106
 30
0.0
 40
13.5
 50
270.0
 51
0.0
  0
LINE
  5
AA7
  8
1外形線
 10
252.90736465371401
 20
804.99244750760874
 30
0.0
 11
252.90736465371401
 21
817.26718947097493
 31
0.0
  0
LINE
  5
AA8
  8
1外形線
 10
252.90736465371401
 20
804.99244750760874
 30
0.0
 11
252.90736465371401
 21
817.26718947097493
 31
0.0
  0
LINE
  5
AA9
  8
1外形線
 10
247.90736465371421
 20
814.95793908452106
 30
0.0
 11
256.607364653714
 21
814.95793908452106
 31
0.0
  0
LINE
  5
AAA
  8
1外形線
 10
249.90736465371401
 20
804.29080687304645
 30
0.0
 11
249.90736465371401
 21
814.95793908452106
 31
0.0
  0
LINE
  5
AAB
  8
1外形線
 10
255.9073646537139
 20
806.12069787787266
 30
0.0
 11
255.9073646537139
 21
814.95793908452106
 31
0.0
  0
LINE
  5
AAC
  8
1外形線
 10
247.90736465371401
 20
817.26718947097493
 30
0.0
 11
252.90736465371401
 21
817.26718947097493
 31
0.0
  0
LINE
  5
AAD
  8
1外形線
 10
247.90736465371401
 20
818.45793908452106
 30
0.0
 11
257.9073646537139
 21
818.45793908452106
 31
0.0
  0
LINE
  5
AAE
  8
1外形線
 10
247.90736465371401
 20
817.26718947097493
 30
0.0
 11
247.90736465371401
 21
818.45793908452106
 31
0.0
  0
ARC
  5
AAF
  8
1外形線
 10
257.9073646537139
 20
861.45793908452106
 30
0.0
 40
10.0
 50
0.0
 51
90.0
  0
ARC
  5
AB0
  8
1外形線
 10
256.607364653714
 20
861.45793908452106
 30
0.0
 40
13.5
 50
0.0
 51
90.0
  0
LINE
  5
AB1
  8
1外形線
 10
256.607364653714
 20
874.95793908452106
 30
0.0
 11
247.90736465371401
 21
874.95793908452106
 31
0.0
  0
LINE
  5
AB2
  8
1外形線
 10
257.9073646537139
 20
871.45793908452117
 30
0.0
 11
247.90736465371401
 21
871.45793908452117
 31
0.0
  0
LINE
  5
AB3
  8
1外形線
 10
247.90736465371401
 20
872.64868869806753
 30
0.0
 11
252.90736465371401
 21
872.64868869806753
 31
0.0
  0
LINE
  5
AB4
  8
1外形線
 10
247.90736465371401
 20
872.64868869806753
 30
0.0
 11
247.90736465371401
 21
871.45793908452117
 31
0.0
  0
LINE
  5
AB5
  8
1外形線
 10
255.9073646537139
 20
883.79518029116957
 30
0.0
 11
255.9073646537139
 21
874.95793908452106
 31
0.0
  0
LINE
  5
AB6
  8
1外形線
 10
270.107364653714
 20
861.45793908452106
 30
0.0
 11
270.107364653714
 21
844.95793908452117
 31
0.0
  0
ENDSEC
  0
EOF
