  0
SECTION
  2
HEADER
  9
$ACADVER
  1
AC1009
  9
$INSBASE
 10
0.0
 20
0.0
 30
0.0
  9
$EXTMIN
 10
21.27206585609985
 20
19.858579027218749
 30
0.0
  9
$EXTMAX
 10
299.27206585610008
 20
685.61829642962812
 30
0.0
  9
$LIMMIN
 10
0.0
 20
0.0
  9
$LIMMAX
 10
420.0
 20
297.0
  9
$ORTHOMODE
 70
     0
  9
$REGENMODE
 70
     1
  9
$FILLMODE
 70
     1
  9
$QTEXTMODE
 70
     0
  9
$MIRRTEXT
 70
     1
  9
$DRAGMODE
 70
     2
  9
$LTSCALE
 40
1.0
  9
$OSMODE
 70
    37
  9
$ATTMODE
 70
     1
  9
$TEXTSIZE
 40
2.5
  9
$TRACEWID
 40
1.0
  9
$TEXTSTYLE
  7
STANDARD
  9
$CLAYER
  8
0
  9
$CELTYPE
  6
BYLAYER
  9
$CECOLOR
 62
   256
  9
$DIMSCALE
 40
1.0
  9
$DIMASZ
 40
2.5
  9
$DIMEXO
 40
0.625
  9
$DIMDLI
 40
3.75
  9
$DIMRND
 40
0.0
  9
$DIMDLE
 40
0.0
  9
$DIMEXE
 40
1.25
  9
$DIMTP
 40
0.0
  9
$DIMTM
 40
0.0
  9
$DIMTXT
 40
2.5
  9
$DIMCEN
 40
2.5
  9
$DIMTSZ
 40
0.0
  9
$DIMTOL
 70
     0
  9
$DIMLIM
 70
     0
  9
$DIMTIH
 70
     0
  9
$DIMTOH
 70
     0
  9
$DIMSE1
 70
     0
  9
$DIMSE2
 70
     0
  9
$DIMTAD
 70
     1
  9
$DIMZIN
 70
     8
  9
$DIMBLK
  1

  9
$DIMASO
 70
     1
  9
$DIMSHO
 70
     1
  9
$DIMPOST
  1

  9
$DIMAPOST
  1

  9
$DIMALT
 70
     0
  9
$DIMALTD
 70
     3
  9
$DIMALTF
 40
0.03937007874016
  9
$DIMLFAC
 40
1.0
  9
$DIMTOFL
 70
     1
  9
$DIMTVP
 40
0.0
  9
$DIMTIX
 70
     0
  9
$DIMSOXD
 70
     0
  9
$DIMSAH
 70
     0
  9
$DIMBLK1
  1

  9
$DIMBLK2
  1

  9
$DIMSTYLE
  2
ISO-25
  9
$DIMCLRD
 70
     0
  9
$DIMCLRE
 70
     0
  9
$DIMCLRT
 70
     0
  9
$DIMTFAC
 40
1.0
  9
$DIMGAP
 40
0.625
  9
$LUNITS
 70
     2
  9
$LUPREC
 70
     4
  9
$SKETCHINC
 40
1.0
  9
$FILLETRAD
 40
10.0
  9
$AUNITS
 70
     0
  9
$AUPREC
 70
     0
  9
$MENU
  1
.
  9
$ELEVATION
 40
0.0
  9
$PELEVATION
 40
0.0
  9
$THICKNESS
 40
0.0
  9
$LIMCHECK
 70
     0
  9
$BLIPMODE
 70
     0
  9
$CHAMFERA
 40
10.0
  9
$CHAMFERB
 40
10.0
  9
$SKPOLY
 70
     0
  9
$TDCREATE
 40
2452216.4710256481
  9
$TDUPDATE
 40
2452216.4712930438
  9
$TDINDWG
 40
0.0002679745
  9
$TDUSRTIMER
 40
0.0002678588
  9
$USRTIMER
 70
     1
  9
$ANGBASE
 50
0.0
  9
$ANGDIR
 70
     0
  9
$PDMODE
 70
     0
  9
$PDSIZE
 40
0.0
  9
$PLINEWID
 40
0.0
  9
$COORDS
 70
     1
  9
$SPLFRAME
 70
     0
  9
$SPLINETYPE
 70
     6
  9
$SPLINESEGS
 70
     8
  9
$ATTDIA
 70
     0
  9
$ATTREQ
 70
     1
  9
$HANDLING
 70
-16383
  9
$HANDSEED
  5
408
  9
$SURFTAB1
 70
     6
  9
$SURFTAB2
 70
     6
  9
$SURFTYPE
 70
     6
  9
$SURFU
 70
     6
  9
$SURFV
 70
     6
  9
$UCSNAME
  2

  9
$UCSORG
 10
0.0
 20
0.0
 30
0.0
  9
$UCSXDIR
 10
1.0
 20
0.0
 30
0.0
  9
$UCSYDIR
 10
0.0
 20
1.0
 30
0.0
  9
$PUCSNAME
  2

  9
$PUCSORG
 10
0.0
 20
0.0
 30
0.0
  9
$PUCSXDIR
 10
1.0
 20
0.0
 30
0.0
  9
$PUCSYDIR
 10
0.0
 20
1.0
 30
0.0
  9
$USERI1
 70
     0
  9
$USERI2
 70
     0
  9
$USERI3
 70
     0
  9
$USERI4
 70
     0
  9
$USERI5
 70
     0
  9
$USERR1
 40
0.0
  9
$USERR2
 40
0.0
  9
$USERR3
 40
0.0
  9
$USERR4
 40
0.0
  9
$USERR5
 40
0.0
  9
$WORLDVIEW
 70
     1
  9
$SHADEDGE
 70
     3
  9
$SHADEDIF
 70
    70
  9
$TILEMODE
 70
     1
  9
$MAXACTVP
 70
    64
  9
$PLIMCHECK
 70
     0
  9
$PEXTMIN
 10
1.0000000000000000E+020
 20
1.0000000000000000E+020
 30
1.0000000000000000E+020
  9
$PEXTMAX
 10
-1.0000000000000000E+020
 20
-1.0000000000000000E+020
 30
-1.0000000000000000E+020
  9
$PLIMMIN
 10
0.0
 20
0.0
  9
$PLIMMAX
 10
420.0
 20
297.0
  9
$UNITMODE
 70
     0
  9
$VISRETAIN
 70
     1
  9
$PLINEGEN
 70
     0
  9
$PSLTSCALE
 70
     1
  0
ENDSEC
  0
SECTION
  2
TABLES
  0
TABLE
  2
VPORT
 70
     3
  0
VPORT
  2
*ACTIVE
 70
     0
 10
0.0
 20
0.0
 11
1.0
 21
1.0
 12
212.36907582938389
 22
148.5
 13
0.0
 23
0.0
 14
10.0
 24
10.0
 15
10.0
 25
10.0
 16
0.0
 26
0.0
 36
1.0
 17
0.0
 27
0.0
 37
0.0
 40
297.0
 41
1.430094786729857
 42
50.0
 43
0.0
 44
0.0
 50
0.0
 51
0.0
 71
     0
 72
   100
 73
     1
 74
     3
 75
     0
 76
     0
 77
     0
 78
     0
  0
ENDTAB
  0
TABLE
  2
LTYPE
 70
     1
  0
LTYPE
  2
CONTINUOUS
 70
     0
  3
Solid line
 72
    65
 73
     0
 40
0.0
  0
ENDTAB
  0
TABLE
  2
LAYER
 70
     4
  0
LAYER
  2
0
 70
     0
 62
     7
  6
CONTINUOUS
  0
LAYER
  2
1外形線
 70
     0
 62
     3
  6
CONTINUOUS
  0
LAYER
  2
C4
 70
     0
 62
     3
  6
CONTINUOUS
  0
LAYER
  2
SUNPOU
 70
     0
 62
     2
  6
CONTINUOUS
  0
ENDTAB
  0
TABLE
  2
STYLE
 70
     2
  0
STYLE
  2
STANDARD
 70
     0
 40
0.0
 41
1.0
 50
0.0
 71
     0
 42
2.5
  3
txt
  4

  0
STYLE
  2
KANJI
 70
     0
 40
0.0
 41
1.0
 50
0.0
 71
     0
 42
2.5
  3
simplex.shx
  4
extfont.shx
  0
ENDTAB
  0
TABLE
  2
VIEW
 70
     0
  0
ENDTAB
  0
TABLE
  2
UCS
 70
     0
  0
ENDTAB
  0
TABLE
  2
APPID
 70
     1
  0
APPID
  2
ACAD
 70
     0
  0
ENDTAB
  0
TABLE
  2
DIMSTYLE
 70
     2
  0
DIMSTYLE
  2
ISO-25
 70
     0
  3

  4

  5

  6

  7

 40
1.0
 41
2.5
 42
0.625
 43
3.75
 44
1.25
 45
0.0
 46
0.0
 47
0.0
 48
0.0
140
2.5
141
2.5
142
0.0
143
0.03937007874016
144
1.0
145
0.0
146
1.0
147
0.625
 71
     0
 72
     0
 73
     0
 74
     0
 75
     0
 76
     0
 77
     1
 78
     8
170
     0
171
     3
172
     1
173
     0
174
     0
175
     0
176
     0
177
     0
178
     0
  0
DIMSTYLE
  2
STANDARD
 70
     0
  3

  4

  5

  6

  7

 40
1.0
 41
0.18
 42
0.0625
 43
0.38
 44
0.18
 45
0.0
 46
0.0
 47
0.0
 48
0.0
140
0.18
141
0.09
142
0.0
143
25.399999999999999
144
1.0
145
0.0
146
1.0
147
0.09
 71
     0
 72
     0
 73
     1
 74
     1
 75
     0
 76
     0
 77
     0
 78
     0
170
     0
171
     2
172
     0
173
     0
174
     0
175
     0
176
     0
177
     0
178
     0
  0
ENDTAB
  0
ENDSEC
  0
SECTION
  2
BLOCKS
  0
BLOCK
  8
0
  2
$MODEL_SPACE
 70
     0
 10
0.0
 20
0.0
 30
0.0
  3
$MODEL_SPACE
  1

  0
ENDBLK
  5
21
  8
0
  0
BLOCK
 67
     1
  8
0
  2
$PAPER_SPACE
 70
     0
 10
0.0
 20
0.0
 30
0.0
  3
$PAPER_SPACE
  1

  0
ENDBLK
  5
1D
 67
     1
  8
0
  0
BLOCK
  8
0
  2
2
 70
     0
 10
0.0
 20
0.0
 30
0.0
  3
2
  1

  0
INSERT
  5
2C
  8
0
  6
CONTINUOUS
  2
*U3
 10
0.0
 20
0.0
 30
0.0
1001
ACAD
1002
{
1000
R14_HATCH_DATA
1000
2C
1011
1.0
1021
-3.9958381481840314E+146
1031
-1.2056243727575122E+147
1021
0.0
1031
0.0
1011
0.0
1021
-3.9958381481840314E+146
1031
-1.2056243727575122E+147
1021
1.0
1031
0.0
1011
0.0
1021
-3.9958381481840314E+146
1031
-1.2056243727575122E+147
1021
0.0
1031
1.0
1040
0.0
1010
0.0
1020
0.0
1030
1.0
1000
SOLID
1070
     1
1070
     1
1071
        1
1071
        7
1070
     0
1070
     1
1071
        3
1040
0.0000000000000284
1040
0.0
1040
-0.899999999998343
1040
0.2411542731875897
1040
-0.8999999999983572
1040
-0.2411542731875613
1071
        3
1005
2F
1005
2D
1005
30
1070
     0
1070
     1
1040
0.0028941747346077
1071
        1
1040
-0.5303136156475148
1040
-0.0796654556697263
1040
0.0
1002
}
  0
LINE
  5
2D
  8
0
 10
-0.8999999999983572
 20
0.2411542731879876
 30
0.0
 11
-0.8999999999983572
 21
-0.2411542731880445
 31
0.0
  0
LINE
  5
2E
  8
0
 10
-0.9999999999983515
 20
0.0
 30
0.0
 11
0.0
 21
0.0
 31
0.0
  0
LINE
  5
2F
  8
0
 10
-0.8999999999984424
 20
0.2411542731875897
 30
0.0
 11
0.0
 21
0.0
 31
0.0
  0
LINE
  5
30
  8
0
 10
-0.8999999999984424
 20
-0.2411542731875897
 30
0.0
 11
0.0
 21
0.0
 31
0.0
  0
ENDBLK
  5
32
  8
0
  0
BLOCK
  8
0
  2
*U3
 70
     1
 10
0.0
 20
0.0
 30
0.0
  3
*U3
  1

  0
SOLID
  5
3BB
  8
0
  6
CONTINUOUS
 10
-0.5999999999988905
 20
0.0000000000000095
 30
0.0
 11
0.0000000000000284
 21
0.0
 31
0.0
 12
-0.899999999998343
 22
0.2411542731875897
 32
0.0
 13
-0.899999999998343
 23
0.2411542731875897
 33
0.0
210
0.0
220
0.0
230
1.0
  0
SOLID
  5
3BC
  8
0
  6
CONTINUOUS
 10
-0.5999999999988905
 20
0.0000000000000095
 30
0.0
 11
-0.899999999998343
 21
0.2411542731875897
 31
0.0
 12
-0.8999999999983572
 22
-0.2411542731875613
 32
0.0
 13
-0.8999999999983572
 23
-0.2411542731875613
 33
0.0
  0
SOLID
  5
3BD
  8
0
  6
CONTINUOUS
 10
-0.5999999999988905
 20
0.0000000000000095
 30
0.0
 11
-0.8999999999983572
 21
-0.2411542731875613
 31
0.0
 12
0.0000000000000284
 22
0.0
 32
0.0
 13
0.0000000000000284
 23
0.0
 33
0.0
210
0.0
220
0.0
230
1.0
  0
ENDBLK
  5
3BF
  8
0
  0
ENDSEC
  0
SECTION
  2
ENTITIES
  0
LINE
  5
1F8
  8
1外形線
 10
21.27206585609985
 20
685.61829642962812
 30
0.0
 11
21.27206585609985
 21
19.858579027218749
 31
0.0
  0
LINE
  5
1F9
  8
1外形線
 10
299.27206585610008
 20
685.61829642962812
 30
0.0
 11
299.27206585610008
 21
19.858579027218749
 31
0.0
  0
LINE
  5
1FA
  8
C4
 10
154.2720658560998
 20
408.0182964296252
 30
0.0
 11
154.2720658560998
 21
403.0182964296252
 31
0.0
  0
LINE
  5
1FB
  8
C4
 10
71.272065856099857
 20
408.0182964296252
 30
0.0
 11
71.272065856099857
 21
403.0182964296252
 31
0.0
  0
LINE
  5
1FC
  8
1外形線
 10
299.27206585610008
 20
19.858579027218749
 30
0.0
 11
21.27206585609985
 21
19.858579027218749
 31
0.0
  0
LINE
  5
1FD
  8
1外形線
 10
299.27206585610008
 20
247.41829642962239
 30
0.0
 11
21.27206585609985
 21
247.41829642962239
 31
0.0
  0
LINE
  5
1FE
  8
C4
 10
178.57206585610001
 20
181.4182964296223
 30
0.0
 11
125.2720658560999
 21
181.4182964296223
 31
0.0
  0
LINE
  5
1FF
  8
C4
 10
125.2720658560999
 20
187.41829642962239
 30
0.0
 11
178.77206585609991
 21
187.41829642962239
 31
0.0
  0
ARC
  5
200
  8
C4
 10
150.27206585609991
 20
96.058579027218684
 30
0.0
 40
25.0
 50
0.0
 51
90.0
  0
ARC
  5
201
  8
C4
 10
152.0720658561001
 20
96.758579027218801
 30
0.0
 40
27.199999999999999
 50
0.0
 51
90.0
  0
ARC
  5
202
  8
C4
 10
150.27206585609991
 20
96.058579027218684
 30
0.0
 40
23.0
 50
49.294293168956891
 51
90.0
  0
LINE
  5
203
  8
C4
 10
125.2720658560999
 20
153.4182964296194
 30
0.0
 11
178.57206585610001
 21
153.4182964296223
 31
0.0
  0
LINE
  5
204
  8
C4
 10
178.77206585609991
 20
147.4182964296223
 30
0.0
 11
125.2720658560999
 21
147.41829642961949
 31
0.0
  0
ARC
  5
205
  8
C4
 10
152.27206585609991
 20
75.058579027218798
 30
0.0
 40
23.0
 50
270.0
 51
0.0
  0
ARC
  5
206
  8
C4
 10
154.07206585610001
 20
75.058579027218798
 30
0.0
 40
25.199999999999999
 50
270.0
 51
0.0
  0
ARC
  5
207
  8
C4
 10
152.27206585609991
 20
75.058579027218798
 30
0.0
 40
21.0
 50
270.0
 51
320.6972242270345
  0
ARC
  5
208
  8
C4
 10
130.0720658560999
 20
301.61829642962238
 30
0.0
 40
24.199999999999989
 50
270.0
 51
0.0
  0
ARC
  5
209
  8
C4
 10
128.2720658560998
 20
301.61829642962238
 30
0.0
 40
22.0
 50
270.0
 51
0.0
  0
ARC
  5
20A
  8
C4
 10
127.0720658561
 20
316.31829642962231
 30
0.0
 40
27.199999999999999
 50
4.4279776746933077
 51
90.0
  0
LINE
  5
20B
  8
1外形線
 10
89.633926650179319
 20
153.41829642962139
 30
0.0
 11
89.633926650179319
 21
181.4182964296223
 31
0.0
  0
ARC
  5
20C
  8
C4
 10
78.772065856099971
 20
167.4182964296223
 30
0.0
 40
4.5
 50
270.0
 51
90.0
  0
LINE
  5
20D
  8
C4
 10
71.972065856099903
 20
181.4182964296223
 30
0.0
 11
71.972065856099903
 21
153.4182964296223
 31
0.0
  0
ARC
  5
20E
  8
C4
 10
100.2720658560999
 20
96.058579027218684
 30
0.0
 40
23.0
 50
90.0
 51
130.7057068310431
  0
ARC
  5
20F
  8
C4
 10
98.272065856099985
 20
75.058579027218798
 30
0.0
 40
21.0
 50
219.3027757729655
 51
270.0
  0
ARC
  5
210
  8
C4
 10
96.472065856099917
 20
75.058579027218798
 30
0.0
 40
25.199999999999999
 50
180.0
 51
270.0
  0
ARC
  5
211
  8
C4
 10
98.272065856099985
 20
75.058579027218798
 30
0.0
 40
23.0
 50
180.0
 51
270.0
  0
ARC
  5
212
  8
C4
 10
98.472065856099789
 20
96.758579027218801
 30
0.0
 40
27.199999999999999
 50
90.0
 51
180.0
  0
ARC
  5
213
  8
C4
 10
100.2720658560999
 20
96.058579027218684
 30
0.0
 40
25.0
 50
90.0
 51
180.0
  0
LINE
  5
214
  8
C4
 10
125.2720658560999
 20
153.4182964296194
 30
0.0
 11
71.972065856099903
 21
153.4182964296223
 31
0.0
  0
LINE
  5
215
  8
C4
 10
71.772065856099971
 20
147.4182964296223
 30
0.0
 11
125.2720658560999
 21
147.41829642961949
 31
0.0
  0
LINE
  5
216
  8
C4
 10
77.272065856099971
 20
95.858579027218866
 30
0.0
 11
77.272065856100085
 21
105.8565379983517
 31
0.0
  0
LINE
  5
217
  8
C4
 10
85.272065856099971
 20
116.0585790272186
 30
0.0
 11
85.272065856099971
 21
94.858579027218795
 31
0.0
  0
LINE
  5
218
  8
C4
 10
82.022065856099985
 20
92.858579027218752
 30
0.0
 11
82.022065856099843
 21
58.781678216560863
 31
0.0
  0
LINE
  5
219
  8
C4
 10
77.272065856099857
 20
65.677747507572121
 30
0.0
 11
77.272065856099971
 21
95.858579027218738
 31
0.0
  0
LINE
  5
21A
  8
C4
 10
84.022065856099971
 20
92.858579027218696
 30
0.0
 11
77.272065856099971
 21
92.858579027218809
 31
0.0
  0
LINE
  5
21B
  8
C4
 10
75.272065856099971
 20
75.058579027218798
 30
0.0
 11
75.272065856099971
 21
96.058579027218684
 31
0.0
  0
LINE
  5
21C
  8
C4
 10
71.972065856099903
 20
86.858579027218809
 30
0.0
 11
72.872065856099994
 21
89.858579027218795
 31
0.0
  0
LINE
  5
21D
  8
C4
 10
71.272065856099857
 20
86.858579027218809
 30
0.0
 11
71.972065856099903
 21
86.858579027218809
 31
0.0
  0
LINE
  5
21E
  8
C4
 10
71.272065856099857
 20
75.05857902721857
 30
0.0
 11
71.272065856099857
 21
86.858579027218809
 31
0.0
  0
POLYLINE
  5
21F
  8
C4
 66
     1
 10
0.0
 20
0.0
 30
0.0
  0
VERTEX
  5
3E4
  8
C4
 10
75.272065856099971
 20
86.858579027218696
 30
0.0
  0
VERTEX
  5
3E5
  8
C4
 10
77.272065856099971
 20
86.858579027218696
 30
0.0
  0
SEQEND
  5
3E6
  8
C4
  0
LINE
  5
220
  8
C4
 10
71.272065856099744
 20
92.858579027218752
 30
0.0
 11
71.972065856099903
 21
92.858579027218809
 31
0.0
  0
LINE
  5
221
  8
C4
 10
71.272065856099744
 20
92.858579027218752
 30
0.0
 11
71.272065856099744
 21
96.758579027218559
 31
0.0
  0
ARC
  5
222
  8
C4
 10
74.272065856099971
 20
94.358579027218809
 30
0.0
 40
0.5
 50
90.0
 51
180.0
  0
LINE
  5
223
  8
C4
 10
75.272065856099971
 20
94.858579027218795
 30
0.0
 11
74.272065856099971
 21
94.858579027218795
 31
0.0
  0
POLYLINE
  5
224
  8
C4
 66
     1
 10
0.0
 20
0.0
 30
0.0
  0
VERTEX
  5
3E7
  8
C4
 10
73.772065856099971
 20
89.858579027218795
 30
0.0
  0
VERTEX
  5
3E8
  8
C4
 10
72.872065856099994
 20
89.858579027218795
 30
0.0
  0
SEQEND
  5
3E9
  8
C4
  0
LINE
  5
225
  8
C4
 10
75.272065856099971
 20
89.858579027218696
 30
0.0
 11
77.272065856099971
 21
89.858579027218696
 31
0.0
  0
LINE
  5
226
  8
C4
 10
73.772065856099971
 20
89.858579027218795
 30
0.0
 11
73.772065856099971
 21
94.358579027218809
 31
0.0
  0
LINE
  5
227
  8
C4
 10
71.972065856099903
 20
92.858579027218809
 30
0.0
 11
72.872065856099994
 21
89.858579027218795
 31
0.0
  0
LINE
  5
228
  8
C4
 10
84.022065856099971
 20
94.858579027218795
 30
0.0
 11
84.022065856099971
 21
92.858579027218696
 31
0.0
  0
LINE
  5
229
  8
C4
 10
84.022065856099971
 20
94.858579027218795
 30
0.0
 11
85.272065856099971
 21
94.858579027218795
 31
0.0
  0
LINE
  5
22A
  8
C4
 10
71.272065856099971
 20
152.9182964296223
 30
0.0
 11
71.272065856099971
 21
147.9182964296223
 31
0.0
  0
ARC
  5
22B
  8
C4
 10
71.772065856099971
 20
147.9182964296223
 30
0.0
 40
0.5
 50
180.0
 51
270.0
  0
ARC
  5
22C
  8
C4
 10
71.772065856099971
 20
152.9182964296223
 30
0.0
 40
0.5
 50
90.0
 51
180.0
  0
LINE
  5
22D
  8
1外形線
 10
74.005405685481492
 20
153.41829642962219
 30
0.0
 11
74.005405685481492
 21
162.9182964296223
 31
0.0
  0
LINE
  5
22E
  8
C4
 10
78.772065856099971
 20
162.9182964296223
 30
0.0
 11
71.972065856099903
 21
162.9182964296223
 31
0.0
  0
LINE
  5
22F
  8
1外形線
 10
80.291809584494786
 20
153.4182964296219
 30
0.0
 11
80.291809584494786
 21
163.18268797274101
 31
0.0
  0
LINE
  5
230
  8
C4
 10
125.2720658560999
 20
49.858579027218752
 30
0.0
 11
96.472065856099917
 21
49.858579027218809
 31
0.0
  0
LINE
  5
231
  8
C4
 10
125.2720658560999
 20
52.058579027218798
 30
0.0
 11
98.272065856099985
 21
52.058579027218798
 31
0.0
  0
LINE
  5
232
  8
C4
 10
125.2720658560999
 20
54.058579027218798
 30
0.0
 11
98.272065856099985
 21
54.058579027218798
 31
0.0
  0
LINE
  5
233
  8
C4
 10
125.2720658560999
 20
54.058579027218798
 30
0.0
 11
152.27206585609991
 21
54.058579027218798
 31
0.0
  0
LINE
  5
234
  8
C4
 10
125.2720658560999
 20
52.058579027218798
 30
0.0
 11
152.27206585609991
 21
52.058579027218798
 31
0.0
  0
LINE
  5
235
  8
C4
 10
125.2720658560999
 20
49.858579027218752
 30
0.0
 11
154.07206585610001
 21
49.858579027218809
 31
0.0
  0
LINE
  5
236
  8
C4
 10
98.472065856099789
 20
123.9585790272187
 30
0.0
 11
125.2720658560999
 21
123.9585790272187
 31
0.0
  0
LINE
  5
237
  8
C4
 10
100.2720658560998
 20
121.0585790272186
 30
0.0
 11
125.2720658560999
 21
121.0585790272187
 31
0.0
  0
LINE
  5
238
  8
C4
 10
100.2720658560998
 20
119.0585790272186
 30
0.0
 11
125.2720658560999
 21
119.0585790272187
 31
0.0
  0
LINE
  5
239
  8
SUNPOU
 10
98.472065856099903
 20
123.9585790272187
 30
0.0
 11
98.472065856099903
 21
123.9585790272187
 31
0.0
  0
LINE
  5
23A
  8
C4
 10
150.2720658561
 20
119.0585790272186
 30
0.0
 11
125.2720658560999
 21
119.0585790272187
 31
0.0
  0
LINE
  5
23B
  8
C4
 10
150.2720658561
 20
121.0585790272186
 30
0.0
 11
125.2720658560999
 21
121.0585790272187
 31
0.0
  0
LINE
  5
23C
  8
C4
 10
152.0720658561001
 20
123.9585790272187
 30
0.0
 11
125.2720658560999
 21
123.9585790272187
 31
0.0
  0
LINE
  5
23D
  8
SUNPOU
 10
152.07206585610001
 20
123.9585790272187
 30
0.0
 11
152.07206585610001
 21
123.9585790272187
 31
0.0
  0
ARC
  5
23E
  8
C4
 10
97.272065856099857
 20
301.61829642962238
 30
0.0
 40
20.0
 50
220.31490917470819
 51
270.0
  0
ARC
  5
23F
  8
C4
 10
97.272065856099857
 20
301.61829642962238
 30
0.0
 40
22.0
 50
180.0
 51
270.0
  0
ARC
  5
240
  8
C4
 10
95.472065856099789
 20
301.61829642962238
 30
0.0
 40
24.199999999999989
 50
180.0
 51
270.0
  0
ARC
  5
241
  8
C4
 10
128.2720658560998
 20
301.61829642962238
 30
0.0
 40
20.0
 50
270.0
 51
319.6850908252917
  0
TEXT
  5
242
  8
1外形線
 10
71.272063864634106
 20
217.4182956380244
 30
0.0
 40
10.0
  1
SFJ-100
  7
KANJI
  0
LINE
  5
243
  8
C4
 10
71.972065856099903
 20
181.4182964296223
 30
0.0
 11
125.2720658560999
 21
181.4182964296223
 31
0.0
  0
LINE
  5
244
  8
C4
 10
125.2720658560999
 20
187.41829642962239
 30
0.0
 11
71.772065856099971
 21
187.41829642962239
 31
0.0
  0
CIRCLE
  5
245
  8
C4
 10
78.772065856099971
 20
167.4182964296223
 30
0.0
 40
2.0
  0
CIRCLE
  5
246
  8
C4
 10
78.772065856099971
 20
167.4182964296223
 30
0.0
 40
1.7
  0
LINE
  5
247
  8
1外形線
 10
74.005405685481492
 20
171.91829642962239
 30
0.0
 11
74.005405685481492
 21
181.4182964296223
 31
0.0
  0
LINE
  5
248
  8
C4
 10
78.772065856099971
 20
171.91829642962239
 30
0.0
 11
71.972065856099903
 21
171.91829642962239
 31
0.0
  0
ARC
  5
249
  8
C4
 10
71.772065856099971
 20
186.9182964296223
 30
0.0
 40
0.5
 50
90.0
 51
180.0
  0
ARC
  5
24A
  8
C4
 10
71.772065856099971
 20
181.9182964296223
 30
0.0
 40
0.5
 50
180.0
 51
270.0
  0
LINE
  5
24B
  8
C4
 10
71.272065856099971
 20
186.9182964296223
 30
0.0
 11
71.272065856099971
 21
181.9182964296223
 31
0.0
  0
LINE
  5
24C
  8
1外形線
 10
80.291809584494786
 20
171.65390488650371
 30
0.0
 11
80.291809584494786
 21
181.4182964296223
 31
0.0
  0
LINE
  5
24D
  8
C4
 10
112.7720658560998
 20
277.41829642962227
 30
0.0
 11
130.0720658560999
 21
277.41829642962227
 31
0.0
  0
LINE
  5
24E
  8
C4
 10
112.7720658560998
 20
279.61829642962238
 30
0.0
 11
128.2720658560998
 21
279.61829642962238
 31
0.0
  0
LINE
  5
24F
  8
C4
 10
112.7720658560998
 20
281.61829642962238
 30
0.0
 11
128.2720658560998
 21
281.61829642962238
 31
0.0
  0
LINE
  5
250
  8
C4
 10
112.7720658560998
 20
279.61829642962238
 30
0.0
 11
97.272065856099857
 21
279.61829642962238
 31
0.0
  0
LINE
  5
251
  8
C4
 10
112.7720658560998
 20
277.41829642962227
 30
0.0
 11
95.472065856099789
 21
277.41829642962227
 31
0.0
  0
LINE
  5
252
  8
C4
 10
112.7720658560998
 20
281.61829642962238
 30
0.0
 11
97.272065856099857
 21
281.61829642962238
 31
0.0
  0
ARC
  5
253
  8
C4
 10
100.2720658560998
 20
315.61829642962232
 30
0.0
 40
23.0
 50
90.0
 51
130.7057068310431
  0
ARC
  5
254
  8
C4
 10
98.472065856099675
 20
316.31829642962231
 30
0.0
 40
27.199999999999999
 50
90.0
 51
175.5720223253067
  0
ARC
  5
255
  8
C4
 10
100.2720658560998
 20
315.61829642962232
 30
0.0
 40
25.0
 50
90.0
 51
168.93047502662631
  0
LINE
  5
256
  8
C4
 10
112.7720658560998
 20
379.51829642962218
 30
0.0
 11
71.772065856099857
 21
379.5182964296252
 31
0.0
  0
LINE
  5
257
  8
C4
 10
71.772065856099857
 20
373.5182964296252
 30
0.0
 11
112.7720658560998
 21
373.51829642962241
 31
0.0
  0
LINE
  5
258
  8
C4
 10
71.772065856099857
 20
402.5182964296252
 30
0.0
 11
112.7720658560998
 21
402.5182964296252
 31
0.0
  0
LINE
  5
259
  8
C4
 10
71.972065856099789
 20
312.41829642962239
 30
0.0
 11
72.87206585609988
 21
315.4182964296225
 31
0.0
  0
LINE
  5
25A
  8
C4
 10
75.272065856099843
 20
301.61829642962238
 30
0.0
 11
75.272065856099843
 21
320.41829642962239
 31
0.0
  0
LINE
  5
25B
  8
C4
 10
82.022065856099843
 20
318.41829642962239
 30
0.0
 11
82.022065856099843
 21
285.761515545723
 31
0.0
  0
LINE
  5
25C
  8
C4
 10
77.272065856099857
 20
292.45314503971082
 30
0.0
 11
77.272065856099857
 21
312.41829642962227
 31
0.0
  0
LINE
  5
25D
  8
C4
 10
71.272065856099744
 20
312.41829642962239
 30
0.0
 11
71.972065856099789
 21
312.41829642962239
 31
0.0
  0
LINE
  5
25E
  8
C4
 10
71.272065856099857
 20
301.61829642962221
 30
0.0
 11
71.272065856099744
 21
312.41829642962239
 31
0.0
  0
POLYLINE
  5
25F
  8
C4
 66
     1
 10
0.0
 20
0.0
 30
0.0
  0
VERTEX
  5
3EA
  8
C4
 10
75.272065856099843
 20
312.41829642962227
 30
0.0
  0
VERTEX
  5
3EB
  8
C4
 10
77.272065856099857
 20
312.41829642962227
 30
0.0
  0
SEQEND
  5
3EC
  8
C4
  0
LINE
  5
260
  8
C4
 10
84.022065856099857
 20
318.41829642962239
 30
0.0
 11
77.272065856099857
 21
318.41829642962239
 31
0.0
  0
LINE
  5
261
  8
C4
 10
71.353253197725508
 20
318.41829642962239
 30
0.0
 11
71.972065856099789
 21
318.41829642962239
 31
0.0
  0
POLYLINE
  5
262
  8
C4
 66
     1
 10
0.0
 20
0.0
 30
0.0
  0
VERTEX
  5
3ED
  8
C4
 10
73.772065856099857
 20
315.4182964296225
 30
0.0
  0
VERTEX
  5
3EE
  8
C4
 10
72.87206585609988
 20
315.4182964296225
 30
0.0
  0
SEQEND
  5
3EF
  8
C4
  0
LINE
  5
263
  8
C4
 10
75.272065856099843
 20
315.41829642962227
 30
0.0
 11
77.272065856099857
 21
315.41829642962227
 31
0.0
  0
ARC
  5
264
  8
C4
 10
74.272065856099857
 20
319.9182964296225
 30
0.0
 40
0.5
 50
90.0
 51
180.0
  0
LINE
  5
265
  8
C4
 10
75.737192716016125
 20
320.41829642962239
 30
0.0
 11
74.272065856099857
 21
320.41829642962239
 31
0.0
  0
LINE
  5
266
  8
C4
 10
73.772065856099857
 20
315.4182964296225
 30
0.0
 11
73.772065856099857
 21
319.9182964296225
 31
0.0
  0
LINE
  5
267
  8
C4
 10
71.972065856099789
 20
318.41829642962239
 30
0.0
 11
72.87206585609988
 21
315.4182964296225
 31
0.0
  0
LINE
  5
268
  8
C4
 10
77.272065856099857
 20
315.4182964296225
 30
0.0
 11
77.272065856099971
 21
325.4162554007554
 31
0.0
  0
LINE
  5
269
  8
C4
 10
85.272065856099857
 20
335.61829642962232
 30
0.0
 11
85.272065856099857
 21
320.41829642962239
 31
0.0
  0
LINE
  5
26A
  8
C4
 10
84.022065856099857
 20
320.41829642962239
 30
0.0
 11
85.272065856099857
 21
320.41829642962239
 31
0.0
  0
LINE
  5
26B
  8
C4
 10
84.022065856099857
 20
320.41829642962239
 30
0.0
 11
84.022065856099857
 21
318.41829642962239
 31
0.0
  0
ARC
  5
26C
  8
C4
 10
78.772065856099857
 20
391.0182964296252
 30
0.0
 40
4.5
 50
270.0
 51
90.0
  0
CIRCLE
  5
26D
  8
C4
 10
78.772065856099857
 20
391.0182964296252
 30
0.0
 40
1.7
  0
CIRCLE
  5
26E
  8
C4
 10
78.772065856099857
 20
391.0182964296252
 30
0.0
 40
2.0
  0
LINE
  5
26F
  8
C4
 10
71.972065856099789
 20
402.5182964296252
 30
0.0
 11
71.972065856099789
 21
379.5182964296252
 31
0.0
  0
ARC
  5
270
  8
C4
 10
71.772065856099857
 20
374.0182964296252
 30
0.0
 40
0.5
 50
180.0
 51
270.0
  0
ARC
  5
271
  8
C4
 10
71.772065856099857
 20
379.0182964296252
 30
0.0
 40
0.5
 50
90.0
 51
180.0
  0
LINE
  5
272
  8
C4
 10
71.272065856099857
 20
379.0182964296252
 30
0.0
 11
71.272065856099857
 21
374.0182964296252
 31
0.0
  0
LINE
  5
273
  8
C4
 10
78.772065856099857
 20
386.5182964296252
 30
0.0
 11
71.972065856099789
 21
386.5182964296252
 31
0.0
  0
LINE
  5
274
  8
C4
 10
73.580602805537183
 20
379.51829642962508
 30
0.0
 11
73.580602805537069
 21
386.5182964296252
 31
0.0
  0
ARC
  5
275
  8
C4
 10
71.772065856099857
 20
403.0182964296252
 30
0.0
 40
0.5
 50
180.0
 51
270.0
  0
LINE
  5
276
  8
C4
 10
78.772065856099857
 20
395.5182964296252
 30
0.0
 11
71.972065856099789
 21
395.5182964296252
 31
0.0
  0
LINE
  5
277
  8
C4
 10
73.580602805537069
 20
395.5182964296252
 30
0.0
 11
73.580602805537183
 21
402.5182964296252
 31
0.0
  0
LINE
  5
278
  8
C4
 10
88.571734779586805
 20
379.51829642962412
 30
0.0
 11
88.571734779586805
 21
402.5182964296252
 31
0.0
  0
LINE
  5
279
  8
C4
 10
79.585208017232503
 20
379.51829642962463
 30
0.0
 11
79.585208017232503
 21
386.59237281688758
 31
0.0
  0
LINE
  5
27A
  8
C4
 10
79.585208017232503
 20
395.44422004236282
 30
0.0
 11
79.585208017232503
 21
402.5182964296252
 31
0.0
  0
ARC
  5
27B
  8
C4
 10
125.2720658560998
 20
315.61829642962232
 30
0.0
 40
25.0
 50
11.06952497337358
 51
90.0
  0
LINE
  5
27C
  8
C4
 10
125.2720658560998
 20
338.61829642962232
 30
0.0
 11
112.7720658560998
 21
338.61829642962238
 31
0.0
  0
LINE
  5
27D
  8
C4
 10
125.2720658560998
 20
340.61829642962238
 30
0.0
 11
112.7720658560998
 21
340.61829642962238
 31
0.0
  0
LINE
  5
27E
  8
C4
 10
100.2720658560998
 20
340.61829642962238
 30
0.0
 11
112.7720658560998
 21
340.61829642962238
 31
0.0
  0
LINE
  5
27F
  8
C4
 10
100.2720658560998
 20
338.61829642962232
 30
0.0
 11
112.7720658560998
 21
338.61829642962238
 31
0.0
  0
LINE
  5
280
  8
C4
 10
153.5720658560999
 20
312.41829642962239
 30
0.0
 11
152.67206585609981
 21
315.4182964296225
 31
0.0
  0
LINE
  5
281
  8
C4
 10
150.2720658560998
 20
301.61829642962238
 30
0.0
 11
150.2720658560998
 21
320.41829642962239
 31
0.0
  0
LINE
  5
282
  8
C4
 10
143.5220658560998
 20
318.41829642962239
 30
0.0
 11
143.5220658560998
 21
285.761515545723
 31
0.0
  0
LINE
  5
283
  8
C4
 10
148.2720658560998
 20
292.45314503971082
 30
0.0
 11
148.2720658560998
 21
312.41829642962227
 31
0.0
  0
LINE
  5
284
  8
C4
 10
154.27206585609991
 20
312.41829642962239
 30
0.0
 11
153.5720658560999
 21
312.41829642962239
 31
0.0
  0
POLYLINE
  5
285
  8
C4
 66
     1
 10
0.0
 20
0.0
 30
0.0
  0
VERTEX
  5
3F0
  8
C4
 10
150.2720658560998
 20
312.41829642962227
 30
0.0
  0
VERTEX
  5
3F1
  8
C4
 10
148.2720658560998
 20
312.41829642962227
 30
0.0
  0
SEQEND
  5
3F2
  8
C4
  0
LINE
  5
286
  8
C4
 10
154.2720658560998
 20
301.61829642962221
 30
0.0
 11
154.27206585609991
 21
312.41829642962239
 31
0.0
  0
ARC
  5
287
  8
C4
 10
125.2720658560998
 20
315.61829642962232
 30
0.0
 40
23.0
 50
49.294293168956891
 51
90.0
  0
LINE
  5
288
  8
C4
 10
140.2720658560998
 20
335.61829642962232
 30
0.0
 11
140.2720658560998
 21
320.41829642962239
 31
0.0
  0
LINE
  5
289
  8
C4
 10
141.5220658560998
 20
318.41829642962239
 30
0.0
 11
148.2720658560998
 21
318.41829642962239
 31
0.0
  0
LINE
  5
28A
  8
C4
 10
141.5220658560998
 20
320.41829642962239
 30
0.0
 11
141.5220658560998
 21
318.41829642962239
 31
0.0
  0
LINE
  5
28B
  8
C4
 10
141.5220658560998
 20
320.41829642962239
 30
0.0
 11
140.2720658560998
 21
320.41829642962239
 31
0.0
  0
LINE
  5
28C
  8
C4
 10
150.2720658560998
 20
315.41829642962227
 30
0.0
 11
148.2720658560998
 21
315.41829642962227
 31
0.0
  0
POLYLINE
  5
28D
  8
C4
 66
     1
 10
0.0
 20
0.0
 30
0.0
  0
VERTEX
  5
3F3
  8
C4
 10
151.7720658560998
 20
315.4182964296225
 30
0.0
  0
VERTEX
  5
3F4
  8
C4
 10
152.67206585609981
 20
315.4182964296225
 30
0.0
  0
SEQEND
  5
3F5
  8
C4
  0
LINE
  5
28E
  8
C4
 10
154.19087851447421
 20
318.41829642962239
 30
0.0
 11
153.5720658560999
 21
318.41829642962239
 31
0.0
  0
LINE
  5
28F
  8
C4
 10
149.80693899618359
 20
320.41829642962239
 30
0.0
 11
151.2720658560998
 21
320.41829642962239
 31
0.0
  0
ARC
  5
290
  8
C4
 10
151.2720658560998
 20
319.9182964296225
 30
0.0
 40
0.5
 50
0.0
 51
90.0
  0
LINE
  5
291
  8
C4
 10
148.2720658560998
 20
315.4182964296225
 30
0.0
 11
148.27206585609969
 21
325.4162554007554
 31
0.0
  0
LINE
  5
292
  8
C4
 10
153.5720658560999
 20
318.41829642962239
 30
0.0
 11
152.67206585609981
 21
315.4182964296225
 31
0.0
  0
LINE
  5
293
  8
C4
 10
151.7720658560998
 20
315.4182964296225
 30
0.0
 11
151.7720658560998
 21
319.9182964296225
 31
0.0
  0
LINE
  5
294
  8
C4
 10
153.7720658560998
 20
373.5182964296252
 30
0.0
 11
112.7720658560998
 21
373.51829642962241
 31
0.0
  0
LINE
  5
295
  8
C4
 10
112.7720658560998
 20
379.51829642962218
 30
0.0
 11
153.7720658560998
 21
379.5182964296252
 31
0.0
  0
LINE
  5
296
  8
C4
 10
153.7720658560998
 20
402.5182964296252
 30
0.0
 11
112.7720658560998
 21
402.5182964296252
 31
0.0
  0
LINE
  5
297
  8
C4
 10
127.0720658560999
 20
343.51829642962241
 30
0.0
 11
112.7720658560998
 21
343.51829642962241
 31
0.0
  0
LINE
  5
298
  8
C4
 10
98.472065856099789
 20
343.51829642962241
 30
0.0
 11
112.7720658560998
 21
343.51829642962241
 31
0.0
  0
LINE
  5
299
  8
SUNPOU
 10
98.472065856099789
 20
343.51829642962241
 30
0.0
 11
98.472065856099789
 21
343.51829642962241
 31
0.0
  0
LINE
  5
29A
  8
SUNPOU
 10
127.0720658560999
 20
343.51829642962241
 30
0.0
 11
127.0720658560999
 21
343.51829642962241
 31
0.0
  0
LINE
  5
29B
  8
C4
 10
136.9723969326129
 20
379.51829642962412
 30
0.0
 11
136.9723969326129
 21
402.5182964296252
 31
0.0
  0
LINE
  5
29C
  8
C4
 10
153.5720658560999
 20
402.5182964296252
 30
0.0
 11
153.5720658560999
 21
379.5182964296252
 31
0.0
  0
ARC
  5
29D
  8
C4
 10
146.7720658560998
 20
391.0182964296252
 30
0.0
 40
4.5
 50
90.0
 51
270.0
  0
LINE
  5
29E
  8
C4
 10
146.7720658560998
 20
386.5182964296252
 30
0.0
 11
153.5720658560999
 21
386.5182964296252
 31
0.0
  0
LINE
  5
29F
  8
C4
 10
145.95892369496721
 20
379.51829642962463
 30
0.0
 11
145.95892369496721
 21
386.59237281688758
 31
0.0
  0
ARC
  5
2A0
  8
C4
 10
153.7720658560998
 20
374.0182964296252
 30
0.0
 40
0.5
 50
270.0
 51
0.0
  0
ARC
  5
2A1
  8
C4
 10
153.7720658560998
 20
379.0182964296252
 30
0.0
 40
0.5
 50
0.0
 51
90.0
  0
LINE
  5
2A2
  8
C4
 10
151.9635289066625
 20
379.51829642962508
 30
0.0
 11
151.96352890666259
 21
386.5182964296252
 31
0.0
  0
LINE
  5
2A3
  8
C4
 10
154.2720658560998
 20
379.0182964296252
 30
0.0
 11
154.2720658560998
 21
374.0182964296252
 31
0.0
  0
LINE
  5
2A4
  8
C4
 10
146.7720658560998
 20
395.5182964296252
 30
0.0
 11
153.5720658560999
 21
395.5182964296252
 31
0.0
  0
CIRCLE
  5
2A5
  8
C4
 10
146.7720658560998
 20
391.0182964296252
 30
0.0
 40
2.0
  0
CIRCLE
  5
2A6
  8
C4
 10
146.7720658560998
 20
391.0182964296252
 30
0.0
 40
1.7
  0
LINE
  5
2A7
  8
C4
 10
145.95892369496721
 20
395.44422004236282
 30
0.0
 11
145.95892369496721
 21
402.5182964296252
 31
0.0
  0
ARC
  5
2A8
  8
C4
 10
153.7720658560998
 20
403.0182964296252
 30
0.0
 40
0.5
 50
270.0
 51
0.0
  0
LINE
  5
2A9
  8
C4
 10
151.96352890666259
 20
395.5182964296252
 30
0.0
 11
151.9635289066625
 21
402.5182964296252
 31
0.0
  0
ARC
  5
2AA
  8
C4
 10
171.77206585609991
 20
167.4182964296223
 30
0.0
 40
4.5
 50
90.0
 51
270.0
  0
LINE
  5
2AB
  8
C4
 10
178.57206585610001
 20
181.4182964296223
 30
0.0
 11
178.57206585610001
 21
153.4182964296223
 31
0.0
  0
LINE
  5
2AC
  8
1外形線
 10
160.91020506202059
 20
153.41829642962139
 30
0.0
 11
160.91020506202059
 21
181.4182964296223
 31
0.0
  0
ARC
  5
2AD
  8
C4
 10
214.7720658561
 20
123.4585790272187
 30
0.0
 40
0.5
 50
0.0
 51
90.0
  0
LINE
  5
2AE
  8
C4
 10
229.2720658561
 20
89.858579027218752
 30
0.0
 11
209.2720658561
 21
89.858579027218752
 31
0.0
  0
LINE
  5
2AF
  8
C4
 10
229.2720658561
 20
86.858579027218767
 30
0.0
 11
209.2720658561
 21
86.858579027218767
 31
0.0
  0
LINE
  5
2B0
  8
C4
 10
229.2720658561
 20
92.858579027218752
 30
0.0
 11
209.2720658561
 21
92.858579027218752
 31
0.0
  0
LINE
  5
2B1
  8
C4
 10
229.2720658561
 20
49.858579027218752
 30
0.0
 11
209.2720658561
 21
49.858579027218752
 31
0.0
  0
LINE
  5
2B2
  8
C4
 10
165.27206585609991
 20
116.0585790272186
 30
0.0
 11
165.27206585609991
 21
94.858579027218795
 31
0.0
  0
LINE
  5
2B3
  8
C4
 10
173.27206585609991
 20
95.858579027218866
 30
0.0
 11
173.2720658560998
 21
105.8565379983517
 31
0.0
  0
LINE
  5
2B4
  8
C4
 10
209.2720658561
 20
49.858579027218752
 30
0.0
 11
209.2720658561
 21
123.4585790272187
 31
0.0
  0
LINE
  5
2B5
  8
C4
 10
173.2720658561
 20
65.677747507572121
 30
0.0
 11
173.27206585609991
 21
95.858579027218738
 31
0.0
  0
LINE
  5
2B6
  8
C4
 10
168.52206585609991
 20
92.858579027218752
 30
0.0
 11
168.5220658561
 21
58.781678216560863
 31
0.0
  0
LINE
  5
2B7
  8
C4
 10
166.52206585609991
 20
92.858579027218696
 30
0.0
 11
173.27206585609991
 21
92.858579027218809
 31
0.0
  0
LINE
  5
2B8
  8
C4
 10
166.52206585609991
 20
94.858579027218795
 30
0.0
 11
165.27206585609991
 21
94.858579027218795
 31
0.0
  0
LINE
  5
2B9
  8
C4
 10
166.52206585609991
 20
94.858579027218795
 30
0.0
 11
166.52206585609991
 21
92.858579027218696
 31
0.0
  0
LINE
  5
2BA
  8
C4
 10
178.57206585610001
 20
86.858579027218809
 30
0.0
 11
177.67206585609989
 21
89.858579027218795
 31
0.0
  0
LINE
  5
2BB
  8
C4
 10
175.27206585609991
 20
75.058579027218798
 30
0.0
 11
175.27206585609991
 21
96.058579027218684
 31
0.0
  0
POLYLINE
  5
2BC
  8
C4
 66
     1
 10
0.0
 20
0.0
 30
0.0
  0
VERTEX
  5
3F6
  8
C4
 10
175.27206585609991
 20
86.858579027218696
 30
0.0
  0
VERTEX
  5
3F7
  8
C4
 10
173.27206585609991
 20
86.858579027218696
 30
0.0
  0
SEQEND
  5
3F8
  8
C4
  0
LINE
  5
2BD
  8
C4
 10
179.2720658561
 20
86.858579027218809
 30
0.0
 11
178.57206585610001
 21
86.858579027218809
 31
0.0
  0
LINE
  5
2BE
  8
C4
 10
179.2720658561
 20
75.05857902721857
 30
0.0
 11
179.2720658561
 21
86.858579027218809
 31
0.0
  0
POLYLINE
  5
2BF
  8
C4
 66
     1
 10
0.0
 20
0.0
 30
0.0
  0
VERTEX
  5
3F9
  8
C4
 10
176.77206585609991
 20
89.858579027218795
 30
0.0
  0
VERTEX
  5
3FA
  8
C4
 10
177.67206585609989
 20
89.858579027218795
 30
0.0
  0
SEQEND
  5
3FB
  8
C4
  0
LINE
  5
2C0
  8
C4
 10
176.77206585609991
 20
89.858579027218795
 30
0.0
 11
176.77206585609991
 21
94.358579027218809
 31
0.0
  0
LINE
  5
2C1
  8
C4
 10
175.27206585609991
 20
89.858579027218696
 30
0.0
 11
173.27206585609991
 21
89.858579027218696
 31
0.0
  0
LINE
  5
2C2
  8
C4
 10
175.27206585609991
 20
94.858579027218795
 30
0.0
 11
176.27206585609991
 21
94.858579027218795
 31
0.0
  0
ARC
  5
2C3
  8
C4
 10
176.27206585609991
 20
94.358579027218809
 30
0.0
 40
0.5
 50
0.0
 51
90.0
  0
LINE
  5
2C4
  8
C4
 10
179.2720658561002
 20
92.858579027218752
 30
0.0
 11
178.57206585610001
 21
92.858579027218809
 31
0.0
  0
LINE
  5
2C5
  8
C4
 10
179.2720658561002
 20
92.858579027218752
 30
0.0
 11
179.2720658561002
 21
96.758579027218559
 31
0.0
  0
LINE
  5
2C6
  8
C4
 10
178.57206585610001
 20
92.858579027218809
 30
0.0
 11
177.67206585609989
 21
89.858579027218795
 31
0.0
  0
LINE
  5
2C7
  8
C4
 10
179.27206585609991
 20
152.9182964296223
 30
0.0
 11
179.27206585609991
 21
147.9182964296223
 31
0.0
  0
ARC
  5
2C8
  8
C4
 10
178.77206585609991
 20
147.9182964296223
 30
0.0
 40
0.5
 50
270.0
 51
0.0
  0
LINE
  5
2C9
  8
C4
 10
171.77206585609991
 20
162.9182964296223
 30
0.0
 11
178.57206585610001
 21
162.9182964296223
 31
0.0
  0
LINE
  5
2CA
  8
1外形線
 10
176.53872602671839
 20
153.41829642962219
 30
0.0
 11
176.53872602671839
 21
162.9182964296223
 31
0.0
  0
LINE
  5
2CB
  8
1外形線
 10
170.2523221277051
 20
153.4182964296219
 30
0.0
 11
170.2523221277051
 21
163.18268797274101
 31
0.0
  0
ARC
  5
2CC
  8
C4
 10
178.77206585609991
 20
152.9182964296223
 30
0.0
 40
0.5
 50
0.0
 51
90.0
  0
ARC
  5
2CD
  8
C4
 10
209.77206585610011
 20
123.4585790272187
 30
0.0
 40
0.5
 50
90.0
 51
180.0
  0
LINE
  5
2CE
  8
C4
 10
209.77206585610011
 20
123.9585790272187
 30
0.0
 11
214.7720658561
 21
123.9585790272187
 31
0.0
  0
LINE
  5
2CF
  8
C4
 10
243.27206585610011
 20
123.2585790272187
 30
0.0
 11
243.27206585610011
 21
92.858579027218752
 31
0.0
  0
LINE
  5
2D0
  8
C4
 10
249.27206585610011
 20
49.858579027218752
 30
0.0
 11
249.27206585610011
 21
123.2585790272187
 31
0.0
  0
LINE
  5
2D1
  8
C4
 10
215.2720658561
 20
123.4585790272187
 30
0.0
 11
215.2720658561
 21
92.858579027218752
 31
0.0
  0
LINE
  5
2D2
  8
C4
 10
233.7720658561
 20
96.858579027218767
 30
0.0
 11
233.7720658561
 21
113.6273352223468
 31
0.0
  0
LINE
  5
2D3
  8
C4
 10
224.77206585610011
 20
96.858579027218767
 30
0.0
 11
224.77206585610011
 21
113.6273352223468
 31
0.0
  0
LINE
  5
2D4
  8
C4
 10
229.2720658561
 20
86.858579027218767
 30
0.0
 11
249.27206585610011
 21
86.858579027218767
 31
0.0
  0
LINE
  5
2D5
  8
C4
 10
229.2720658561
 20
89.858579027218752
 30
0.0
 11
249.27206585610011
 21
89.858579027218752
 31
0.0
  0
LINE
  5
2D6
  8
C4
 10
229.2720658561
 20
49.858579027218752
 30
0.0
 11
249.27206585610011
 21
49.858579027218752
 31
0.0
  0
LINE
  5
2D7
  8
C4
 10
229.2720658561
 20
92.858579027218752
 30
0.0
 11
249.27206585610011
 21
92.858579027218752
 31
0.0
  0
LINE
  5
2D8
  8
C4
 10
243.27206585610011
 20
86.858579027218767
 30
0.0
 11
243.27206585610011
 21
49.858579027218752
 31
0.0
  0
LINE
  5
2D9
  8
C4
 10
215.2720658561
 20
86.858579027218767
 30
0.0
 11
215.2720658561
 21
49.858579027218752
 31
0.0
  0
LINE
  5
2DA
  8
1外形線
 10
243.27206585610011
 20
51.40684597291169
 30
0.0
 11
215.2720658561
 21
51.40684597291169
 31
0.0
  0
LINE
  5
2DB
  8
1外形線
 10
243.27206585610011
 20
56.697978251276481
 30
0.0
 11
215.2720658561
 21
56.697978251276481
 31
0.0
  0
LINE
  5
2DC
  8
1外形線
 10
243.27206585610011
 20
65.027393365209207
 30
0.0
 11
215.2720658561
 21
65.027393365209207
 31
0.0
  0
LINE
  5
2DD
  8
C4
 10
233.7720658561002
 20
96.858579027218767
 30
0.0
 11
229.2720658561
 21
96.858579027218767
 31
0.0
  0
LINE
  5
2DE
  8
C4
 10
224.77206585609991
 20
96.858579027218767
 30
0.0
 11
229.2720658561
 21
96.858579027218767
 31
0.0
  0
LINE
  5
2DF
  8
C4
 10
248.7720658561
 20
123.9585790272187
 30
0.0
 11
243.7720658561
 21
123.9585790272187
 31
0.0
  0
LINE
  5
2E0
  8
1外形線
 10
243.27206585610011
 20
121.7413189765672
 30
0.0
 11
215.2720658561
 21
121.7413189765672
 31
0.0
  0
ARC
  5
2E1
  8
C4
 10
229.2720658561
 20
113.6273352223468
 30
0.0
 40
4.5
 50
0.0
 51
90.0
  0
LINE
  5
2E2
  8
C4
 10
229.2720658561
 20
123.2585790272187
 30
0.0
 11
243.27206585610011
 21
123.2585790272187
 31
0.0
  0
ARC
  5
2E3
  8
C4
 10
229.2720658561
 20
113.6273352223468
 30
0.0
 40
4.5
 50
90.0
 51
180.0
  0
LINE
  5
2E4
  8
1外形線
 10
224.77206585610011
 20
106.9385859081339
 30
0.0
 11
215.2720658561
 21
106.9385859081339
 31
0.0
  0
LINE
  5
2E5
  8
1外形線
 10
225.47276758126671
 20
116.0388352988238
 30
0.0
 11
215.2720658561
 21
116.0388352988238
 31
0.0
  0
LINE
  5
2E6
  8
C4
 10
229.2720658561
 20
123.2585790272187
 30
0.0
 11
215.2720658561
 21
123.2585790272187
 31
0.0
  0
LINE
  5
2E7
  8
1外形線
 10
243.27206585610011
 20
106.9385859081339
 30
0.0
 11
233.7720658561
 21
106.9385859081339
 31
0.0
  0
LINE
  5
2E8
  8
1外形線
 10
243.27206585610011
 20
116.0388352988238
 30
0.0
 11
233.07136413093329
 21
116.0388352988238
 31
0.0
  0
ARC
  5
2E9
  8
C4
 10
243.7720658561
 20
123.4585790272187
 30
0.0
 40
0.5
 50
90.0
 51
180.0
  0
ARC
  5
2EA
  8
C4
 10
248.7720658561
 20
123.4585790272187
 30
0.0
 40
0.5
 50
0.0
 51
90.0
  0
LINE
  5
2EB
  8
C4
 10
190.27206585609991
 20
312.41829642962227
 30
0.0
 11
190.27206585609991
 21
277.41829642962227
 31
0.0
  0
LINE
  5
2EC
  8
C4
 10
184.27206585609991
 20
277.41829642962227
 30
0.0
 11
184.27206585609991
 21
343.01829642962241
 31
0.0
  0
LINE
  5
2ED
  8
C4
 10
219.27206585609991
 20
277.41829642962227
 30
0.0
 11
219.27206585609991
 21
343.01829642962241
 31
0.0
  0
LINE
  5
2EE
  8
C4
 10
213.27206585609991
 20
312.41829642962227
 30
0.0
 11
213.27206585609991
 21
277.41829642962227
 31
0.0
  0
LINE
  5
2EF
  8
C4
 10
201.77206585609991
 20
277.41829642962227
 30
0.0
 11
219.27206585609991
 21
277.41829642962227
 31
0.0
  0
LINE
  5
2F0
  8
1外形線
 10
176.53872602671839
 20
171.91829642962239
 30
0.0
 11
176.53872602671839
 21
181.4182964296223
 31
0.0
  0
LINE
  5
2F1
  8
1外形線
 10
170.2523221277051
 20
171.65390488650371
 30
0.0
 11
170.2523221277051
 21
181.4182964296223
 31
0.0
  0
LINE
  5
2F2
  8
C4
 10
171.77206585609991
 20
171.91829642962239
 30
0.0
 11
178.57206585610001
 21
171.91829642962239
 31
0.0
  0
CIRCLE
  5
2F3
  8
C4
 10
171.77206585609991
 20
167.4182964296223
 30
0.0
 40
1.7
  0
CIRCLE
  5
2F4
  8
C4
 10
171.77206585609991
 20
167.4182964296223
 30
0.0
 40
2.0
  0
ARC
  5
2F5
  8
C4
 10
178.77206585609991
 20
181.9182964296223
 30
0.0
 40
0.5
 50
270.0
 51
0.0
  0
LINE
  5
2F6
  8
C4
 10
179.27206585609991
 20
186.9182964296223
 30
0.0
 11
179.27206585609991
 21
181.9182964296223
 31
0.0
  0
ARC
  5
2F7
  8
C4
 10
178.77206585609991
 20
186.9182964296223
 30
0.0
 40
0.5
 50
0.0
 51
90.0
  0
LINE
  5
2F8
  8
C4
 10
201.77206585609991
 20
277.41829642962227
 30
0.0
 11
184.27206585609991
 21
277.41829642962227
 31
0.0
  0
LINE
  5
2F9
  8
C4
 10
190.27206585609991
 20
278.74518764935152
 30
0.0
 11
201.77206585609991
 21
278.74518764935152
 31
0.0
  0
LINE
  5
2FA
  8
C4
 10
213.27206585609991
 20
278.74518764935152
 30
0.0
 11
201.77206585609991
 21
278.74518764935152
 31
0.0
  0
LINE
  5
2FB
  8
C4
 10
218.77206585609991
 20
343.51829642962241
 30
0.0
 11
213.77206585609991
 21
343.51829642962241
 31
0.0
  0
LINE
  5
2FC
  8
C4
 10
201.77206585609991
 20
315.41829642962227
 30
0.0
 11
219.27206585609991
 21
315.41829642962227
 31
0.0
  0
LINE
  5
2FD
  8
C4
 10
201.77206585609991
 20
318.41829642962239
 30
0.0
 11
219.27206585609991
 21
318.41829642962239
 31
0.0
  0
LINE
  5
2FE
  8
C4
 10
201.77206585609991
 20
312.41829642962227
 30
0.0
 11
219.27206585609991
 21
312.41829642962227
 31
0.0
  0
ARC
  5
2FF
  8
C4
 10
184.77206585609991
 20
343.01829642962241
 30
0.0
 40
0.5
 50
90.0
 51
180.0
  0
ARC
  5
300
  8
C4
 10
189.77206585609991
 20
343.01829642962241
 30
0.0
 40
0.5
 50
0.0
 51
90.0
  0
ARC
  5
301
  8
C4
 10
213.77206585609991
 20
343.01829642962241
 30
0.0
 40
0.5
 50
90.0
 51
180.0
  0
LINE
  5
302
  8
C4
 10
201.77206585609991
 20
315.41829642962227
 30
0.0
 11
184.27206585609991
 21
315.41829642962227
 31
0.0
  0
LINE
  5
303
  8
C4
 10
201.77206585609991
 20
318.41829642962239
 30
0.0
 11
184.27206585609991
 21
318.41829642962239
 31
0.0
  0
LINE
  5
304
  8
C4
 10
201.77206585609991
 20
312.41829642962227
 30
0.0
 11
184.27206585609991
 21
312.41829642962227
 31
0.0
  0
LINE
  5
305
  8
C4
 10
190.27206585609991
 20
291.73389405286019
 30
0.0
 11
201.77206585609991
 21
291.73389405286019
 31
0.0
  0
LINE
  5
306
  8
C4
 10
190.27206585609991
 20
283.94773368114522
 30
0.0
 11
201.77206585609991
 21
283.94773368114522
 31
0.0
  0
LINE
  5
307
  8
C4
 10
213.27206585609991
 20
283.94773368114522
 30
0.0
 11
201.77206585609991
 21
283.94773368114522
 31
0.0
  0
LINE
  5
308
  8
C4
 10
213.27206585609991
 20
291.73389405286019
 30
0.0
 11
201.77206585609991
 21
291.73389405286019
 31
0.0
  0
LINE
  5
309
  8
C4
 10
190.27206585609991
 20
341.20975948018508
 30
0.0
 11
201.77206585609991
 21
341.20975948018508
 31
0.0
  0
LINE
  5
30A
  8
C4
 10
201.77206585609991
 20
342.81829642962242
 30
0.0
 11
190.27206585609991
 21
342.81829642962242
 31
0.0
  0
ARC
  5
30B
  8
C4
 10
201.77206585609991
 20
333.18705262475038
 30
0.0
 40
4.5
 50
90.0
 51
180.0
  0
LINE
  5
30C
  8
C4
 10
197.2720658560998
 20
322.41829642962239
 30
0.0
 11
201.77206585609991
 21
322.41829642962239
 31
0.0
  0
LINE
  5
30D
  8
C4
 10
190.27206585609991
 20
343.01829642962241
 30
0.0
 11
190.27206585609991
 21
318.41829642962239
 31
0.0
  0
LINE
  5
30E
  8
C4
 10
197.27206585609991
 20
322.41829642962239
 30
0.0
 11
197.27206585609991
 21
333.18705262475038
 31
0.0
  0
LINE
  5
30F
  8
C4
 10
190.27206585609991
 20
326.21862750613542
 30
0.0
 11
197.27206585609991
 21
326.21862750613542
 31
0.0
  0
LINE
  5
310
  8
C4
 10
190.27206585609991
 20
335.20515426848971
 30
0.0
 11
197.7499686723491
 21
335.20515426848982
 31
0.0
  0
LINE
  5
311
  8
C4
 10
213.27206585609991
 20
343.01829642962241
 30
0.0
 11
213.27206585609991
 21
318.41829642962239
 31
0.0
  0
LINE
  5
312
  8
C4
 10
206.27206585609991
 20
322.41829642962239
 30
0.0
 11
206.27206585609991
 21
333.18705262475038
 31
0.0
  0
LINE
  5
313
  8
C4
 10
213.27206585609991
 20
326.21862750613542
 30
0.0
 11
206.27206585609991
 21
326.21862750613542
 31
0.0
  0
LINE
  5
314
  8
C4
 10
206.2720658561
 20
322.41829642962239
 30
0.0
 11
201.77206585609991
 21
322.41829642962239
 31
0.0
  0
LINE
  5
315
  8
C4
 10
213.27206585609991
 20
335.20515426848971
 30
0.0
 11
205.79416303985079
 21
335.20515426848982
 31
0.0
  0
LINE
  5
316
  8
C4
 10
213.27206585609991
 20
341.20975948018508
 30
0.0
 11
201.77206585609991
 21
341.20975948018508
 31
0.0
  0
LINE
  5
317
  8
C4
 10
201.77206585609991
 20
342.81829642962242
 30
0.0
 11
213.27206585609991
 21
342.81829642962242
 31
0.0
  0
ARC
  5
318
  8
C4
 10
201.77206585609991
 20
333.18705262475038
 30
0.0
 40
4.5
 50
0.0
 51
90.0
  0
LINE
  5
319
  8
C4
 10
184.77206585609991
 20
343.51829642962241
 30
0.0
 11
189.77206585609991
 21
343.51829642962241
 31
0.0
  0
ARC
  5
31A
  8
C4
 10
218.77206585609991
 20
343.01829642962241
 30
0.0
 40
0.5
 50
0.0
 51
90.0
  0
LINE
  5
31B
  8
1外形線
 10
299.27206585610008
 20
468.5182964296252
 30
0.0
 11
21.27206585609985
 21
468.5182964296252
 31
0.0
  0
LINE
  5
31C
  8
1外形線
 10
21.27206585609985
 20
685.61829642962812
 30
0.0
 11
299.27206585610008
 21
685.61829642962812
 31
0.0
  0
LINE
  5
31D
  8
C4
 10
135.2720658560998
 20
519.7182964296253
 30
0.0
 11
135.2720658560998
 21
535.7182964296253
 31
0.0
  0
LINE
  5
31E
  8
C4
 10
128.5220658560998
 20
533.51829642962525
 30
0.0
 11
128.52206585609991
 21
505.19460888134751
 31
0.0
  0
LINE
  5
31F
  8
C4
 10
133.2720658560998
 20
511.23301505538672
 30
0.0
 11
133.2720658560998
 21
533.51829642962525
 31
0.0
  0
LINE
  5
320
  8
C4
 10
139.2720658560998
 20
519.71829642962473
 30
0.0
 11
139.27206585609991
 21
527.51829642962525
 31
0.0
  0
LINE
  5
321
  8
C4
 10
75.272065856099843
 20
519.7182964296253
 30
0.0
 11
75.272065856099843
 21
535.7182964296253
 31
0.0
  0
LINE
  5
322
  8
C4
 10
82.022065856099843
 20
533.51829642962525
 30
0.0
 11
82.022065856099744
 21
505.19460888134751
 31
0.0
  0
LINE
  5
323
  8
C4
 10
77.272065856099857
 20
511.23301505538672
 30
0.0
 11
77.272065856099857
 21
533.51829642962525
 31
0.0
  0
LINE
  5
324
  8
C4
 10
71.272065856099857
 20
519.71829642962473
 30
0.0
 11
71.272065856099744
 21
527.51829642962525
 31
0.0
  0
TEXT
  5
325
  8
1外形線
 10
71.272063864634106
 20
438.51829563802733
 30
0.0
 40
10.0
  1
SFJ-77
  7
KANJI
  0
ARC
  5
326
  8
C4
 10
94.272065856099843
 20
519.7182964296253
 30
0.0
 40
17.0
 50
223.8969323911804
 51
270.0
  0
ARC
  5
327
  8
C4
 10
94.272065856099843
 20
519.7182964296253
 30
0.0
 40
19.0
 50
180.0
 51
270.0
  0
LINE
  5
328
  8
C4
 10
105.2720658560998
 20
498.5182964296252
 30
0.0
 11
92.472065856099903
 21
498.5182964296252
 31
0.0
  0
LINE
  5
329
  8
C4
 10
112.7720658560998
 20
408.5182964296252
 30
0.0
 11
71.772065856099857
 21
408.5182964296252
 31
0.0
  0
ARC
  5
32A
  8
C4
 10
71.772065856099857
 20
408.0182964296252
 30
0.0
 40
0.5
 50
90.0
 51
180.0
  0
ARC
  5
32B
  8
C4
 10
92.472065856099903
 20
519.7182964296253
 30
0.0
 40
21.199999999999999
 50
180.0
 51
270.0
  0
LINE
  5
32C
  8
C4
 10
112.7720658560998
 20
408.5182964296252
 30
0.0
 11
153.7720658560998
 21
408.5182964296252
 31
0.0
  0
ARC
  5
32D
  8
C4
 10
153.7720658560998
 20
408.0182964296252
 30
0.0
 40
0.5
 50
0.0
 51
90.0
  0
ARC
  5
32E
  8
C4
 10
116.2720658560998
 20
519.7182964296253
 30
0.0
 40
17.0
 50
270.0
 51
316.10306760881952
  0
ARC
  5
32F
  8
C4
 10
116.2720658560998
 20
519.7182964296253
 30
0.0
 40
19.0
 50
270.0
 51
0.0
  0
ARC
  5
330
  8
C4
 10
118.0720658560998
 20
519.7182964296253
 30
0.0
 40
21.199999999999999
 50
270.0
 51
0.0
  0
LINE
  5
331
  8
C4
 10
105.2720658560998
 20
500.71829642962518
 30
0.0
 11
116.2720658560998
 21
500.71829642962518
 31
0.0
  0
LINE
  5
332
  8
C4
 10
105.2720658560998
 20
502.7182964296253
 30
0.0
 11
116.2720658560998
 21
502.7182964296253
 31
0.0
  0
LINE
  5
333
  8
C4
 10
105.2720658560998
 20
498.5182964296252
 30
0.0
 11
118.0720658560998
 21
498.5182964296252
 31
0.0
  0
LINE
  5
334
  8
C4
 10
105.2720658560998
 20
500.71829642962518
 30
0.0
 11
94.272065856099843
 21
500.71829642962518
 31
0.0
  0
LINE
  5
335
  8
C4
 10
105.2720658560998
 20
502.7182964296253
 30
0.0
 11
94.272065856099843
 21
502.7182964296253
 31
0.0
  0
ARC
  5
336
  8
1外形線
 10
95.472065856099789
 20
536.41829642962523
 30
0.0
 40
24.199999999999989
 50
90.0
 51
180.0
  0
ARC
  5
337
  8
1外形線
 10
97.272065856099857
 20
535.7182964296253
 30
0.0
 40
20.0
 50
90.0
 51
126.8698976458446
  0
ARC
  5
338
  8
1外形線
 10
97.272065856099857
 20
535.7182964296253
 30
0.0
 40
22.0
 50
90.0
 51
180.0
  0
LINE
  5
339
  8
C4
 10
105.2720658560998
 20
596.61829642962505
 30
0.0
 11
71.772065856099857
 21
596.618296429628
 31
0.0
  0
LINE
  5
33A
  8
C4
 10
71.772065856099857
 20
619.61829642962812
 30
0.0
 11
105.2720658560998
 21
619.61829642962812
 31
0.0
  0
LINE
  5
33B
  8
C4
 10
105.2720658560998
 20
625.618296429628
 30
0.0
 11
71.772065856099857
 21
625.618296429628
 31
0.0
  0
LINE
  5
33C
  8
C4
 10
71.772065856099857
 20
590.61829642962812
 30
0.0
 11
105.2720658560998
 21
590.61829642962516
 31
0.0
  0
LINE
  5
33D
  8
C4
 10
85.272065856099857
 20
554.15738534421109
 30
0.0
 11
85.272065856099857
 21
535.51829642962525
 31
0.0
  0
LINE
  5
33E
  8
C4
 10
84.022065856099857
 20
533.51829642962525
 30
0.0
 11
77.272065856099857
 21
533.51829642962537
 31
0.0
  0
LINE
  5
33F
  8
C4
 10
77.272065856099857
 20
532.51829642962525
 30
0.0
 11
77.272065856100312
 21
544.88344781953788
 31
0.0
  0
LINE
  5
340
  8
C4
 10
71.272065856099744
 20
533.51829642962537
 30
0.0
 11
71.972065856099789
 21
533.51829642962537
 31
0.0
  0
LINE
  5
341
  8
C4
 10
71.272065856099744
 20
527.51829642962525
 30
0.0
 11
71.972065856099789
 21
527.51829642962525
 31
0.0
  0
LINE
  5
342
  8
1外形線
 10
71.272065856099744
 20
536.41829642962523
 30
0.0
 11
71.272065856099744
 21
533.51829642962537
 31
0.0
  0
ARC
  5
343
  8
C4
 10
74.272065856099857
 20
535.01829642962525
 30
0.0
 40
0.5
 50
90.0
 51
180.0
  0
LINE
  5
344
  8
C4
 10
75.272065856099843
 20
535.51829642962525
 30
0.0
 11
74.272065856099857
 21
535.51829642962525
 31
0.0
  0
POLYLINE
  5
345
  8
C4
 66
     1
 10
0.0
 20
0.0
 30
0.0
  0
VERTEX
  5
3FC
  8
C4
 10
73.772065856099857
 20
530.51829642962525
 30
0.0
  0
VERTEX
  5
3FD
  8
C4
 10
72.87206585609988
 20
530.51829642962525
 30
0.0
  0
SEQEND
  5
3FE
  8
C4
  0
LINE
  5
346
  8
C4
 10
75.272065856099843
 20
530.51829642962525
 30
0.0
 11
77.272065856099857
 21
530.51829642962525
 31
0.0
  0
POLYLINE
  5
347
  8
C4
 66
     1
 10
0.0
 20
0.0
 30
0.0
  0
VERTEX
  5
3FF
  8
C4
 10
75.272065856099843
 20
527.51829642962525
 30
0.0
  0
VERTEX
  5
400
  8
C4
 10
77.272065856099857
 20
527.51829642962525
 30
0.0
  0
SEQEND
  5
401
  8
C4
  0
LINE
  5
348
  8
C4
 10
73.772065856099857
 20
530.51829642962525
 30
0.0
 11
73.772065856099857
 21
535.01829642962525
 31
0.0
  0
LINE
  5
349
  8
C4
 10
71.972065856099789
 20
533.51829642962537
 30
0.0
 11
72.87206585609988
 21
530.51829642962525
 31
0.0
  0
LINE
  5
34A
  8
C4
 10
71.972065856099789
 20
527.51829642962525
 30
0.0
 11
72.87206585609988
 21
530.51829642962525
 31
0.0
  0
LINE
  5
34B
  8
C4
 10
84.022065856099857
 20
535.51829642962525
 30
0.0
 11
84.022065856099857
 21
533.51829642962525
 31
0.0
  0
LINE
  5
34C
  8
C4
 10
84.022065856099857
 20
535.51829642962525
 30
0.0
 11
85.272065856099857
 21
535.51829642962525
 31
0.0
  0
LINE
  5
34D
  8
1外形線
 10
79.414161111671547
 20
612.57225126581272
 30
0.0
 11
79.414161111671547
 21
619.61829642962812
 31
0.0
  0
LINE
  5
34E
  8
1外形線
 10
73.777048229925299
 20
612.61829642962812
 30
0.0
 11
73.777048229925413
 21
619.61829642962812
 31
0.0
  0
LINE
  5
34F
  8
1外形線
 10
87.783775218555775
 20
596.61829642962675
 30
0.0
 11
87.783775218555775
 21
619.61829642962812
 31
0.0
  0
LINE
  5
350
  8
C4
 10
71.972065856099789
 20
619.61829642962812
 30
0.0
 11
71.972065856099789
 21
596.618296429628
 31
0.0
  0
CIRCLE
  5
351
  8
C4
 10
78.772065856099857
 20
608.11829642962812
 30
0.0
 40
2.0
  0
CIRCLE
  5
352
  8
C4
 10
78.772065856099857
 20
608.11829642962812
 30
0.0
 40
1.7
  0
ARC
  5
353
  8
C4
 10
78.772065856099857
 20
608.11829642962812
 30
0.0
 40
4.5
 50
270.0
 51
90.0
  0
LINE
  5
354
  8
1外形線
 10
73.777048229925413
 20
596.618296429628
 30
0.0
 11
73.777048229925299
 21
603.61829642962812
 31
0.0
  0
ARC
  5
355
  8
C4
 10
71.772065856099857
 20
596.11829642962812
 30
0.0
 40
0.5
 50
90.0
 51
180.0
  0
ARC
  5
356
  8
C4
 10
71.772065856099857
 20
591.11829642962812
 30
0.0
 40
0.5
 50
180.0
 51
270.0
  0
LINE
  5
357
  8
C4
 10
71.272065856099857
 20
596.11829642962812
 30
0.0
 11
71.272065856099857
 21
591.11829642962812
 31
0.0
  0
LINE
  5
358
  8
C4
 10
78.772065856099857
 20
603.61829642962812
 30
0.0
 11
71.972065856099789
 21
603.61829642962812
 31
0.0
  0
LINE
  5
359
  8
C4
 10
78.772065856099857
 20
612.61829642962812
 30
0.0
 11
71.972065856099789
 21
612.61829642962812
 31
0.0
  0
LINE
  5
35A
  8
1外形線
 10
79.414161111671547
 20
596.61829642962743
 30
0.0
 11
79.414161111671547
 21
603.66434159344351
 31
0.0
  0
ARC
  5
35B
  8
C4
 10
71.772065856099857
 20
625.11829642962812
 30
0.0
 40
0.5
 50
90.0
 51
180.0
  0
ARC
  5
35C
  8
C4
 10
71.772065856099857
 20
620.11829642962812
 30
0.0
 40
0.5
 50
180.0
 51
270.0
  0
LINE
  5
35D
  8
C4
 10
71.272065856099857
 20
625.11829642962812
 30
0.0
 11
71.272065856099857
 21
620.11829642962812
 31
0.0
  0
ARC
  5
35E
  8
1外形線
 10
113.2720658560998
 20
535.7182964296253
 30
0.0
 40
20.0
 50
53.130102354155369
 51
90.0
  0
ARC
  5
35F
  8
1外形線
 10
113.2720658560998
 20
535.7182964296253
 30
0.0
 40
22.0
 50
0.0
 51
90.0
  0
ARC
  5
360
  8
1外形線
 10
115.0720658560999
 20
536.41829642962523
 30
0.0
 40
24.199999999999989
 50
0.0
 51
90.0
  0
LINE
  5
361
  8
C4
 10
113.2720658560998
 20
557.7182964296253
 30
0.0
 11
105.2720658560998
 21
557.7182964296253
 31
0.0
  0
LINE
  5
362
  8
C4
 10
113.2720658560998
 20
555.71829642962518
 30
0.0
 11
105.2720658560998
 21
555.71829642962518
 31
0.0
  0
LINE
  5
363
  8
C4
 10
115.0720658560999
 20
560.61829642962527
 30
0.0
 11
105.2720658560998
 21
560.61829642962527
 31
0.0
  0
LINE
  5
364
  8
C4
 10
95.472065856099789
 20
560.61829642962527
 30
0.0
 11
105.2720658560998
 21
560.61829642962527
 31
0.0
  0
LINE
  5
365
  8
C4
 10
97.272065856099857
 20
557.7182964296253
 30
0.0
 11
105.2720658560998
 21
557.7182964296253
 31
0.0
  0
LINE
  5
366
  8
C4
 10
97.272065856099857
 20
555.71829642962518
 30
0.0
 11
105.2720658560998
 21
555.71829642962518
 31
0.0
  0
LINE
  5
367
  8
SUNPOU
 10
98.472065856099789
 20
560.61829642962527
 30
0.0
 11
98.472065856099789
 21
560.61829642962527
 31
0.0
  0
LINE
  5
368
  8
SUNPOU
 10
112.0720658560999
 20
560.61829642962527
 30
0.0
 11
112.0720658560999
 21
560.61829642962527
 31
0.0
  0
LINE
  5
369
  8
C4
 10
125.2720658560998
 20
554.15738534421109
 30
0.0
 11
125.2720658560998
 21
535.51829642962525
 31
0.0
  0
LINE
  5
36A
  8
C4
 10
133.2720658560998
 20
532.51829642962525
 30
0.0
 11
133.2720658560994
 21
544.88344781953788
 31
0.0
  0
LINE
  5
36B
  8
C4
 10
126.5220658560998
 20
533.51829642962525
 30
0.0
 11
133.2720658560998
 21
533.51829642962537
 31
0.0
  0
LINE
  5
36C
  8
C4
 10
126.5220658560998
 20
535.51829642962525
 30
0.0
 11
125.2720658560998
 21
535.51829642962525
 31
0.0
  0
LINE
  5
36D
  8
C4
 10
126.5220658560998
 20
535.51829642962525
 30
0.0
 11
126.5220658560998
 21
533.51829642962525
 31
0.0
  0
ARC
  5
36E
  8
C4
 10
136.2720658560998
 20
535.01829642962525
 30
0.0
 40
0.5
 50
0.0
 51
90.0
  0
LINE
  5
36F
  8
C4
 10
135.2720658560998
 20
535.51829642962525
 30
0.0
 11
136.2720658560998
 21
535.51829642962525
 31
0.0
  0
LINE
  5
370
  8
C4
 10
139.27206585609991
 20
533.51829642962537
 30
0.0
 11
138.5720658560999
 21
533.51829642962537
 31
0.0
  0
LINE
  5
371
  8
1外形線
 10
139.27206585609991
 20
536.41829642962523
 30
0.0
 11
139.27206585609991
 21
533.51829642962537
 31
0.0
  0
LINE
  5
372
  8
C4
 10
135.2720658560998
 20
530.51829642962525
 30
0.0
 11
133.2720658560998
 21
530.51829642962525
 31
0.0
  0
POLYLINE
  5
373
  8
C4
 66
     1
 10
0.0
 20
0.0
 30
0.0
  0
VERTEX
  5
402
  8
C4
 10
135.2720658560998
 20
527.51829642962525
 30
0.0
  0
VERTEX
  5
403
  8
C4
 10
133.2720658560998
 20
527.51829642962525
 30
0.0
  0
SEQEND
  5
404
  8
C4
  0
LINE
  5
374
  8
C4
 10
138.5720658560999
 20
527.51829642962525
 30
0.0
 11
137.67206585609981
 21
530.51829642962525
 31
0.0
  0
LINE
  5
375
  8
C4
 10
139.27206585609991
 20
527.51829642962525
 30
0.0
 11
138.5720658560999
 21
527.51829642962525
 31
0.0
  0
POLYLINE
  5
376
  8
C4
 66
     1
 10
0.0
 20
0.0
 30
0.0
  0
VERTEX
  5
405
  8
C4
 10
136.7720658560998
 20
530.51829642962525
 30
0.0
  0
VERTEX
  5
406
  8
C4
 10
137.67206585609981
 20
530.51829642962525
 30
0.0
  0
SEQEND
  5
407
  8
C4
  0
LINE
  5
377
  8
C4
 10
136.7720658560998
 20
530.51829642962525
 30
0.0
 11
136.7720658560998
 21
535.01829642962525
 31
0.0
  0
LINE
  5
378
  8
C4
 10
138.5720658560999
 20
533.51829642962537
 30
0.0
 11
137.67206585609981
 21
530.51829642962525
 31
0.0
  0
LINE
  5
379
  8
C4
 10
105.2720658560998
 20
596.61829642962505
 30
0.0
 11
138.7720658560998
 21
596.618296429628
 31
0.0
  0
LINE
  5
37A
  8
C4
 10
138.7720658560998
 20
619.61829642962812
 30
0.0
 11
105.2720658560998
 21
619.61829642962812
 31
0.0
  0
LINE
  5
37B
  8
C4
 10
105.2720658560998
 20
625.618296429628
 30
0.0
 11
138.7720658560998
 21
625.618296429628
 31
0.0
  0
LINE
  5
37C
  8
C4
 10
138.7720658560998
 20
590.61829642962812
 30
0.0
 11
105.2720658560998
 21
590.61829642962516
 31
0.0
  0
LINE
  5
37D
  8
1外形線
 10
122.7603564936439
 20
596.61829642962675
 30
0.0
 11
122.7603564936439
 21
619.61829642962812
 31
0.0
  0
LINE
  5
37E
  8
C4
 10
138.5720658560999
 20
619.61829642962812
 30
0.0
 11
138.5720658560999
 21
596.618296429628
 31
0.0
  0
LINE
  5
37F
  8
1外形線
 10
136.76708348227439
 20
612.61829642962812
 30
0.0
 11
136.7670834822743
 21
619.61829642962812
 31
0.0
  0
LINE
  5
380
  8
1外形線
 10
131.12997060052811
 20
612.57225126581272
 30
0.0
 11
131.12997060052811
 21
619.61829642962812
 31
0.0
  0
LINE
  5
381
  8
1外形線
 10
136.7670834822743
 20
596.618296429628
 30
0.0
 11
136.76708348227439
 21
603.61829642962812
 31
0.0
  0
LINE
  5
382
  8
1外形線
 10
131.12997060052811
 20
596.61829642962743
 30
0.0
 11
131.12997060052811
 21
603.66434159344351
 31
0.0
  0
ARC
  5
383
  8
C4
 10
138.7720658560998
 20
596.11829642962812
 30
0.0
 40
0.5
 50
0.0
 51
90.0
  0
ARC
  5
384
  8
C4
 10
138.7720658560998
 20
591.11829642962812
 30
0.0
 40
0.5
 50
270.0
 51
0.0
  0
LINE
  5
385
  8
C4
 10
139.2720658560998
 20
596.11829642962812
 30
0.0
 11
139.2720658560998
 21
591.11829642962812
 31
0.0
  0
CIRCLE
  5
386
  8
C4
 10
131.7720658560998
 20
608.11829642962812
 30
0.0
 40
2.0
  0
CIRCLE
  5
387
  8
C4
 10
131.7720658560998
 20
608.11829642962812
 30
0.0
 40
1.7
  0
LINE
  5
388
  8
C4
 10
131.7720658560998
 20
603.61829642962812
 30
0.0
 11
138.5720658560999
 21
603.61829642962812
 31
0.0
  0
LINE
  5
389
  8
C4
 10
131.7720658560998
 20
612.61829642962812
 30
0.0
 11
138.5720658560999
 21
612.61829642962812
 31
0.0
  0
ARC
  5
38A
  8
C4
 10
131.7720658560998
 20
608.11829642962812
 30
0.0
 40
4.5
 50
90.0
 51
270.0
  0
ARC
  5
38B
  8
C4
 10
138.7720658560998
 20
625.11829642962812
 30
0.0
 40
0.5
 50
0.0
 51
90.0
  0
ARC
  5
38C
  8
C4
 10
138.7720658560998
 20
620.11829642962812
 30
0.0
 40
0.5
 50
270.0
 51
0.0
  0
LINE
  5
38D
  8
C4
 10
139.2720658560998
 20
625.11829642962812
 30
0.0
 11
139.2720658560998
 21
620.11829642962812
 31
0.0
  0
TEXT
  5
38E
  8
1外形線
 10
71.272063864634106
 20
655.61829563803008
 30
0.0
 40
10.0
  1
SFJ-66
  7
KANJI
  0
LINE
  5
38F
  8
C4
 10
204.27206585609991
 20
498.5182964296252
 30
0.0
 11
204.27206585609991
 21
560.11829642962527
 31
0.0
  0
LINE
  5
390
  8
C4
 10
198.27206585609991
 20
527.51829642962525
 30
0.0
 11
198.27206585609991
 21
498.5182964296252
 31
0.0
  0
LINE
  5
391
  8
C4
 10
169.27206585609991
 20
498.5182964296252
 30
0.0
 11
169.27206585609991
 21
560.11829642962527
 31
0.0
  0
LINE
  5
392
  8
C4
 10
175.27206585609991
 20
527.51829642962525
 30
0.0
 11
175.27206585609991
 21
498.5182964296252
 31
0.0
  0
LINE
  5
393
  8
1外形線
 10
198.27206585609991
 20
511.60540766348498
 30
0.0
 11
175.27206585609991
 21
511.60540766348498
 31
0.0
  0
LINE
  5
394
  8
1外形線
 10
198.27206585609991
 20
504.72763266847051
 30
0.0
 11
175.27206585609991
 21
504.72763266847051
 31
0.0
  0
LINE
  5
395
  8
1外形線
 10
198.27206585609991
 20
500.13205034038572
 30
0.0
 11
175.27206585609991
 21
500.13205034038572
 31
0.0
  0
LINE
  5
396
  8
C4
 10
186.77206585609991
 20
498.51829642962531
 30
0.0
 11
169.27206585609991
 21
498.5182964296252
 31
0.0
  0
LINE
  5
397
  8
C4
 10
186.77206585609991
 20
498.51829642962531
 30
0.0
 11
204.27206585609991
 21
498.5182964296252
 31
0.0
  0
LINE
  5
398
  8
1外形線
 10
198.27206585609991
 20
558.62505637052277
 30
0.0
 11
175.27206585609991
 21
558.62505637052277
 31
0.0
  0
ARC
  5
399
  8
C4
 10
186.77206585609991
 20
550.2870526247533
 30
0.0
 40
4.5
 50
90.0
 51
180.0
  0
LINE
  5
39A
  8
C4
 10
186.77206585609991
 20
559.91829642962523
 30
0.0
 11
175.27206585609991
 21
559.91829642962523
 31
0.0
  0
LINE
  5
39B
  8
C4
 10
182.2720658560998
 20
537.51829642962525
 30
0.0
 11
186.77206585609991
 21
537.51829642962525
 31
0.0
  0
LINE
  5
39C
  8
C4
 10
186.77206585609991
 20
530.51829642962525
 30
0.0
 11
169.27206585609991
 21
530.51829642962525
 31
0.0
  0
LINE
  5
39D
  8
C4
 10
186.77206585609991
 20
527.51829642962525
 30
0.0
 11
169.27206585609991
 21
527.51829642962525
 31
0.0
  0
LINE
  5
39E
  8
C4
 10
186.77206585609991
 20
533.51829642962525
 30
0.0
 11
169.27206585609991
 21
533.51829642962525
 31
0.0
  0
LINE
  5
39F
  8
C4
 10
175.27206585609991
 20
560.11829642962527
 30
0.0
 11
175.27206585609991
 21
533.51829642962525
 31
0.0
  0
LINE
  5
3A0
  8
C4
 10
182.2720658560998
 20
537.51829642962525
 30
0.0
 11
182.27206585609991
 21
550.2870526247533
 31
0.0
  0
LINE
  5
3A1
  8
1外形線
 10
182.27206585609991
 20
545.45025137858215
 30
0.0
 11
175.27206585609991
 21
545.45025137858215
 31
0.0
  0
ARC
  5
3A2
  8
C4
 10
169.77206585609991
 20
560.11829642962527
 30
0.0
 40
0.5
 50
90.0
 51
180.0
  0
LINE
  5
3A3
  8
1外形線
 10
183.7009908292344
 20
553.57620117405327
 30
0.0
 11
175.27206585609991
 21
553.57620117405327
 31
0.0
  0
ARC
  5
3A4
  8
C4
 10
174.77206585609991
 20
560.11829642962527
 30
0.0
 40
0.5
 50
0.0
 51
90.0
  0
LINE
  5
3A5
  8
C4
 10
169.77206585609991
 20
560.61829642962527
 30
0.0
 11
174.77206585609991
 21
560.61829642962527
 31
0.0
  0
LINE
  5
3A6
  8
C4
 10
198.27206585609991
 20
560.11829642962527
 30
0.0
 11
198.2720658561
 21
533.51829642962525
 31
0.0
  0
ARC
  5
3A7
  8
C4
 10
186.77206585609991
 20
550.2870526247533
 30
0.0
 40
4.5
 50
0.0
 51
90.0
  0
LINE
  5
3A8
  8
C4
 10
186.77206585609991
 20
527.51829642962525
 30
0.0
 11
204.27206585609991
 21
527.51829642962525
 31
0.0
  0
LINE
  5
3A9
  8
C4
 10
186.77206585609991
 20
530.51829642962525
 30
0.0
 11
204.27206585609991
 21
530.51829642962525
 31
0.0
  0
LINE
  5
3AA
  8
C4
 10
186.77206585609991
 20
533.51829642962525
 30
0.0
 11
204.27206585609991
 21
533.51829642962525
 31
0.0
  0
LINE
  5
3AB
  8
C4
 10
191.2720658561
 20
537.51829642962525
 30
0.0
 11
191.27206585609991
 21
550.2870526247533
 31
0.0
  0
LINE
  5
3AC
  8
C4
 10
191.2720658561
 20
537.51829642962525
 30
0.0
 11
186.77206585609991
 21
537.51829642962525
 31
0.0
  0
LINE
  5
3AD
  8
1外形線
 10
198.2720658561
 20
545.45025137858215
 30
0.0
 11
191.27206585609991
 21
545.45025137858215
 31
0.0
  0
LINE
  5
3AE
  8
C4
 10
203.77206585609991
 20
560.61829642962527
 30
0.0
 11
198.77206585609991
 21
560.61829642962527
 31
0.0
  0
LINE
  5
3AF
  8
1外形線
 10
198.27206585609991
 20
553.57620117405327
 30
0.0
 11
189.8431408829654
 21
553.57620117405327
 31
0.0
  0
LINE
  5
3B0
  8
C4
 10
186.77206585609991
 20
559.91829642962523
 30
0.0
 11
198.27206585609991
 21
559.91829642962523
 31
0.0
  0
ARC
  5
3B1
  8
C4
 10
198.77206585609991
 20
560.11829642962527
 30
0.0
 40
0.5
 50
90.0
 51
180.0
  0
ARC
  5
3B2
  8
C4
 10
203.77206585609991
 20
560.11829642962527
 30
0.0
 40
0.5
 50
0.0
 51
90.0
  0
ENDSEC
  0
EOF
