  0
SECTION
  2
HEADER
  9
$ACADVER
  1
AC1009
  9
$INSBASE
 10
0.0
 20
0.0
 30
0.0
  9
$EXTMIN
 10
22.678487000130641
 20
20.56153983832678
 30
0.0
  9
$EXTMAX
 10
388.67848700013383
 20
1060.244105802768
 30
0.0
  9
$LIMMIN
 10
0.0
 20
0.0
  9
$LIMMAX
 10
420.0
 20
297.0
  9
$ORTHOMODE
 70
     0
  9
$REGENMODE
 70
     1
  9
$FILLMODE
 70
     1
  9
$QTEXTMODE
 70
     0
  9
$MIRRTEXT
 70
     1
  9
$DRAGMODE
 70
     2
  9
$LTSCALE
 40
1.0
  9
$OSMODE
 70
    37
  9
$ATTMODE
 70
     1
  9
$TEXTSIZE
 40
2.5
  9
$TRACEWID
 40
1.0
  9
$TEXTSTYLE
  7
STANDARD
  9
$CLAYER
  8
0
  9
$CELTYPE
  6
BYLAYER
  9
$CECOLOR
 62
   256
  9
$DIMSCALE
 40
1.0
  9
$DIMASZ
 40
2.5
  9
$DIMEXO
 40
0.625
  9
$DIMDLI
 40
3.75
  9
$DIMRND
 40
0.0
  9
$DIMDLE
 40
0.0
  9
$DIMEXE
 40
1.25
  9
$DIMTP
 40
0.0
  9
$DIMTM
 40
0.0
  9
$DIMTXT
 40
2.5
  9
$DIMCEN
 40
2.5
  9
$DIMTSZ
 40
0.0
  9
$DIMTOL
 70
     0
  9
$DIMLIM
 70
     0
  9
$DIMTIH
 70
     0
  9
$DIMTOH
 70
     0
  9
$DIMSE1
 70
     0
  9
$DIMSE2
 70
     0
  9
$DIMTAD
 70
     1
  9
$DIMZIN
 70
     8
  9
$DIMBLK
  1

  9
$DIMASO
 70
     1
  9
$DIMSHO
 70
     1
  9
$DIMPOST
  1

  9
$DIMAPOST
  1

  9
$DIMALT
 70
     0
  9
$DIMALTD
 70
     3
  9
$DIMALTF
 40
0.03937007874016
  9
$DIMLFAC
 40
1.0
  9
$DIMTOFL
 70
     1
  9
$DIMTVP
 40
0.0
  9
$DIMTIX
 70
     0
  9
$DIMSOXD
 70
     0
  9
$DIMSAH
 70
     0
  9
$DIMBLK1
  1

  9
$DIMBLK2
  1

  9
$DIMSTYLE
  2
ISO-25
  9
$DIMCLRD
 70
     0
  9
$DIMCLRE
 70
     0
  9
$DIMCLRT
 70
     0
  9
$DIMTFAC
 40
1.0
  9
$DIMGAP
 40
0.625
  9
$LUNITS
 70
     2
  9
$LUPREC
 70
     4
  9
$SKETCHINC
 40
1.0
  9
$FILLETRAD
 40
10.0
  9
$AUNITS
 70
     0
  9
$AUPREC
 70
     0
  9
$MENU
  1
.
  9
$ELEVATION
 40
0.0
  9
$PELEVATION
 40
0.0
  9
$THICKNESS
 40
0.0
  9
$LIMCHECK
 70
     0
  9
$BLIPMODE
 70
     0
  9
$CHAMFERA
 40
10.0
  9
$CHAMFERB
 40
10.0
  9
$SKPOLY
 70
     0
  9
$TDCREATE
 40
2452216.4839850231
  9
$TDUPDATE
 40
2452216.4841907518
  9
$TDINDWG
 40
0.0002061921
  9
$TDUSRTIMER
 40
0.0002061921
  9
$USRTIMER
 70
     1
  9
$ANGBASE
 50
0.0
  9
$ANGDIR
 70
     0
  9
$PDMODE
 70
     0
  9
$PDSIZE
 40
0.0
  9
$PLINEWID
 40
0.0
  9
$COORDS
 70
     1
  9
$SPLFRAME
 70
     0
  9
$SPLINETYPE
 70
     6
  9
$SPLINESEGS
 70
     8
  9
$ATTDIA
 70
     0
  9
$ATTREQ
 70
     1
  9
$HANDLING
 70
-16383
  9
$HANDSEED
  5
524
  9
$SURFTAB1
 70
     6
  9
$SURFTAB2
 70
     6
  9
$SURFTYPE
 70
     6
  9
$SURFU
 70
     6
  9
$SURFV
 70
     6
  9
$UCSNAME
  2

  9
$UCSORG
 10
0.0
 20
0.0
 30
0.0
  9
$UCSXDIR
 10
1.0
 20
0.0
 30
0.0
  9
$UCSYDIR
 10
0.0
 20
1.0
 30
0.0
  9
$PUCSNAME
  2

  9
$PUCSORG
 10
0.0
 20
0.0
 30
0.0
  9
$PUCSXDIR
 10
1.0
 20
0.0
 30
0.0
  9
$PUCSYDIR
 10
0.0
 20
1.0
 30
0.0
  9
$USERI1
 70
     0
  9
$USERI2
 70
     0
  9
$USERI3
 70
     0
  9
$USERI4
 70
     0
  9
$USERI5
 70
     0
  9
$USERR1
 40
0.0
  9
$USERR2
 40
0.0
  9
$USERR3
 40
0.0
  9
$USERR4
 40
0.0
  9
$USERR5
 40
0.0
  9
$WORLDVIEW
 70
     1
  9
$SHADEDGE
 70
     3
  9
$SHADEDIF
 70
    70
  9
$TILEMODE
 70
     1
  9
$MAXACTVP
 70
    64
  9
$PLIMCHECK
 70
     0
  9
$PEXTMIN
 10
1.0000000000000000E+020
 20
1.0000000000000000E+020
 30
1.0000000000000000E+020
  9
$PEXTMAX
 10
-1.0000000000000000E+020
 20
-1.0000000000000000E+020
 30
-1.0000000000000000E+020
  9
$PLIMMIN
 10
0.0
 20
0.0
  9
$PLIMMAX
 10
420.0
 20
297.0
  9
$UNITMODE
 70
     0
  9
$VISRETAIN
 70
     1
  9
$PLINEGEN
 70
     0
  9
$PSLTSCALE
 70
     1
  0
ENDSEC
  0
SECTION
  2
TABLES
  0
TABLE
  2
VPORT
 70
     3
  0
VPORT
  2
*ACTIVE
 70
     0
 10
0.0
 20
0.0
 11
1.0
 21
1.0
 12
212.36907582938389
 22
148.5
 13
0.0
 23
0.0
 14
10.0
 24
10.0
 15
10.0
 25
10.0
 16
0.0
 26
0.0
 36
1.0
 17
0.0
 27
0.0
 37
0.0
 40
297.0
 41
1.430094786729857
 42
50.0
 43
0.0
 44
0.0
 50
0.0
 51
0.0
 71
     0
 72
   100
 73
     1
 74
     3
 75
     0
 76
     0
 77
     0
 78
     0
  0
ENDTAB
  0
TABLE
  2
LTYPE
 70
     2
  0
LTYPE
  2
CONTINUOUS
 70
     0
  3
Solid line
 72
    65
 73
     0
 40
0.0
  0
LTYPE
  2
CENTER
 70
     0
  3
Center ____ _ ____ _ ____ _ ____ _ ____ _ ____
 72
    65
 73
     4
 40
50.799999999999997
 49
31.75
 49
-6.3499999999999988
 49
6.3499999999999988
 49
-6.3499999999999988
  0
ENDTAB
  0
TABLE
  2
LAYER
 70
     3
  0
LAYER
  2
0
 70
     0
 62
     7
  6
CONTINUOUS
  0
LAYER
  2
1外形線
 70
     0
 62
     3
  6
CONTINUOUS
  0
LAYER
  2
C4
 70
     0
 62
     3
  6
CONTINUOUS
  0
ENDTAB
  0
TABLE
  2
STYLE
 70
     2
  0
STYLE
  2
STANDARD
 70
     0
 40
0.0
 41
1.0
 50
0.0
 71
     0
 42
2.5
  3
txt
  4

  0
STYLE
  2
KANJI
 70
     0
 40
0.0
 41
1.0
 50
0.0
 71
     0
 42
2.5
  3
simplex.shx
  4
extfont.shx
  0
ENDTAB
  0
TABLE
  2
VIEW
 70
     0
  0
ENDTAB
  0
TABLE
  2
UCS
 70
     0
  0
ENDTAB
  0
TABLE
  2
APPID
 70
     1
  0
APPID
  2
ACAD
 70
     0
  0
ENDTAB
  0
TABLE
  2
DIMSTYLE
 70
     2
  0
DIMSTYLE
  2
ISO-25
 70
     0
  3

  4

  5

  6

  7

 40
1.0
 41
2.5
 42
0.625
 43
3.75
 44
1.25
 45
0.0
 46
0.0
 47
0.0
 48
0.0
140
2.5
141
2.5
142
0.0
143
0.03937007874016
144
1.0
145
0.0
146
1.0
147
0.625
 71
     0
 72
     0
 73
     0
 74
     0
 75
     0
 76
     0
 77
     1
 78
     8
170
     0
171
     3
172
     1
173
     0
174
     0
175
     0
176
     0
177
     0
178
     0
  0
DIMSTYLE
  2
STANDARD
 70
     0
  3

  4

  5

  6

  7

 40
1.0
 41
0.18
 42
0.0625
 43
0.38
 44
0.18
 45
0.0
 46
0.0
 47
0.0
 48
0.0
140
0.18
141
0.09
142
0.0
143
25.399999999999999
144
1.0
145
0.0
146
1.0
147
0.09
 71
     0
 72
     0
 73
     1
 74
     1
 75
     0
 76
     0
 77
     0
 78
     0
170
     0
171
     2
172
     0
173
     0
174
     0
175
     0
176
     0
177
     0
178
     0
  0
ENDTAB
  0
ENDSEC
  0
SECTION
  2
BLOCKS
  0
BLOCK
  8
0
  2
$MODEL_SPACE
 70
     0
 10
0.0
 20
0.0
 30
0.0
  3
$MODEL_SPACE
  1

  0
ENDBLK
  5
21
  8
0
  0
BLOCK
 67
     1
  8
0
  2
$PAPER_SPACE
 70
     0
 10
0.0
 20
0.0
 30
0.0
  3
$PAPER_SPACE
  1

  0
ENDBLK
  5
1D
 67
     1
  8
0
  0
BLOCK
  8
0
  2
2
 70
     0
 10
0.0
 20
0.0
 30
0.0
  3
2
  1

  0
INSERT
  5
2C
  8
0
  6
CONTINUOUS
  2
*U3
 10
0.0
 20
0.0
 30
0.0
1001
ACAD
1002
{
1000
R14_HATCH_DATA
1000
2C
1011
1.0
1021
0.0
1031
0.0000001193924035
1021
0.0
1031
0.0
1011
0.0
1021
0.0
1031
0.0000001193924035
1021
1.0
1031
0.0
1011
0.0
1021
0.0
1031
0.0000001193924035
1021
0.0
1031
1.0
1040
0.0
1010
0.0
1020
0.0
1030
1.0
1000
SOLID
1070
     1
1070
     1
1071
        1
1071
        7
1070
     0
1070
     1
1071
        3
1040
0.0000000000000284
1040
0.0
1040
-0.899999999998343
1040
0.2411542731875897
1040
-0.8999999999983572
1040
-0.2411542731875613
1071
        3
1005
2F
1005
2D
1005
30
1070
     0
1070
     1
1040
0.0028941747346077
1071
        1
1040
-0.5303136156475148
1040
-0.0796654556697263
1040
0.0
1002
}
  0
LINE
  5
2D
  8
0
 10
-0.8999999999983572
 20
0.2411542731879876
 30
0.0
 11
-0.8999999999983572
 21
-0.2411542731880445
 31
0.0
  0
LINE
  5
2E
  8
0
 10
-0.9999999999983515
 20
0.0
 30
0.0
 11
0.0
 21
0.0
 31
0.0
  0
LINE
  5
2F
  8
0
 10
-0.8999999999984424
 20
0.2411542731875897
 30
0.0
 11
0.0
 21
0.0
 31
0.0
  0
LINE
  5
30
  8
0
 10
-0.8999999999984424
 20
-0.2411542731875897
 30
0.0
 11
0.0
 21
0.0
 31
0.0
  0
ENDBLK
  5
32
  8
0
  0
BLOCK
  8
0
  2
*U3
 70
     1
 10
0.0
 20
0.0
 30
0.0
  3
*U3
  1

  0
SOLID
  5
4D7
  8
0
  6
CONTINUOUS
 10
-0.5999999999988905
 20
0.0000000000000095
 30
0.0
 11
0.0000000000000284
 21
0.0
 31
0.0
 12
-0.899999999998343
 22
0.2411542731875897
 32
0.0
 13
-0.899999999998343
 23
0.2411542731875897
 33
0.0
210
0.0
220
0.0
230
1.0
  0
SOLID
  5
4D8
  8
0
  6
CONTINUOUS
 10
-0.5999999999988905
 20
0.0000000000000095
 30
0.0
 11
-0.899999999998343
 21
0.2411542731875897
 31
0.0
 12
-0.8999999999983572
 22
-0.2411542731875613
 32
0.0
 13
-0.8999999999983572
 23
-0.2411542731875613
 33
0.0
  0
SOLID
  5
4D9
  8
0
  6
CONTINUOUS
 10
-0.5999999999988905
 20
0.0000000000000095
 30
0.0
 11
-0.8999999999983572
 21
-0.2411542731875613
 31
0.0
 12
0.0000000000000284
 22
0.0
 32
0.0
 13
0.0000000000000284
 23
0.0
 33
0.0
210
0.0
220
0.0
230
1.0
  0
ENDBLK
  5
4DB
  8
0
  0
ENDSEC
  0
SECTION
  2
ENTITIES
  0
LINE
  5
286
  8
1外形線
 10
388.67848700013383
 20
20.56153983832678
 30
0.0
 11
388.67848700013383
 21
1060.244105802768
 31
0.0
  0
LINE
  5
287
  8
1外形線
 10
22.678487000130641
 20
20.56153983832678
 30
0.0
 11
22.678487000130641
 21
1060.244105802768
 31
0.0
  0
TEXT
  5
288
  8
1外形線
 10
72.678487304709279
 20
284.66154006823012
 30
0.0
 40
10.0
  1
SJ-140
  7
KANJI
  0
TEXT
  5
289
  8
1外形線
 10
72.678487304709279
 20
545.66154006823012
 30
0.0
 40
10.0
  1
SJ-100
  7
KANJI
  0
TEXT
  5
28A
  8
1外形線
 10
72.678487304709279
 20
798.14410603267117
 30
0.0
 40
10.0
  1
SJ-77
  7
KANJI
  0
LINE
  5
28B
  8
1外形線
 10
22.678487000130641
 20
20.56153983832678
 30
0.0
 11
388.67848700013383
 21
20.56153983832678
 31
0.0
  0
LINE
  5
28C
  8
1外形線
 10
22.678487000130641
 20
314.66153983832629
 30
0.0
 11
388.67848700013383
 21
314.66153983832629
 31
0.0
  0
LINE
  5
28D
  8
1外形線
 10
22.678487000130641
 20
575.66153983832646
 30
0.0
 11
388.67848700013383
 21
575.66153983832646
 31
0.0
  0
LINE
  5
28E
  8
C4
 10
145.67848700013079
 20
254.66153983832641
 30
0.0
 11
73.678487000131099
 21
254.66153983832481
 31
0.0
  0
LINE
  5
28F
  8
C4
 10
73.678487000133813
 20
164.66153983832481
 30
0.0
 11
145.67848700013349
 21
164.6615398383266
 31
0.0
  0
LINE
  5
290
  8
C4
 10
73.1784870001336
 20
172.66153983832481
 30
0.0
 11
145.67848700013329
 21
172.66153983832689
 31
0.0
  0
LINE
  5
291
  8
C4
 10
145.6784870001313
 20
246.66153983832689
 30
0.0
 11
73.178487000131327
 21
246.66153983832481
 31
0.0
  0
ARC
  5
292
  8
C4
 10
81.178487000132449
 20
209.6615398383251
 30
0.0
 40
4.5
 50
270.0
 51
90.0
  0
ARC
  5
293
  8
C4
 10
81.178487000132449
 20
209.6615398383251
 30
0.0
 40
5.5
 50
270.0
 51
90.0
  0
LINE
  5
294
  8
C4
 10
87.516100586513403
 20
101.7615398383268
 30
0.0
 11
81.178487000133373
 21
101.7615398383268
 31
0.0
  0
ARC
  5
295
  8
C4
 10
101.6784870001331
 20
106.7615398383268
 30
0.0
 40
25.0
 50
90.0
 51
180.0
  0
ARC
  5
296
  8
C4
 10
100.57848700013299
 20
106.7615398383268
 30
0.0
 40
27.899999999999999
 50
90.0
 51
180.0
  0
ARC
  5
297
  8
C4
 10
101.6784870001331
 20
77.761539838326826
 30
0.0
 40
25.0
 50
180.0
 51
270.0
  0
ARC
  5
298
  8
C4
 10
100.57848700013299
 20
78.461539838326871
 30
0.0
 40
27.899999999999999
 50
180.0
 51
270.0
  0
ARC
  5
299
  8
1外形線
 10
100.6784870001306
 20
391.66153983832629
 30
0.0
 40
28.0
 50
90.0
 51
180.0
  0
ARC
  5
29A
  8
1外形線
 10
102.1784870001306
 20
391.66153983832629
 30
0.0
 40
25.0
 50
90.0
 51
180.0
  0
ARC
  5
29B
  8
1外形線
 10
97.678487000130644
 20
369.66153983832629
 30
0.0
 40
25.0
 50
180.0
 51
270.0
  0
ARC
  5
29C
  8
1外形線
 10
100.1784870001306
 20
369.66153983832629
 30
0.0
 40
23.0
 50
180.0
 51
270.0
  0
LINE
  5
29D
  8
1外形線
 10
73.678487000130644
 20
511.66153983832629
 30
0.0
 11
127.1784870001306
 21
511.66153983832629
 31
0.0
  0
LINE
  5
29E
  8
1外形線
 10
73.678487000130644
 20
515.66153983832635
 30
0.0
 11
127.1784870001306
 21
515.66153983832635
 31
0.0
  0
LINE
  5
29F
  8
1外形線
 10
127.1784870001306
 20
453.66153983832629
 30
0.0
 11
73.678487000130644
 21
453.66153983832629
 31
0.0
  0
LINE
  5
2A0
  8
1外形線
 10
127.1784870001308
 20
449.66153983832629
 30
0.0
 11
73.678487000130644
 21
449.66153983832629
 31
0.0
  0
LINE
  5
2A1
  8
1外形線
 10
73.178487000130644
 20
764.14410580276763
 30
0.0
 11
114.1784870001306
 21
764.14410580276763
 31
0.0
  0
LINE
  5
2A2
  8
1外形線
 10
114.1784870001306
 20
768.14410580276763
 30
0.0
 11
73.178487000130644
 21
768.14410580276763
 31
0.0
  0
LINE
  5
2A3
  8
1外形線
 10
73.178487000130644
 20
718.14410580276763
 30
0.0
 11
114.1784870001306
 21
718.14410580276478
 31
0.0
  0
LINE
  5
2A4
  8
1外形線
 10
114.1784870001306
 20
722.14410580276467
 30
0.0
 11
73.178487000130644
 21
722.14410580276763
 31
0.0
  0
LINE
  5
2A5
  8
1外形線
 10
77.143613860047026
 20
648.66153983832635
 30
0.0
 11
85.078487000130508
 21
648.66153983832635
 31
0.0
  0
ARC
  5
2A6
  8
1外形線
 10
101.6784870001306
 20
643.86153983832617
 30
0.0
 40
25.0
 50
90.0
 51
168.93047502662631
  0
ARC
  5
2A7
  8
1外形線
 10
98.678487000130872
 20
629.86153983832628
 30
0.0
 40
20.0
 50
224.80381563878061
 51
235.8123726628917
  0
ARC
  5
2A8
  8
1外形線
 10
96.878487000130704
 20
629.86153983832628
 30
0.0
 40
24.199999999999989
 50
180.0
 51
270.0
  0
ARC
  5
2A9
  8
1外形線
 10
98.678487000130872
 20
629.86153983832628
 30
0.0
 40
22.0
 50
180.0
 51
270.0
  0
ARC
  5
2AA
  8
1外形線
 10
99.87848700013069
 20
644.56153983832633
 30
0.0
 40
27.199999999999999
 50
90.0
 51
175.57202232530631
  0
LINE
  5
2AB
  8
C4
 10
84.678487000133146
 20
101.7615398383268
 30
0.0
 11
84.678487000133146
 21
59.431237058503477
 31
0.0
  0
LINE
  5
2AC
  8
C4
 10
79.178487000133146
 20
117.6587871971783
 30
0.0
 11
79.178487000133146
 21
66.864292479474898
 31
0.0
  0
LINE
  5
2AD
  8
C4
 10
73.378487000133418
 20
172.66153983832481
 30
0.0
 11
73.378487000131599
 21
246.66153983832481
 31
0.0
  0
LINE
  5
2AE
  8
1外形線
 10
75.428266697949084
 20
172.66153983832481
 30
0.0
 11
75.428266697949311
 21
204.16153983832459
 31
0.0
  0
LINE
  5
2AF
  8
1外形線
 10
81.761569331077226
 20
172.6615398383251
 30
0.0
 11
81.761569331077453
 21
204.1925349018363
 31
0.0
  0
LINE
  5
2B0
  8
C4
 10
72.678487000133146
 20
106.7615398383268
 30
0.0
 11
72.678487000133146
 21
101.7615398383268
 31
0.0
  0
LINE
  5
2B1
  8
C4
 10
75.178487000133146
 20
103.36153983832691
 30
0.0
 11
75.178487000132918
 21
99.161539838326931
 31
0.0
  0
LINE
  5
2B2
  8
C4
 10
81.178487000133373
 20
103.7615398383268
 30
0.0
 11
81.178487000133146
 21
101.7615398383268
 31
0.0
  0
LINE
  5
2B3
  8
C4
 10
76.678487000132904
 20
106.7615398383268
 30
0.0
 11
76.678487000133146
 21
77.761539838326826
 31
0.0
  0
LINE
  5
2B4
  8
C4
 10
73.378487000133191
 20
95.761539838326826
 30
0.0
 11
74.178487000132904
 21
98.761539838326826
 31
0.0
  0
LINE
  5
2B5
  8
C4
 10
74.778487000133055
 20
98.761539838326826
 30
0.0
 11
74.178487000132904
 21
98.761539838326826
 31
0.0
  0
ARC
  5
2B6
  8
C4
 10
74.778487000133055
 20
99.161539838326931
 30
0.0
 40
0.4
 50
270.0
 51
0.0
  0
LINE
  5
2B7
  8
C4
 10
72.678487000133146
 20
101.7615398383268
 30
0.0
 11
73.378487000133191
 21
101.7615398383268
 31
0.0
  0
LINE
  5
2B8
  8
C4
 10
74.178487000132904
 20
98.761539838326826
 30
0.0
 11
73.378487000133191
 21
101.7615398383268
 31
0.0
  0
LINE
  5
2B9
  8
C4
 10
72.678487000133146
 20
95.761539838326826
 30
0.0
 11
73.378487000133191
 21
95.761539838326826
 31
0.0
  0
LINE
  5
2BA
  8
C4
 10
72.678487000133146
 20
95.761539838326826
 30
0.0
 11
72.678487000133146
 21
77.761539838326826
 31
0.0
  0
ARC
  5
2BB
  8
C4
 10
75.578487000133009
 20
103.36153983832691
 30
0.0
 40
0.4
 50
90.0
 51
180.0
  0
LINE
  5
2BC
  8
C4
 10
76.678487000132904
 20
103.7615398383268
 30
0.0
 11
75.578487000133009
 21
103.7615398383268
 31
0.0
  0
LINE
  5
2BD
  8
C4
 10
81.178487000133146
 20
103.7615398383268
 30
0.0
 11
79.178487000133146
 21
103.7615398383268
 31
0.0
  0
ARC
  5
2BE
  8
C4
 10
73.678487000133813
 20
165.66153983832481
 30
0.0
 40
1.0
 50
180.0
 51
270.0
  0
ARC
  5
2BF
  8
C4
 10
73.1784870001336
 20
172.16153983832481
 30
0.0
 40
0.5
 50
90.0
 51
180.0
  0
LINE
  5
2C0
  8
C4
 10
72.6784870001336
 20
172.16153983832481
 30
0.0
 11
72.678487000133828
 21
165.66153983832481
 31
0.0
  0
LINE
  5
2C1
  8
1外形線
 10
75.428266697949539
 20
215.16153983832481
 30
0.0
 11
75.428266697949539
 21
246.66153983832481
 31
0.0
  0
LINE
  5
2C2
  8
1外形線
 10
81.761569331077453
 20
215.13054477481381
 30
0.0
 11
81.761569331077666
 21
246.66153983832501
 31
0.0
  0
CIRCLE
  5
2C3
  8
C4
 10
81.178487000132449
 20
209.6615398383251
 30
0.0
 40
2.0
  0
LINE
  5
2C4
  8
C4
  6
CONTINUOUS
 10
73.378487000132509
 20
205.16153983832481
 30
0.0
 11
81.178487000132691
 21
205.16153983832501
 31
0.0
  0
LINE
  5
2C5
  8
C4
  6
CONTINUOUS
 10
73.378487000132509
 20
204.16153983832481
 30
0.0
 11
81.178487000132691
 21
204.1615398383251
 31
0.0
  0
LINE
  5
2C6
  8
C4
  6
CONTINUOUS
 10
73.378487000132509
 20
214.16153983832481
 30
0.0
 11
81.178487000132236
 21
214.1615398383251
 31
0.0
  0
LINE
  5
2C7
  8
C4
  6
CONTINUOUS
 10
73.378487000132509
 20
215.16153983832481
 30
0.0
 11
81.178487000132236
 21
215.16153983832501
 31
0.0
  0
ARC
  5
2C8
  8
C4
 10
73.678487000131327
 20
253.66153983832481
 30
0.0
 40
1.0
 50
90.0
 51
180.0
  0
ARC
  5
2C9
  8
C4
 10
73.178487000131554
 20
247.16153983832481
 30
0.0
 40
0.5
 50
180.0
 51
270.0
  0
LINE
  5
2CA
  8
C4
 10
72.678487000131099
 20
253.66153983832481
 30
0.0
 11
72.678487000131327
 21
247.16153983832481
 31
0.0
  0
LINE
  5
2CB
  8
1外形線
 10
73.678487000130644
 20
381.66153983832629
 30
0.0
 11
74.178487000130644
 21
384.66153983832629
 31
0.0
  0
LINE
  5
2CC
  8
1外形線
 10
82.678487000130886
 20
354.73672828172693
 30
0.0
 11
82.678487000130886
 21
384.66153983832629
 31
0.0
  0
LINE
  5
2CD
  8
1外形線
 10
77.178487000130644
 20
391.66153983832629
 30
0.0
 11
77.178487000130644
 21
369.66153983832629
 31
0.0
  0
LINE
  5
2CE
  8
1外形線
 10
72.678487000130644
 20
381.66153983832629
 30
0.0
 11
73.678487000130644
 21
381.66153983832629
 31
0.0
  0
LINE
  5
2CF
  8
1外形線
 10
72.678487000130644
 20
381.66153983832629
 30
0.0
 11
72.678487000130644
 21
369.66153983832629
 31
0.0
  0
LINE
  5
2D0
  8
1外形線
 10
74.178487000130644
 20
384.66153983832629
 30
0.0
 11
75.678487000130644
 21
384.66153983832629
 31
0.0
  0
LINE
  5
2D1
  8
1外形線
 10
72.678487000130644
 20
391.66153983832629
 30
0.0
 11
72.678487000130644
 21
387.66153983832629
 31
0.0
  0
LINE
  5
2D2
  8
1外形線
 10
74.178487000130644
 20
384.66153983832629
 30
0.0
 11
73.678487000130644
 21
387.66153983832629
 31
0.0
  0
LINE
  5
2D3
  8
1外形線
 10
73.678487000130644
 20
387.66153983832629
 30
0.0
 11
72.678487000130644
 21
387.66153983832629
 31
0.0
  0
LINE
  5
2D4
  8
1外形線
 10
75.678487000130644
 20
384.66153983832629
 30
0.0
 11
75.678487000130644
 21
389.66153983832629
 31
0.0
  0
LINE
  5
2D5
  8
1外形線
 10
77.178487000130644
 20
386.66153983832629
 30
0.0
 11
78.178487000130644
 21
386.66153983832629
 31
0.0
  0
LINE
  5
2D6
  8
1外形線
 10
78.178487000130644
 20
386.66153983832629
 30
0.0
 11
78.178487000130644
 21
384.66153983832629
 31
0.0
  0
LINE
  5
2D7
  8
1外形線
 10
75.678487000130644
 20
389.66153983832629
 30
0.0
 11
77.178487000130644
 21
389.66153983832629
 31
0.0
  0
LINE
  5
2D8
  8
1外形線
 10
78.178487000130644
 20
384.66153983832629
 30
0.0
 11
83.678487000130644
 21
384.66153983832629
 31
0.0
  0
LINE
  5
2D9
  8
1外形線
 10
83.678487000130644
 20
384.66153983832629
 30
0.0
 11
83.678487000130644
 21
408.47671155912639
 31
0.0
  0
LINE
  5
2DA
  8
1外形線
 10
74.931245468767884
 20
487.16153983832629
 30
0.0
 11
74.931245468767884
 21
511.66153983832629
 31
0.0
  0
LINE
  5
2DB
  8
1外形線
 10
80.946829305201163
 20
486.79953035210201
 30
0.0
 11
80.946829305201163
 21
511.66153983832629
 31
0.0
  0
LINE
  5
2DC
  8
1外形線
 10
73.678487000130644
 20
511.66153983832629
 30
0.0
 11
73.678487000130644
 21
453.66153983832629
 31
0.0
  0
LINE
  5
2DD
  8
1外形線
 10
74.931245468767884
 20
453.66153983832629
 30
0.0
 11
74.931245468767884
 21
478.16153983832629
 31
0.0
  0
LINE
  5
2DE
  8
1外形線
 10
80.946829305201163
 20
453.66153983832629
 30
0.0
 11
80.946829305201163
 21
478.52354932455069
 31
0.0
  0
ARC
  5
2DF
  8
1外形線
 10
73.678487000130644
 20
452.66153983832629
 30
0.0
 40
1.0
 50
90.0
 51
180.0
  0
POINT
  5
2E0
  8
1外形線
  6
BYBLOCK
 62
     0
 10
73.678487000130644
 20
449.66153983832629
 30
0.0
  0
LINE
  5
2E1
  8
1外形線
 10
72.678487000130644
 20
452.66153983832629
 30
0.0
 11
72.678487000130644
 21
450.66153983832629
 31
0.0
  0
ARC
  5
2E2
  8
1外形線
 10
73.678487000130644
 20
450.66153983832629
 30
0.0
 40
1.0
 50
180.0
 51
270.0
  0
POINT
  5
2E3
  8
1外形線
  6
BYBLOCK
 62
     0
 10
73.678487000130644
 20
453.66153983832629
 30
0.0
  0
LINE
  5
2E4
  8
1外形線
 10
79.178487000130644
 20
487.16153983832629
 30
0.0
 11
73.678487000130644
 21
487.16153983832629
 31
0.0
  0
LINE
  5
2E5
  8
1外形線
 10
79.178487000130644
 20
478.16153983832629
 30
0.0
 11
73.678487000130644
 21
478.16153983832629
 31
0.0
  0
CIRCLE
  5
2E6
  8
1外形線
 10
79.178487000130644
 20
482.66153983832629
 30
0.0
 40
1.7
  0
ARC
  5
2E7
  8
1外形線
 10
79.178487000130644
 20
482.66153983832629
 30
0.0
 40
4.5
 50
270.0
 51
90.0
  0
ARC
  5
2E8
  8
1外形線
 10
73.678487000130644
 20
514.66153983832635
 30
0.0
 40
1.0
 50
90.0
 51
180.0
  0
ARC
  5
2E9
  8
1外形線
 10
73.678487000130644
 20
512.66153983832635
 30
0.0
 40
1.0
 50
180.0
 51
270.0
  0
LINE
  5
2EA
  8
1外形線
 10
72.678487000130644
 20
514.66153983832635
 30
0.0
 11
72.678487000130644
 21
512.66153983832635
 31
0.0
  0
LINE
  5
2EB
  8
1外形線
 10
76.678487000130644
 20
629.86153983832628
 30
0.0
 11
76.678487000130644
 21
648.66153983832635
 31
0.0
  0
LINE
  5
2EC
  8
1外形線
 10
72.678487000130644
 20
629.86153983832628
 30
0.0
 11
72.678487000130417
 21
640.66153983832635
 31
0.0
  0
LINE
  5
2ED
  8
1外形線
 10
81.828487000130508
 20
646.66153983832646
 30
0.0
 11
81.828487000130508
 21
615.7166644412082
 31
0.0
  0
LINE
  5
2EE
  8
1外形線
 10
82.778487000130553
 20
615.06322912392386
 30
0.0
 11
82.778487000130553
 21
614.65660642840976
 31
0.0
  0
ARC
  5
2EF
  8
1外形線
 10
83.778487000130781
 20
615.06322912392386
 30
0.0
 40
1.0
 50
44.803815638780641
 51
180.0
  0
LINE
  5
2F0
  8
1外形線
 10
83.828487000130508
 20
646.66153983832646
 30
0.0
 11
79.678487000130644
 21
646.66153983832646
 31
0.0
  0
LINE
  5
2F1
  8
1外形線
 10
75.178487000130644
 20
643.66153983832635
 30
0.0
 11
75.178487000130644
 21
648.16153983832635
 31
0.0
  0
POLYLINE
  5
2F2
  8
1外形線
 66
     1
 10
0.0
 20
0.0
 30
0.0
  0
VERTEX
  5
500
  8
1外形線
 10
75.178487000130644
 20
643.66153983832635
 30
0.0
  0
VERTEX
  5
501
  8
1外形線
 10
74.278487000130553
 20
643.66153983832635
 30
0.0
  0
SEQEND
  5
502
  8
1外形線
  0
ARC
  5
2F3
  8
1外形線
 10
75.678487000130872
 20
648.16153983832635
 30
0.0
 40
0.5
 50
90.0
 51
180.0
  0
LINE
  5
2F4
  8
1外形線
 10
77.143613860047026
 20
648.66153983832635
 30
0.0
 11
75.678487000130644
 21
648.66153983832635
 31
0.0
  0
LINE
  5
2F5
  8
1外形線
 10
79.678487000130644
 20
646.66153983832646
 30
0.0
 11
79.678487000130644
 21
648.66153983832635
 31
0.0
  0
LINE
  5
2F6
  8
1外形線
 10
72.678487000130644
 20
640.66153983832635
 30
0.0
 11
73.378487000130463
 21
640.66153983832635
 31
0.0
  0
LINE
  5
2F7
  8
1外形線
 10
72.759674341756181
 20
646.66153983832646
 30
0.0
 11
73.378487000130463
 21
646.66153983832646
 31
0.0
  0
LINE
  5
2F8
  8
1外形線
 10
73.378487000130463
 20
646.66153983832646
 30
0.0
 11
74.278487000130553
 21
643.66153983832635
 31
0.0
  0
LINE
  5
2F9
  8
1外形線
 10
73.378487000130463
 20
640.66153983832635
 30
0.0
 11
74.278487000130553
 21
643.66153983832635
 31
0.0
  0
LINE
  5
2FA
  8
1外形線
 10
83.828487000130508
 20
648.66153983832635
 30
0.0
 11
83.828487000130508
 21
646.66153983832646
 31
0.0
  0
LINE
  5
2FB
  8
1外形線
 10
80.991629161263063
 20
746.94236131157231
 30
0.0
 11
80.991629161263063
 21
764.14410580276763
 31
0.0
  0
LINE
  5
2FC
  8
1外形線
 10
74.987023949567856
 20
747.64410580276763
 30
0.0
 11
74.987023949567856
 21
764.14410580276763
 31
0.0
  0
LINE
  5
2FD
  8
1外形線
 10
73.378487000130463
 20
764.14410580276763
 30
0.0
 11
73.378487000130463
 21
722.14410580276763
 31
0.0
  0
LINE
  5
2FE
  8
1外形線
 10
74.987023949568083
 20
722.14410580276763
 30
0.0
 11
74.987023949567856
 21
738.64410580276763
 31
0.0
  0
LINE
  5
2FF
  8
1外形線
 10
80.991629161263063
 20
722.14410580276706
 30
0.0
 11
80.991629161263063
 21
739.34585029396294
 31
0.0
  0
ARC
  5
300
  8
1外形線
 10
73.178487000130644
 20
721.64410580276774
 30
0.0
 40
0.5
 50
90.0
 51
180.0
  0
LINE
  5
301
  8
1外形線
 10
72.678487000130644
 20
721.64410580276763
 30
0.0
 11
72.678487000130644
 21
718.64410580276763
 31
0.0
  0
ARC
  5
302
  8
1外形線
 10
73.178487000130644
 20
718.64410580276774
 30
0.0
 40
0.5
 50
180.0
 51
270.0
  0
CIRCLE
  5
303
  8
1外形線
 10
78.578487000130735
 20
743.14410580276774
 30
0.0
 40
2.0
  0
CIRCLE
  5
304
  8
1外形線
 10
78.578487000130735
 20
743.14410580276774
 30
0.0
 40
1.6000000000000001
  0
LINE
  5
305
  8
1外形線
 10
78.578487000130735
 20
747.64410580276763
 30
0.0
 11
74.878487000130463
 21
747.64410580276763
 31
0.0
  0
LINE
  5
306
  8
1外形線
 10
78.578487000130735
 20
738.64410580276763
 30
0.0
 11
74.878487000130463
 21
738.64410580276763
 31
0.0
  0
ARC
  5
307
  8
1外形線
 10
78.578487000130735
 20
743.14410580276774
 30
0.0
 40
4.5
 50
270.0
 51
90.0
  0
LINE
  5
308
  8
1外形線
 10
74.878487000130463
 20
747.64410580276763
 30
0.0
 11
74.878487000130463
 21
738.64410580276763
 31
0.0
  0
LINE
  5
309
  8
1外形線
 10
72.678487000130644
 20
767.64410580276763
 30
0.0
 11
72.678487000130644
 21
764.64410580276763
 31
0.0
  0
ARC
  5
30A
  8
1外形線
 10
73.178487000130644
 20
767.64410580276774
 30
0.0
 40
0.5
 50
90.0
 51
180.0
  0
ARC
  5
30B
  8
1外形線
 10
73.178487000130644
 20
764.64410580276774
 30
0.0
 40
0.5
 50
180.0
 51
270.0
  0
ARC
  5
30C
  8
C4
 10
337.67848700013423
 20
133.66153983832459
 30
0.0
 40
1.0
 50
0.0
 51
90.0
  0
LINE
  5
30D
  8
1外形線
 10
293.6784870001336
 20
95.761539838327053
 30
0.0
 11
338.67848700013349
 21
95.761539838324779
 31
0.0
  0
LINE
  5
30E
  8
1外形線
 10
293.67848700013383
 20
98.761539838326826
 30
0.0
 11
338.67848700013383
 21
98.761539838324779
 31
0.0
  0
LINE
  5
30F
  8
1外形線
 10
293.67848700013383
 20
101.761539838327
 30
0.0
 11
338.67848700013349
 21
101.76153983832469
 31
0.0
  0
LINE
  5
310
  8
1外形線
 10
338.67848700013241
 20
50.561539838324961
 30
0.0
 11
293.67848700013241
 21
50.561539838327228
 31
0.0
  0
LINE
  5
311
  8
C4
 10
330.67848700013332
 20
50.561539838325409
 30
0.0
 11
330.67848700013383
 21
95.761539838325234
 31
0.0
  0
LINE
  5
312
  8
C4
 10
248.67848700013241
 20
50.561539838327228
 30
0.0
 11
248.67848700013451
 21
133.66153983832689
 31
0.0
  0
LINE
  5
313
  8
C4
 10
256.6784870001315
 20
50.561539838327228
 30
0.0
 11
256.67848700013332
 21
95.761539838327053
 31
0.0
  0
LINE
  5
314
  8
C4
 10
206.67848700013309
 20
101.7615398383268
 30
0.0
 11
206.67848700013309
 21
59.431237058503477
 31
0.0
  0
LINE
  5
315
  8
C4
 10
212.17848700013309
 20
117.6587871971783
 30
0.0
 11
212.17848700013309
 21
66.864292479474898
 31
0.0
  0
ARC
  5
316
  8
C4
 10
189.67848700013309
 20
77.761539838326826
 30
0.0
 40
25.0
 50
270.0
 51
0.0
  0
ARC
  5
317
  8
C4
 10
190.7784870001332
 20
78.461539838326871
 30
0.0
 40
27.899999999999999
 50
270.0
 51
0.0
  0
LINE
  5
318
  8
C4
 10
145.67848700013309
 20
52.761539838326819
 30
0.0
 11
189.67848700013329
 21
52.761539838326819
 31
0.0
  0
LINE
  5
319
  8
C4
 10
190.7784870001332
 20
50.561539838327
 30
0.0
 11
145.67848700013309
 21
50.56153983832678
 31
0.0
  0
LINE
  5
31A
  8
C4
 10
145.67848700013309
 20
55.261539838326819
 30
0.0
 11
200.57573435898479
 21
55.261539838326819
 31
0.0
  0
LINE
  5
31B
  8
C4
 10
145.67848700013309
 20
52.761539838326819
 30
0.0
 11
101.6784870001329
 21
52.761539838326819
 31
0.0
  0
LINE
  5
31C
  8
C4
 10
100.57848700013299
 20
50.561539838327
 30
0.0
 11
145.67848700013309
 21
50.56153983832678
 31
0.0
  0
LINE
  5
31D
  8
C4
 10
145.67848700013309
 20
55.261539838326819
 30
0.0
 11
90.781239641281445
 21
55.261539838326819
 31
0.0
  0
LINE
  5
31E
  8
1外形線
 10
293.67848700013241
 20
52.381851549885603
 30
0.0
 11
256.6784870001315
 21
52.381851549885603
 31
0.0
  0
LINE
  5
31F
  8
1外形線
 10
293.67848700013258
 20
58.093971529836153
 30
0.0
 11
256.67848700013172
 21
58.093971529836153
 31
0.0
  0
LINE
  5
320
  8
1外形線
 10
293.67848700013292
 20
66.980320643041068
 30
0.0
 11
256.67848700013218
 21
66.980320643041068
 31
0.0
  0
LINE
  5
321
  8
1外形線
 10
248.67848700013241
 20
50.561539838327228
 30
0.0
 11
293.67848700013241
 21
50.561539838327228
 31
0.0
  0
LINE
  5
322
  8
1外形線
 10
293.67848700013292
 20
66.980320643041068
 30
0.0
 11
330.6784870001336
 21
66.980320643039249
 31
0.0
  0
LINE
  5
323
  8
1外形線
 10
293.67848700013258
 20
58.093971529836153
 30
0.0
 11
330.6784870001336
 21
58.093971529834327
 31
0.0
  0
LINE
  5
324
  8
1外形線
 10
293.67848700013258
 20
52.381851549885603
 30
0.0
 11
330.6784870001336
 21
52.381851549883777
 31
0.0
  0
LINE
  5
325
  8
C4
 10
210.17848700013309
 20
103.7615398383268
 30
0.0
 11
212.17848700013309
 21
103.7615398383268
 31
0.0
  0
ARC
  5
326
  8
C4
 10
189.67848700013309
 20
106.7615398383268
 30
0.0
 40
25.0
 50
0.0
 51
90.0
  0
ARC
  5
327
  8
C4
 10
190.7784870001332
 20
106.7615398383268
 30
0.0
 40
27.899999999999999
 50
0.0
 51
90.0
  0
LINE
  5
328
  8
C4
 10
145.6784870001361
 20
254.66153983832641
 30
0.0
 11
217.6784870001359
 21
254.66153983832459
 31
0.0
  0
ARC
  5
329
  8
C4
 10
210.1784870001342
 20
209.66153983832481
 30
0.0
 40
5.5
 50
90.0
 51
270.0
  0
ARC
  5
32A
  8
C4
 10
210.1784870001342
 20
209.66153983832481
 30
0.0
 40
4.5
 50
90.0
 51
270.0
  0
LINE
  5
32B
  8
C4
  6
CONTINUOUS
 10
217.97848700013421
 20
215.16153983832459
 30
0.0
 11
210.17848700013451
 21
215.16153983832481
 31
0.0
  0
LINE
  5
32C
  8
C4
  6
CONTINUOUS
 10
217.97848700013421
 20
214.16153983832459
 30
0.0
 11
210.17848700013451
 21
214.16153983832481
 31
0.0
  0
LINE
  5
32D
  8
C4
  6
CONTINUOUS
 10
217.97848700013421
 20
204.16153983832459
 30
0.0
 11
210.178487000134
 21
204.16153983832481
 31
0.0
  0
LINE
  5
32E
  8
C4
  6
CONTINUOUS
 10
217.97848700013421
 20
205.16153983832459
 30
0.0
 11
210.178487000134
 21
205.16153983832481
 31
0.0
  0
CIRCLE
  5
32F
  8
C4
 10
210.1784870001342
 20
209.66153983832481
 30
0.0
 40
2.0
  0
LINE
  5
330
  8
C4
 10
145.67848700013559
 20
246.66153983832689
 30
0.0
 11
218.17848700013559
 21
246.66153983832459
 31
0.0
  0
LINE
  5
331
  8
C4
 10
218.17848700013289
 20
172.66153983832459
 30
0.0
 11
145.67848700013309
 21
172.66153983832689
 31
0.0
  0
LINE
  5
332
  8
C4
 10
217.67848700013269
 20
164.66153983832459
 30
0.0
 11
145.67848700013289
 21
164.6615398383266
 31
0.0
  0
LINE
  5
333
  8
1外形線
 10
91.039084488072376
 20
172.6615398383253
 30
0.0
 11
91.039084488072831
 21
246.6615398383253
 31
0.0
  0
LINE
  5
334
  8
1外形線
 10
209.59540466918921
 20
172.66153983832481
 30
0.0
 11
209.59540466918921
 21
204.19253490183601
 31
0.0
  0
LINE
  5
335
  8
1外形線
 10
200.31788951219411
 20
172.6615398383251
 30
0.0
 11
200.31788951219411
 21
246.66153983832501
 31
0.0
  0
LINE
  5
336
  8
C4
 10
190.7784870001332
 20
134.6615398383266
 30
0.0
 11
145.67848700013309
 21
134.6615398383266
 31
0.0
  0
LINE
  5
337
  8
C4
 10
145.67848700013309
 20
131.7615398383268
 30
0.0
 11
189.67848700013309
 21
131.7615398383268
 31
0.0
  0
LINE
  5
338
  8
C4
 10
145.67848700013309
 20
129.2615398383268
 30
0.0
 11
200.57573435898479
 21
129.2615398383268
 31
0.0
  0
LINE
  5
339
  8
C4
 10
145.67848700013309
 20
131.7615398383268
 30
0.0
 11
101.6784870001331
 21
131.7615398383268
 31
0.0
  0
LINE
  5
33A
  8
C4
 10
145.67848700013309
 20
129.2615398383268
 30
0.0
 11
90.781239641281445
 21
129.2615398383268
 31
0.0
  0
LINE
  5
33B
  8
C4
 10
88.594975178428285
 20
128.064631595424
 30
0.0
 11
87.516100586513403
 21
101.7615398383268
 31
0.0
  0
LINE
  5
33C
  8
C4
 10
100.57848700013299
 20
134.6615398383266
 30
0.0
 11
145.67848700013309
 21
134.6615398383266
 31
0.0
  0
LINE
  5
33D
  8
C4
 10
210.17848700013289
 20
103.7615398383268
 30
0.0
 11
210.17848700013309
 21
101.7615398383268
 31
0.0
  0
LINE
  5
33E
  8
C4
 10
202.76199882183801
 20
128.064631595424
 30
0.0
 11
203.8408734137528
 21
101.7615398383268
 31
0.0
  0
LINE
  5
33F
  8
C4
 10
203.8408734137528
 20
101.7615398383268
 30
0.0
 11
210.17848700013289
 21
101.7615398383268
 31
0.0
  0
LINE
  5
340
  8
1外形線
 10
209.59540466918921
 20
215.13054477481359
 30
0.0
 11
209.59540466918921
 21
246.66153983832481
 31
0.0
  0
LINE
  5
341
  8
1外形線
 10
215.92870730231741
 20
172.66153983832459
 30
0.0
 11
215.92870730231741
 21
204.16153983832439
 31
0.0
  0
LINE
  5
342
  8
C4
 10
217.9784870001331
 20
172.66153983832459
 30
0.0
 11
217.97848700013529
 21
246.66153983832459
 31
0.0
  0
LINE
  5
343
  8
1外形線
 10
289.178487000134
 20
116.3009423503851
 30
0.0
 11
256.678487000134
 21
116.3009423503851
 31
0.0
  0
LINE
  5
344
  8
1外形線
 10
293.6784870001336
 20
95.761539838327053
 30
0.0
 11
248.67848700013349
 21
95.761539838327053
 31
0.0
  0
LINE
  5
345
  8
1外形線
 10
293.6784870001336
 20
101.761539838327
 30
0.0
 11
248.6784870001338
 21
101.761539838327
 31
0.0
  0
LINE
  5
346
  8
1外形線
 10
293.6784870001336
 20
98.761539838326826
 30
0.0
 11
248.67848700013349
 21
98.761539838327053
 31
0.0
  0
LINE
  5
347
  8
1外形線
 10
293.67848700013468
 20
131.91176014050819
 30
0.0
 11
256.67848700013451
 21
131.91176014050839
 31
0.0
  0
LINE
  5
348
  8
C4
 10
293.67848700013451
 20
133.96153983832519
 30
0.0
 11
256.67848700013451
 21
133.96153983832639
 31
0.0
  0
LINE
  5
349
  8
1外形線
 10
289.99412762983792
 20
125.57845750738031
 30
0.0
 11
256.67848700013423
 21
125.57845750738031
 31
0.0
  0
LINE
  5
34A
  8
C4
 10
256.6784870001336
 20
101.7615398383272
 30
0.0
 11
256.67848700013451
 21
134.1615398383266
 31
0.0
  0
LINE
  5
34B
  8
C4
 10
218.67848700013309
 20
106.7615398383268
 30
0.0
 11
218.67848700013309
 21
101.7615398383268
 31
0.0
  0
LINE
  5
34C
  8
C4
 10
216.17848700013309
 20
103.36153983832691
 30
0.0
 11
216.17848700013329
 21
99.161539838326931
 31
0.0
  0
LINE
  5
34D
  8
C4
 10
214.67848700013329
 20
106.7615398383268
 30
0.0
 11
214.67848700013309
 21
77.761539838326826
 31
0.0
  0
LINE
  5
34E
  8
C4
 10
217.9784870001331
 20
95.761539838326826
 30
0.0
 11
217.17848700013329
 21
98.761539838326826
 31
0.0
  0
LINE
  5
34F
  8
C4
 10
216.57848700013321
 20
98.761539838326826
 30
0.0
 11
217.17848700013329
 21
98.761539838326826
 31
0.0
  0
ARC
  5
350
  8
C4
 10
216.57848700013321
 20
99.161539838326931
 30
0.0
 40
0.4
 50
180.0
 51
270.0
  0
LINE
  5
351
  8
C4
 10
218.67848700013309
 20
101.7615398383268
 30
0.0
 11
217.9784870001331
 21
101.7615398383268
 31
0.0
  0
LINE
  5
352
  8
C4
 10
217.17848700013329
 20
98.761539838326826
 30
0.0
 11
217.9784870001331
 21
101.7615398383268
 31
0.0
  0
LINE
  5
353
  8
C4
 10
218.67848700013309
 20
95.761539838326826
 30
0.0
 11
217.9784870001331
 21
95.761539838326826
 31
0.0
  0
LINE
  5
354
  8
C4
 10
218.67848700013309
 20
95.761539838326826
 30
0.0
 11
218.67848700013309
 21
77.761539838326826
 31
0.0
  0
ARC
  5
355
  8
C4
 10
215.7784870001332
 20
103.36153983832691
 30
0.0
 40
0.4
 50
0.0
 51
90.0
  0
LINE
  5
356
  8
C4
 10
214.67848700013329
 20
103.7615398383268
 30
0.0
 11
215.7784870001332
 21
103.7615398383268
 31
0.0
  0
LINE
  5
357
  8
C4
 10
218.67848700013289
 20
172.16153983832459
 30
0.0
 11
218.67848700013261
 21
165.66153983832459
 31
0.0
  0
ARC
  5
358
  8
C4
 10
218.17848700013289
 20
172.16153983832459
 30
0.0
 40
0.5
 50
0.0
 51
90.0
  0
ARC
  5
359
  8
C4
 10
217.67848700013269
 20
165.66153983832459
 30
0.0
 40
1.0
 50
270.0
 51
0.0
  0
ARC
  5
35A
  8
C4
 10
249.67848700013471
 20
133.6615398383266
 30
0.0
 40
1.0
 50
90.0
 51
180.0
  0
ARC
  5
35B
  8
C4
 10
256.17848700013468
 20
134.16153983832641
 30
0.0
 40
0.5
 50
0.0
 51
90.0
  0
LINE
  5
35C
  8
C4
 10
249.67848700013451
 20
134.66153983832689
 30
0.0
 11
256.17848700013451
 21
134.6615398383266
 31
0.0
  0
LINE
  5
35D
  8
C4
 10
330.67848700013383
 20
101.7615398383254
 30
0.0
 11
330.67848700013451
 21
134.16153983832481
 31
0.0
  0
LINE
  5
35E
  8
1外形線
 10
293.67848700013423
 20
131.91176014050819
 30
0.0
 11
330.67848700013451
 21
131.9117601405066
 31
0.0
  0
LINE
  5
35F
  8
1外形線
 10
297.36284637043047
 20
125.57845750738009
 30
0.0
 11
330.67848700013423
 21
125.5784575073785
 31
0.0
  0
LINE
  5
360
  8
1外形線
 10
298.178487000134
 20
116.3009423503849
 30
0.0
 11
330.678487000134
 21
116.30094235038329
 31
0.0
  0
LINE
  5
361
  8
1外形線
 10
293.67848700013451
 20
104.761539838327
 30
0.0
 11
289.17848700013423
 21
104.761539838327
 31
0.0
  0
POLYLINE
  5
362
  8
1外形線
 66
     1
 10
0.0
 20
0.0
 30
0.0
  0
VERTEX
  5
503
  8
1外形線
 10
293.67848700013423
 20
128.96153983832519
 30
0.0
 42
0.160027154659147
  0
VERTEX
  5
504
  8
1外形線
 10
292.11489569053327
 20
128.44795342634501
 30
0.0
 42
0.1063178702611262
  0
VERTEX
  5
505
  8
1外形線
 10
290.49650648479491
 20
126.61839408781761
 30
0.0
 42
0.0709884594687387
  0
VERTEX
  5
506
  8
1外形線
 10
289.54828836456971
 20
124.17837846924969
 30
0.0
 42
0.0572903478567933
  0
VERTEX
  5
507
  8
1外形線
 10
289.17848700013423
 20
120.96153983832519
 30
0.0
  0
SEQEND
  5
508
  8
1外形線
  0
LINE
  5
363
  8
1外形線
 10
289.17848700013423
 20
104.761539838327
 30
0.0
 11
289.17848700013423
 21
120.96153983832519
 31
0.0
  0
LINE
  5
364
  8
1外形線
 10
293.67848700013309
 20
104.761539838327
 30
0.0
 11
298.17848700013332
 21
104.7615398383268
 31
0.0
  0
LINE
  5
365
  8
1外形線
 10
298.17848700013332
 20
104.7615398383268
 30
0.0
 11
298.178487000134
 21
120.961539838325
 31
0.0
  0
POLYLINE
  5
366
  8
1外形線
 66
     1
 10
0.0
 20
0.0
 30
0.0
  0
VERTEX
  5
509
  8
1外形線
 10
293.67848700013451
 20
128.96153983832519
 30
0.0
 42
-0.160027154659147
  0
VERTEX
  5
50A
  8
1外形線
 10
295.2420783097354
 20
128.44795342634501
 30
0.0
 42
-0.1063178702611262
  0
VERTEX
  5
50B
  8
1外形線
 10
296.86046751547377
 20
126.61839408781741
 30
0.0
 42
-0.0709884594687387
  0
VERTEX
  5
50C
  8
1外形線
 10
297.80868563569868
 20
124.17837846924949
 30
0.0
 42
-0.0572903478567933
  0
VERTEX
  5
50D
  8
1外形線
 10
298.178487000134
 20
120.961539838325
 30
0.0
  0
SEQEND
  5
50E
  8
1外形線
  0
LINE
  5
367
  8
C4
 10
293.67848700013451
 20
133.96153983832519
 30
0.0
 11
330.67848700013451
 21
133.96153983832451
 31
0.0
  0
ARC
  5
368
  8
C4
 10
331.17848700013423
 20
134.16153983832459
 30
0.0
 40
0.5
 50
90.0
 51
180.0
  0
LINE
  5
369
  8
C4
 10
337.6784870001344
 20
134.66153983832481
 30
0.0
 11
331.17848700013451
 21
134.66153983832481
 31
0.0
  0
LINE
  5
36A
  8
1外形線
 10
215.92870730231709
 20
215.16153983832459
 30
0.0
 11
215.92870730231741
 21
246.66153983832459
 31
0.0
  0
ARC
  5
36B
  8
C4
 10
217.67848700013559
 20
253.66153983832459
 30
0.0
 40
1.0
 50
0.0
 51
90.0
  0
ARC
  5
36C
  8
C4
 10
218.17848700013539
 20
247.16153983832459
 30
0.0
 40
0.5
 50
270.0
 51
0.0
  0
LINE
  5
36D
  8
C4
 10
218.67848700013579
 20
253.66153983832459
 30
0.0
 11
218.67848700013559
 21
247.16153983832459
 31
0.0
  0
LINE
  5
36E
  8
C4
 10
338.67848700013241
 20
50.561539838324961
 30
0.0
 11
338.67848700013451
 21
133.66153983832459
 31
0.0
  0
LINE
  5
36F
  8
1外形線
 10
152.17848700013059
 20
416.66153983832629
 30
0.0
 11
102.1784870001306
 21
416.66153983832629
 31
0.0
  0
LINE
  5
370
  8
1外形線
 10
153.67848700013059
 20
419.66153983832629
 30
0.0
 11
100.6784870001306
 21
419.66153983832629
 31
0.0
  0
LINE
  5
371
  8
1外形線
 10
97.678487000130644
 20
344.66153983832629
 30
0.0
 11
156.67848700013059
 21
344.66153983832629
 31
0.0
  0
LINE
  5
372
  8
1外形線
 10
100.1784870001306
 20
346.66153983832629
 30
0.0
 11
154.17848700013059
 21
346.66153983832629
 31
0.0
  0
LINE
  5
373
  8
1外形線
 10
163.55931851977741
 20
348.66153983832629
 30
0.0
 11
90.797655480483854
 21
348.66153983832629
 31
0.0
  0
LINE
  5
374
  8
1外形線
 10
104.9284870001306
 20
346.66153983832629
 30
0.0
 11
104.9284870001306
 21
348.66153983832629
 31
0.0
  0
LINE
  5
375
  8
1外形線
 10
109.4284870001306
 20
346.66153983832629
 30
0.0
 11
109.4284870001306
 21
348.66153983832629
 31
0.0
  0
LINE
  5
376
  8
1外形線
 10
144.92848700013059
 20
346.66153983832629
 30
0.0
 11
144.92848700013059
 21
348.66153983832629
 31
0.0
  0
LINE
  5
377
  8
1外形線
  6
CONTINUOUS
 10
126.4284870001306
 20
411.41153983832629
 30
0.0
 11
126.4284870001306
 21
416.66153983832629
 31
0.0
  0
LINE
  5
378
  8
1外形線
  6
CONTINUOUS
 10
127.9284870001306
 20
411.41153983832629
 30
0.0
 11
127.9284870001306
 21
416.66153983832629
 31
0.0
  0
ARC
  5
379
  8
1外形線
  6
CENTER
 10
127.1784870001306
 20
411.41153983832629
 30
0.0
 40
0.75
 50
180.0
 51
0.0
  0
LINE
  5
37A
  8
1外形線
 10
180.67848700013059
 20
381.66153983832629
 30
0.0
 11
180.17848700013059
 21
384.66153983832629
 31
0.0
  0
LINE
  5
37B
  8
1外形線
 10
171.67848700013059
 20
354.73672828172693
 30
0.0
 11
171.67848700013059
 21
384.66153983832629
 31
0.0
  0
LINE
  5
37C
  8
1外形線
 10
177.17848700013059
 20
369.66153983832629
 30
0.0
 11
177.17848700013059
 21
391.66153983832629
 31
0.0
  0
ARC
  5
37D
  8
1外形線
 10
154.17848700013059
 20
369.66153983832629
 30
0.0
 40
23.0
 50
270.0
 51
0.0
  0
ARC
  5
37E
  8
1外形線
 10
156.67848700013059
 20
369.66153983832629
 30
0.0
 40
25.0
 50
270.0
 51
0.0
  0
LINE
  5
37F
  8
1外形線
 10
149.42848700013059
 20
346.66153983832629
 30
0.0
 11
149.42848700013059
 21
348.66153983832629
 31
0.0
  0
LINE
  5
380
  8
1外形線
 10
181.67848700013059
 20
381.66153983832629
 30
0.0
 11
180.67848700013059
 21
381.66153983832629
 31
0.0
  0
LINE
  5
381
  8
1外形線
 10
181.67848700013059
 20
369.66153983832629
 30
0.0
 11
181.67848700013059
 21
381.66153983832629
 31
0.0
  0
LINE
  5
382
  8
1外形線
 10
180.17848700013059
 20
384.66153983832629
 30
0.0
 11
178.67848700013059
 21
384.66153983832629
 31
0.0
  0
ARC
  5
383
  8
1外形線
 10
153.67848700013059
 20
391.66153983832629
 30
0.0
 40
28.0
 50
0.0
 51
90.0
  0
ARC
  5
384
  8
1外形線
 10
152.17848700013059
 20
391.66153983832629
 30
0.0
 40
25.0
 50
0.0
 51
90.0
  0
LINE
  5
385
  8
1外形線
 10
176.17848700013079
 20
384.66153983832629
 30
0.0
 11
170.67848700013079
 21
384.66153983832629
 31
0.0
  0
LINE
  5
386
  8
1外形線
 10
178.67848700013059
 20
384.66153983832629
 30
0.0
 11
178.67848700013059
 21
389.66153983832629
 31
0.0
  0
LINE
  5
387
  8
1外形線
 10
177.17848700013079
 20
386.66153983832629
 30
0.0
 11
176.17848700013079
 21
386.66153983832629
 31
0.0
  0
LINE
  5
388
  8
1外形線
 10
176.17848700013079
 20
386.66153983832629
 30
0.0
 11
176.17848700013079
 21
384.66153983832629
 31
0.0
  0
LINE
  5
389
  8
1外形線
 10
178.67848700013059
 20
389.66153983832629
 30
0.0
 11
177.17848700013059
 21
389.66153983832629
 31
0.0
  0
LINE
  5
38A
  8
1外形線
 10
170.67848700013079
 20
384.66153983832629
 30
0.0
 11
170.67848700013079
 21
408.47671155912639
 31
0.0
  0
LINE
  5
38B
  8
1外形線
 10
181.67848700013059
 20
387.66153983832629
 30
0.0
 11
181.67848700013059
 21
391.66153983832629
 31
0.0
  0
LINE
  5
38C
  8
1外形線
 10
180.17848700013059
 20
384.66153983832629
 30
0.0
 11
180.67848700013059
 21
387.66153983832629
 31
0.0
  0
LINE
  5
38D
  8
1外形線
 10
180.67848700013059
 20
387.66153983832629
 30
0.0
 11
181.67848700013059
 21
387.66153983832629
 31
0.0
  0
LINE
  5
38E
  8
1外形線
 10
127.1784870001306
 20
453.66153983832629
 30
0.0
 11
180.67848700013059
 21
453.66153983832629
 31
0.0
  0
LINE
  5
38F
  8
1外形線
 10
180.67848700013059
 20
511.66153983832629
 30
0.0
 11
127.1784870001306
 21
511.66153983832629
 31
0.0
  0
LINE
  5
390
  8
1外形線
 10
127.1784870001304
 20
449.66153983832629
 30
0.0
 11
180.67848700013059
 21
449.66153983832629
 31
0.0
  0
LINE
  5
391
  8
1外形線
 10
180.67848700013059
 20
515.66153983832635
 30
0.0
 11
127.1784870001306
 21
515.66153983832635
 31
0.0
  0
LINE
  5
392
  8
1外形線
 10
89.814138222789552
 20
453.66153983832629
 30
0.0
 11
89.814138222789552
 21
511.66153983832629
 31
0.0
  0
LINE
  5
393
  8
1外形線
 10
173.4101446950601
 20
486.79953035210201
 30
0.0
 11
173.4101446950601
 21
511.66153983832629
 31
0.0
  0
LINE
  5
394
  8
1外形線
 10
179.42572853149341
 20
487.16153983832629
 30
0.0
 11
179.42572853149341
 21
511.66153983832629
 31
0.0
  0
LINE
  5
395
  8
1外形線
 10
180.67848700013059
 20
511.66153983832629
 30
0.0
 11
180.67848700013059
 21
453.66153983832629
 31
0.0
  0
LINE
  5
396
  8
1外形線
 10
164.54283577747171
 20
453.66153983832629
 30
0.0
 11
164.54283577747171
 21
511.66153983832629
 31
0.0
  0
LINE
  5
397
  8
1外形線
 10
175.17848700013059
 20
487.16153983832629
 30
0.0
 11
180.67848700013059
 21
487.16153983832629
 31
0.0
  0
LINE
  5
398
  8
1外形線
 10
175.17848700013059
 20
478.16153983832629
 30
0.0
 11
180.67848700013059
 21
478.16153983832629
 31
0.0
  0
LINE
  5
399
  8
1外形線
 10
173.4101446950601
 20
453.66153983832629
 30
0.0
 11
173.4101446950601
 21
478.52354932455069
 31
0.0
  0
LINE
  5
39A
  8
1外形線
 10
179.42572853149341
 20
453.66153983832629
 30
0.0
 11
179.42572853149341
 21
478.16153983832629
 31
0.0
  0
ARC
  5
39B
  8
1外形線
 10
175.17848700013059
 20
482.66153983832629
 30
0.0
 40
4.5
 50
90.0
 51
270.0
  0
CIRCLE
  5
39C
  8
1外形線
 10
175.17848700013059
 20
482.66153983832629
 30
0.0
 40
1.7
  0
POINT
  5
39D
  8
1外形線
  6
BYBLOCK
 62
     0
 10
180.67848700013059
 20
453.66153983832629
 30
0.0
  0
ARC
  5
39E
  8
1外形線
 10
180.67848700013059
 20
450.66153983832629
 30
0.0
 40
1.0
 50
270.0
 51
0.0
  0
LINE
  5
39F
  8
1外形線
 10
181.67848700013059
 20
452.66153983832629
 30
0.0
 11
181.67848700013059
 21
450.66153983832629
 31
0.0
  0
POINT
  5
3A0
  8
1外形線
  6
BYBLOCK
 62
     0
 10
180.67848700013059
 20
449.66153983832629
 30
0.0
  0
ARC
  5
3A1
  8
1外形線
 10
180.67848700013059
 20
452.66153983832629
 30
0.0
 40
1.0
 50
0.0
 51
90.0
  0
LINE
  5
3A2
  8
1外形線
 10
181.67848700013059
 20
514.66153983832635
 30
0.0
 11
181.67848700013059
 21
512.66153983832635
 31
0.0
  0
ARC
  5
3A3
  8
1外形線
 10
180.67848700013059
 20
512.66153983832635
 30
0.0
 40
1.0
 50
270.0
 51
0.0
  0
ARC
  5
3A4
  8
1外形線
 10
180.67848700013059
 20
514.66153983832635
 30
0.0
 40
1.0
 50
0.0
 51
90.0
  0
LINE
  5
3A5
  8
1外形線
 10
276.67848700013059
 20
419.66153983832629
 30
0.0
 11
274.67848700013059
 21
419.66153983832629
 31
0.0
  0
LINE
  5
3A6
  8
1外形線
 10
244.67848700013059
 20
379.66153983832618
 30
0.0
 11
277.67848700013059
 21
379.66153983832629
 31
0.0
  0
LINE
  5
3A7
  8
1外形線
 10
277.67848700013059
 20
382.66153983832629
 30
0.0
 11
244.67848700013059
 21
382.66153983832618
 31
0.0
  0
LINE
  5
3A8
  8
1外形線
 10
244.67848700013059
 20
385.66153983832618
 30
0.0
 11
277.67848700013059
 21
385.66153983832629
 31
0.0
  0
LINE
  5
3A9
  8
1外形線
 10
244.67848700013059
 20
344.66153983832641
 30
0.0
 11
276.67848700013059
 21
344.66153983832641
 31
0.0
  0
LINE
  5
3AA
  8
1外形線
 10
211.67848700013059
 20
345.66153983832641
 30
0.0
 11
211.67848700013059
 21
418.66153983832629
 31
0.0
  0
LINE
  5
3AB
  8
1外形線
 10
211.67848700013059
 20
382.66153983832629
 30
0.0
 11
244.67848700013059
 21
382.66153983832618
 31
0.0
  0
LINE
  5
3AC
  8
1外形線
 10
244.67848700013059
 20
379.66153983832618
 30
0.0
 11
211.67848700013059
 21
379.66153983832629
 31
0.0
  0
LINE
  5
3AD
  8
1外形線
 10
244.67848700013059
 20
344.66153983832641
 30
0.0
 11
212.67848700013059
 21
344.66153983832641
 31
0.0
  0
LINE
  5
3AE
  8
1外形線
 10
244.67848700013079
 20
359.94602860460282
 30
0.0
 11
215.67848700013059
 21
359.94602860460287
 31
0.0
  0
LINE
  5
3AF
  8
1外形線
 10
244.67848700013079
 20
352.05205459645288
 30
0.0
 11
215.67848700013059
 21
352.05205459645288
 31
0.0
  0
LINE
  5
3B0
  8
1外形線
 10
244.67848700013079
 20
346.68672415102088
 30
0.0
 11
215.67848700013059
 21
346.686724151021
 31
0.0
  0
LINE
  5
3B1
  8
1外形線
 10
215.67848700013059
 20
379.66153983832629
 30
0.0
 11
215.67848700013059
 21
344.66153983832629
 31
0.0
  0
ARC
  5
3B2
  8
1外形線
 10
212.67848700013059
 20
345.66153983832641
 30
0.0
 40
1.0
 50
180.0
 51
270.0
  0
LINE
  5
3B3
  8
1外形線
 10
273.67848700013059
 20
379.66153983832629
 30
0.0
 11
273.67848700013059
 21
344.66153983832629
 31
0.0
  0
LINE
  5
3B4
  8
1外形線
 10
244.67848700013039
 20
346.68672415102088
 30
0.0
 11
273.67848700013059
 21
346.686724151021
 31
0.0
  0
LINE
  5
3B5
  8
1外形線
 10
244.67848700013039
 20
359.94602860460282
 30
0.0
 11
273.67848700013059
 21
359.94602860460287
 31
0.0
  0
LINE
  5
3B6
  8
1外形線
 10
244.67848700013039
 20
352.05205459645288
 30
0.0
 11
273.67848700013059
 21
352.05205459645288
 31
0.0
  0
LINE
  5
3B7
  8
1外形線
 10
244.67848700013059
 20
385.66153983832618
 30
0.0
 11
211.67848700013059
 21
385.66153983832629
 31
0.0
  0
LINE
  5
3B8
  8
1外形線
 10
244.67848700013059
 20
418.66153983832629
 30
0.0
 11
215.67848700013059
 21
418.66153983832629
 31
0.0
  0
LINE
  5
3B9
  8
1外形線
 10
215.67848700013059
 20
417.40878136968922
 30
0.0
 11
244.67848700013059
 21
417.40878136968922
 31
0.0
  0
LINE
  5
3BA
  8
1外形線
 10
215.67848700013059
 20
411.3931975332556
 30
0.0
 11
244.67848700013059
 21
411.3931975332556
 31
0.0
  0
LINE
  5
3BB
  8
1外形線
 10
244.67848700013079
 20
388.66153983832618
 30
0.0
 11
240.17848700013059
 21
388.66153983832629
 31
0.0
  0
POLYLINE
  5
3BC
  8
1外形線
 66
     1
 10
0.0
 20
0.0
 30
0.0
  0
VERTEX
  5
50F
  8
1外形線
 10
244.67848700013059
 20
407.66153983832629
 30
0.0
 42
0.160027154659147
  0
VERTEX
  5
510
  8
1外形線
 10
243.11489569052969
 20
407.14795342634602
 30
0.0
 42
0.1063178702611262
  0
VERTEX
  5
511
  8
1外形線
 10
241.4965064847913
 20
405.3183940878186
 30
0.0
 42
0.0709884594687387
  0
VERTEX
  5
512
  8
1外形線
 10
240.5482883645661
 20
402.87837846925089
 30
0.0
 42
0.0572903478567933
  0
VERTEX
  5
513
  8
1外形線
 10
240.17848700013059
 20
399.66153983832629
 30
0.0
  0
SEQEND
  5
514
  8
1外形線
  0
LINE
  5
3BD
  8
1外形線
 10
215.67848700013059
 20
418.66153983832629
 30
0.0
 11
215.67848700013059
 21
385.66153983832629
 31
0.0
  0
LINE
  5
3BE
  8
1外形線
 10
215.67848700013059
 20
402.52588861566738
 30
0.0
 11
240.47087663789461
 21
402.52588861566738
 31
0.0
  0
LINE
  5
3BF
  8
1外形線
 10
240.17848700013059
 20
388.66153983832629
 30
0.0
 11
240.17848700013059
 21
399.66154365302361
 31
0.0
  0
LINE
  5
3C0
  8
1外形線
 10
212.67848700013059
 20
419.66153983832629
 30
0.0
 11
214.67848700013059
 21
419.66153983832629
 31
0.0
  0
ARC
  5
3C1
  8
1外形線
 10
212.67848700013059
 20
418.66153983832641
 30
0.0
 40
1.0
 50
90.0
 51
180.0
  0
ARC
  5
3C2
  8
1外形線
 10
214.67848700013059
 20
418.66153983832641
 30
0.0
 40
1.0
 50
0.0
 51
90.0
  0
LINE
  5
3C3
  8
1外形線
 10
273.67848700013059
 20
418.66153983832629
 30
0.0
 11
273.67848700013059
 21
385.66153983832629
 31
0.0
  0
LINE
  5
3C4
  8
1外形線
 10
273.67848700013059
 20
402.52588861566738
 30
0.0
 11
248.8860973623666
 21
402.52588861566738
 31
0.0
  0
LINE
  5
3C5
  8
1外形線
 10
273.67848700013059
 20
411.3931975332556
 30
0.0
 11
244.67848700013059
 21
411.3931975332556
 31
0.0
  0
LINE
  5
3C6
  8
1外形線
 10
249.17848700013059
 20
388.66153983832629
 30
0.0
 11
249.17848700013059
 21
399.66154365302361
 31
0.0
  0
LINE
  5
3C7
  8
1外形線
 10
244.67848700013039
 20
388.66153983832618
 30
0.0
 11
249.17848700013059
 21
388.66153983832629
 31
0.0
  0
POLYLINE
  5
3C8
  8
1外形線
 66
     1
 10
0.0
 20
0.0
 30
0.0
  0
VERTEX
  5
515
  8
1外形線
 10
244.67848700013059
 20
407.66153983832629
 30
0.0
 42
-0.160027154659147
  0
VERTEX
  5
516
  8
1外形線
 10
246.2420783097316
 20
407.14795342634602
 30
0.0
 42
-0.1063178702611262
  0
VERTEX
  5
517
  8
1外形線
 10
247.86046751546991
 20
405.3183940878186
 30
0.0
 42
-0.0709884594687387
  0
VERTEX
  5
518
  8
1外形線
 10
248.8086856356951
 20
402.87837846925089
 30
0.0
 42
-0.0572903478567933
  0
VERTEX
  5
519
  8
1外形線
 10
249.17848700013059
 20
399.66153983832629
 30
0.0
  0
SEQEND
  5
51A
  8
1外形線
  0
LINE
  5
3C9
  8
1外形線
 10
273.67848700013059
 20
417.40878136968922
 30
0.0
 11
244.67848700013059
 21
417.40878136968922
 31
0.0
  0
LINE
  5
3CA
  8
1外形線
 10
244.67848700013059
 20
418.66153983832629
 30
0.0
 11
273.67848700013059
 21
418.66153983832629
 31
0.0
  0
ARC
  5
3CB
  8
1外形線
 10
274.67848700013059
 20
418.66153983832641
 30
0.0
 40
1.0
 50
90.0
 51
180.0
  0
LINE
  5
3CC
  8
1外形線
 10
277.67848700013059
 20
345.66153983832641
 30
0.0
 11
277.67848700013059
 21
418.66153983832629
 31
0.0
  0
ARC
  5
3CD
  8
1外形線
 10
276.67848700013059
 20
345.66153983832641
 30
0.0
 40
1.0
 50
270.0
 51
0.0
  0
ARC
  5
3CE
  8
1外形線
 10
276.67848700013059
 20
418.66153983832641
 30
0.0
 40
1.0
 50
0.0
 51
90.0
  0
LINE
  5
3CF
  8
1外形線
 10
229.79822409302841
 20
671.06153983832633
 30
0.0
 11
208.79822409302841
 21
671.06153983832633
 31
0.0
  0
LINE
  5
3D0
  8
1外形線
 10
208.79822409302841
 20
669.45300288888893
 30
0.0
 11
229.79822409302841
 21
669.45300288888905
 31
0.0
  0
LINE
  5
3D1
  8
1外形線
 10
208.79822409302841
 20
663.44839767719373
 30
0.0
 11
225.77612690927771
 21
663.44839767719373
 31
0.0
  0
LINE
  5
3D2
  8
1外形線
 10
208.79822409302841
 20
654.46187091483932
 30
0.0
 11
225.29822409302841
 21
654.46187091483944
 31
0.0
  0
LINE
  5
3D3
  8
1外形線
 10
229.79822409302841
 20
643.66153983832635
 30
0.0
 11
204.79822409302841
 21
643.66153983832623
 31
0.0
  0
LINE
  5
3D4
  8
1外形線
 10
229.79822409302841
 20
646.66153983832635
 30
0.0
 11
204.79822409302841
 21
646.66153983832623
 31
0.0
  0
LINE
  5
3D5
  8
1外形線
 10
229.79822409302841
 20
640.66153983832635
 30
0.0
 11
204.79822409302841
 21
640.66153983832623
 31
0.0
  0
LINE
  5
3D6
  8
1外形線
 10
229.79822409302841
 20
605.66153983832623
 30
0.0
 11
204.79822409302841
 21
605.66153983832635
 31
0.0
  0
LINE
  5
3D7
  8
1外形線
 10
208.79822409302841
 20
619.97713746156421
 30
0.0
 11
229.79822409302841
 21
619.97713746156421
 31
0.0
  0
LINE
  5
3D8
  8
1外形線
 10
208.79822409302841
 20
606.98843105805543
 30
0.0
 11
229.79822409302841
 21
606.98843105805543
 31
0.0
  0
LINE
  5
3D9
  8
1外形線
 10
208.79822409302841
 20
612.19097708984918
 30
0.0
 11
229.79822409302841
 21
612.19097708984918
 31
0.0
  0
LINE
  5
3DA
  8
1外形線
 10
144.5284870001307
 20
646.66153983832646
 30
0.0
 11
148.67848700013059
 21
646.66153983832646
 31
0.0
  0
LINE
  5
3DB
  8
1外形線
 10
151.21336014021441
 20
648.66153983832635
 30
0.0
 11
143.2784870001307
 21
648.66153983832635
 31
0.0
  0
ARC
  5
3DC
  8
1外形線
 10
126.6784870001308
 20
643.86153983832617
 30
0.0
 40
25.0
 50
11.06952497337358
 51
90.0
  0
ARC
  5
3DD
  8
1外形線
 10
129.67848700013079
 20
629.86153983832628
 30
0.0
 40
22.0
 50
270.0
 51
0.0
  0
ARC
  5
3DE
  8
1外形線
 10
131.478487000131
 20
629.86153983832628
 30
0.0
 40
24.199999999999989
 50
270.0
 51
0.0
  0
ARC
  5
3DF
  8
1外形線
 10
128.478487000131
 20
644.56153983832633
 30
0.0
 40
27.199999999999999
 50
4.4279776746937154
 51
90.0
  0
LINE
  5
3E0
  8
1外形線
 10
146.5284870001307
 20
646.66153983832646
 30
0.0
 11
146.5284870001307
 21
615.7166644412082
 31
0.0
  0
LINE
  5
3E1
  8
1外形線
 10
114.1784870001306
 20
607.86153983832628
 30
0.0
 11
129.67848700013059
 21
607.86153983832628
 31
0.0
  0
LINE
  5
3E2
  8
1外形線
 10
114.1784870001306
 20
605.66153983832635
 30
0.0
 11
131.4784870001308
 21
605.66153983832635
 31
0.0
  0
LINE
  5
3E3
  8
1外形線
 10
114.1784870001306
 20
605.66153983832635
 30
0.0
 11
96.878487000130477
 21
605.66153983832635
 31
0.0
  0
LINE
  5
3E4
  8
1外形線
 10
114.1784870001306
 20
607.86153983832628
 30
0.0
 11
98.678487000130644
 21
607.86153983832628
 31
0.0
  0
ARC
  5
3E5
  8
1外形線
 10
86.878487000130676
 20
612.49029923783974
 30
0.0
 40
1.0
 50
0.0
 51
55.812372662891697
  0
LINE
  5
3E6
  8
1外形線
 10
87.878487000130704
 20
612.49029923783974
 30
0.0
 11
87.878487000130704
 21
610.69490215718884
 31
0.0
  0
ARC
  5
3E7
  8
1外形線
 10
129.67848700013079
 20
629.86153983832628
 30
0.0
 40
20.0
 50
304.18762733710821
 51
315.1961843612192
  0
ARC
  5
3E8
  8
1外形線
 10
141.4784870001308
 20
612.49029923783974
 30
0.0
 40
1.0
 50
124.1876273371083
 51
180.0
  0
LINE
  5
3E9
  8
1外形線
 10
140.4784870001308
 20
612.49029923783974
 30
0.0
 11
140.4784870001308
 21
610.69490215718884
 31
0.0
  0
ARC
  5
3EA
  8
1外形線
 10
144.57848700013091
 20
615.06322912392386
 30
0.0
 40
1.0
 50
0.0
 51
135.19618436121931
  0
LINE
  5
3EB
  8
1外形線
 10
145.57848700013071
 20
615.06322912392386
 30
0.0
 11
145.57848700013071
 21
614.65660642840976
 31
0.0
  0
LINE
  5
3EC
  8
1外形線
 10
128.4784870001308
 20
671.76153983832626
 30
0.0
 11
114.1784870001306
 21
671.76153983832626
 31
0.0
  0
LINE
  5
3ED
  8
1外形線
 10
126.6784870001308
 20
668.86153983832617
 30
0.0
 11
114.1784870001306
 21
668.86153983832617
 31
0.0
  0
LINE
  5
3EE
  8
1外形線
 10
113.4284870001306
 20
668.86153983832617
 30
0.0
 11
113.4284870001306
 21
662.86153983832628
 31
0.0
  0
LINE
  5
3EF
  8
1外形線
 10
114.9284870001306
 20
668.86153983832617
 30
0.0
 11
114.9284870001306
 21
662.86153983832628
 31
0.0
  0
LINE
  5
3F0
  8
1外形線
 10
85.078487000130508
 20
662.55485415120302
 30
0.0
 11
85.078487000130508
 21
648.66153983832635
 31
0.0
  0
LINE
  5
3F1
  8
1外形線
 10
114.9284870001306
 20
662.86153983832628
 30
0.0
 11
114.1784870001306
 21
662.86153983832628
 31
0.0
  0
LINE
  5
3F2
  8
1外形線
 10
113.4284870001306
 20
662.86153983832628
 30
0.0
 11
114.1784870001306
 21
662.86153983832628
 31
0.0
  0
LINE
  5
3F3
  8
1外形線
 10
99.87848700013069
 20
671.76153983832626
 30
0.0
 11
114.1784870001306
 21
671.76153983832626
 31
0.0
  0
LINE
  5
3F4
  8
1外形線
 10
99.87848700013069
 20
671.76153983832626
 30
0.0
 11
99.878487000130463
 21
671.76153983832626
 31
0.0
  0
LINE
  5
3F5
  8
1外形線
 10
101.6784870001306
 20
668.86153983832617
 30
0.0
 11
114.1784870001306
 21
668.86153983832617
 31
0.0
  0
LINE
  5
3F6
  8
1外形線
 10
144.5284870001307
 20
648.66153983832635
 30
0.0
 11
144.5284870001307
 21
646.66153983832646
 31
0.0
  0
LINE
  5
3F7
  8
1外形線
 10
143.2784870001307
 20
662.55485415120302
 30
0.0
 11
143.2784870001307
 21
648.66153983832635
 31
0.0
  0
LINE
  5
3F8
  8
1外形線
 10
128.4784870001308
 20
671.76153983832626
 30
0.0
 11
128.4784870001308
 21
671.76153983832626
 31
0.0
  0
LINE
  5
3F9
  8
1外形線
 10
204.79822409302841
 20
605.66153983832635
 30
0.0
 11
204.79822409302841
 21
671.26153983832626
 31
0.0
  0
LINE
  5
3FA
  8
1外形線
 10
208.79822409302841
 20
640.66153983832623
 30
0.0
 11
208.79822409302841
 21
605.66153983832635
 31
0.0
  0
LINE
  5
3FB
  8
1外形線
 10
155.67848700013079
 20
629.86153983832628
 30
0.0
 11
155.67848700013079
 21
640.66153983832635
 31
0.0
  0
LINE
  5
3FC
  8
1外形線
 10
151.67848700013059
 20
629.86153983832628
 30
0.0
 11
151.67848700013059
 21
648.66153983832635
 31
0.0
  0
LINE
  5
3FD
  8
1外形線
 10
155.67848700013079
 20
640.66153983832635
 30
0.0
 11
154.9784870001308
 21
640.66153983832635
 31
0.0
  0
LINE
  5
3FE
  8
1外形線
 10
155.59729965850511
 20
646.66153983832646
 30
0.0
 11
154.9784870001308
 21
646.66153983832646
 31
0.0
  0
LINE
  5
3FF
  8
1外形線
 10
153.17848700013059
 20
643.66153983832635
 30
0.0
 11
153.17848700013059
 21
648.16153983832635
 31
0.0
  0
POLYLINE
  5
400
  8
1外形線
 66
     1
 10
0.0
 20
0.0
 30
0.0
  0
VERTEX
  5
51B
  8
1外形線
 10
153.17848700013059
 20
643.66153983832635
 30
0.0
  0
VERTEX
  5
51C
  8
1外形線
 10
154.07848700013071
 20
643.66153983832635
 30
0.0
  0
SEQEND
  5
51D
  8
1外形線
  0
LINE
  5
401
  8
1外形線
 10
154.9784870001308
 20
646.66153983832646
 30
0.0
 11
154.07848700013071
 21
643.66153983832635
 31
0.0
  0
LINE
  5
402
  8
1外形線
 10
154.9784870001308
 20
640.66153983832635
 30
0.0
 11
154.07848700013071
 21
643.66153983832635
 31
0.0
  0
LINE
  5
403
  8
1外形線
 10
151.21336014021441
 20
648.66153983832635
 30
0.0
 11
152.67848700013059
 21
648.66153983832635
 31
0.0
  0
LINE
  5
404
  8
1外形線
 10
148.67848700013059
 20
646.66153983832646
 30
0.0
 11
148.67848700013059
 21
648.66153983832635
 31
0.0
  0
ARC
  5
405
  8
1外形線
 10
152.67848700013079
 20
648.16153983832635
 30
0.0
 40
0.5
 50
0.0
 51
90.0
  0
LINE
  5
406
  8
1外形線
 10
208.79822409302841
 20
671.26153983832626
 30
0.0
 11
208.79822409302841
 21
646.66153983832623
 31
0.0
  0
LINE
  5
407
  8
1外形線
 10
205.29822409302841
 20
671.76153983832626
 30
0.0
 11
208.29822409302841
 21
671.76153983832626
 31
0.0
  0
ARC
  5
408
  8
1外形線
 10
205.29822409302841
 20
671.26153983832626
 30
0.0
 40
0.5
 50
90.0
 51
180.0
  0
ARC
  5
409
  8
1外形線
 10
208.29822409302841
 20
671.26153983832626
 30
0.0
 40
0.5
 50
0.0
 51
90.0
  0
CIRCLE
  5
40A
  8
1外形線
 10
149.7784870001305
 20
743.14410580276774
 30
0.0
 40
2.0
  0
ARC
  5
40B
  8
1外形線
 10
149.7784870001305
 20
743.14410580276774
 30
0.0
 40
4.5
 50
90.0
 51
270.0
  0
LINE
  5
40C
  8
1外形線
 10
114.1784870001306
 20
768.14410580276763
 30
0.0
 11
155.17848700013039
 21
768.14410580276763
 31
0.0
  0
LINE
  5
40D
  8
1外形線
 10
155.17848700013039
 20
764.14410580276763
 30
0.0
 11
114.1784870001306
 21
764.14410580276763
 31
0.0
  0
LINE
  5
40E
  8
1外形線
 10
114.1784870001306
 20
722.14410580276467
 30
0.0
 11
155.17848700013039
 21
722.14410580276763
 31
0.0
  0
LINE
  5
40F
  8
1外形線
 10
155.17848700013039
 20
718.14410580276763
 30
0.0
 11
114.1784870001306
 21
718.14410580276478
 31
0.0
  0
LINE
  5
410
  8
1外形線
 10
147.36534483899769
 20
746.94236131157231
 30
0.0
 11
147.36534483899769
 21
764.14410580276763
 31
0.0
  0
LINE
  5
411
  8
1外形線
 10
138.37881807664371
 20
722.14410580276638
 30
0.0
 11
138.37881807664371
 21
764.14410580276763
 31
0.0
  0
LINE
  5
412
  8
1外形線
 10
89.978155923617578
 20
722.14410580276638
 30
0.0
 11
89.978155923617578
 21
764.14410580276763
 31
0.0
  0
LINE
  5
413
  8
1外形線
 10
147.36534483899769
 20
722.14410580276706
 30
0.0
 11
147.36534483899769
 21
739.34585029396294
 31
0.0
  0
LINE
  5
414
  8
1外形線
 10
153.36995005069321
 20
747.64410580276763
 30
0.0
 11
153.36995005069321
 21
764.14410580276763
 31
0.0
  0
LINE
  5
415
  8
1外形線
 10
154.97848700013029
 20
764.14410580276763
 30
0.0
 11
154.97848700013051
 21
722.14410580276763
 31
0.0
  0
LINE
  5
416
  8
1外形線
 10
153.36995005069321
 20
722.14410580276763
 30
0.0
 11
153.36995005069321
 21
738.64410580276763
 31
0.0
  0
ARC
  5
417
  8
1外形線
 10
155.17848700013039
 20
721.64410580276774
 30
0.0
 40
0.5
 50
0.0
 51
90.0
  0
LINE
  5
418
  8
1外形線
 10
155.67848700013039
 20
721.64410580276763
 30
0.0
 11
155.67848700013039
 21
718.64410580276763
 31
0.0
  0
ARC
  5
419
  8
1外形線
 10
155.17848700013039
 20
718.64410580276774
 30
0.0
 40
0.5
 50
270.0
 51
0.0
  0
CIRCLE
  5
41A
  8
1外形線
 10
149.7784870001305
 20
743.14410580276774
 30
0.0
 40
1.6000000000000001
  0
LINE
  5
41B
  8
1外形線
 10
149.7784870001305
 20
747.64410580276763
 30
0.0
 11
153.47848700013029
 21
747.64410580276763
 31
0.0
  0
LINE
  5
41C
  8
1外形線
 10
149.7784870001305
 20
738.64410580276763
 30
0.0
 11
153.47848700013029
 21
738.64410580276763
 31
0.0
  0
LINE
  5
41D
  8
1外形線
 10
153.47848700013029
 20
747.64410580276763
 30
0.0
 11
153.47848700013029
 21
738.64410580276763
 31
0.0
  0
LINE
  5
41E
  8
1外形線
 10
155.67848700013039
 20
767.64410580276763
 30
0.0
 11
155.67848700013039
 21
764.64410580276763
 31
0.0
  0
ARC
  5
41F
  8
1外形線
 10
155.17848700013039
 20
767.64410580276774
 30
0.0
 40
0.5
 50
0.0
 51
90.0
  0
ARC
  5
420
  8
1外形線
 10
155.17848700013039
 20
764.64410580276774
 30
0.0
 40
0.5
 50
270.0
 51
0.0
  0
LINE
  5
421
  8
1外形線
 10
254.79822409302841
 20
605.66153983832635
 30
0.0
 11
254.79822409302841
 21
671.26153983832626
 31
0.0
  0
LINE
  5
422
  8
1外形線
 10
250.79822409302841
 20
640.66153983832623
 30
0.0
 11
250.79822409302841
 21
605.66153983832635
 31
0.0
  0
LINE
  5
423
  8
1外形線
 10
250.79822409302841
 20
612.19097708984918
 30
0.0
 11
229.79822409302841
 21
612.19097708984918
 31
0.0
  0
LINE
  5
424
  8
1外形線
 10
250.79822409302841
 20
606.98843105805543
 30
0.0
 11
229.79822409302841
 21
606.98843105805543
 31
0.0
  0
LINE
  5
425
  8
1外形線
 10
229.79822409302841
 20
605.66153983832623
 30
0.0
 11
254.79822409302841
 21
605.66153983832635
 31
0.0
  0
LINE
  5
426
  8
1外形線
 10
250.79822409302841
 20
619.97713746156421
 30
0.0
 11
229.79822409302841
 21
619.97713746156421
 31
0.0
  0
LINE
  5
427
  8
1外形線
 10
250.79822409302841
 20
654.46187091483932
 30
0.0
 11
234.29822409302841
 21
654.46187091483944
 31
0.0
  0
LINE
  5
428
  8
1外形線
 10
229.79822409302841
 20
640.66153983832635
 30
0.0
 11
254.79822409302841
 21
640.66153983832623
 31
0.0
  0
LINE
  5
429
  8
1外形線
 10
229.79822409302841
 20
646.66153983832635
 30
0.0
 11
254.79822409302841
 21
646.66153983832623
 31
0.0
  0
LINE
  5
42A
  8
1外形線
 10
229.79822409302841
 20
643.66153983832635
 30
0.0
 11
254.79822409302841
 21
643.66153983832623
 31
0.0
  0
LINE
  5
42B
  8
1外形線
 10
250.79822409302841
 20
663.44839767719373
 30
0.0
 11
233.82032127677911
 21
663.44839767719373
 31
0.0
  0
LINE
  5
42C
  8
1外形線
 10
229.79822409302841
 20
671.06153983832633
 30
0.0
 11
250.79822409302841
 21
671.06153983832633
 31
0.0
  0
LINE
  5
42D
  8
1外形線
 10
250.79822409302841
 20
669.45300288888893
 30
0.0
 11
229.79822409302841
 21
669.45300288888905
 31
0.0
  0
ARC
  5
42E
  8
1外形線
 10
229.79822409302841
 20
661.43029603345428
 30
0.0
 40
4.5
 50
90.0
 51
180.0
  0
ARC
  5
42F
  8
1外形線
 10
229.79822409302841
 20
661.43029603345428
 30
0.0
 40
4.5
 50
0.0
 51
90.0
  0
LINE
  5
430
  8
1外形線
 10
225.29822409302841
 20
650.66153983832635
 30
0.0
 11
229.79822409302841
 21
650.66153983832635
 31
0.0
  0
LINE
  5
431
  8
1外形線
 10
225.29822409302841
 20
650.66153983832635
 30
0.0
 11
225.29822409302841
 21
661.43029603345428
 31
0.0
  0
LINE
  5
432
  8
1外形線
 10
234.29822409302841
 20
650.66153983832635
 30
0.0
 11
229.79822409302841
 21
650.66153983832635
 31
0.0
  0
LINE
  5
433
  8
1外形線
 10
234.29822409302841
 20
650.66153983832635
 30
0.0
 11
234.29822409302841
 21
661.43029603345428
 31
0.0
  0
LINE
  5
434
  8
1外形線
 10
250.79822409302841
 20
671.26153983832626
 30
0.0
 11
250.79822409302841
 21
646.66153983832623
 31
0.0
  0
ARC
  5
435
  8
1外形線
 10
254.29822409302841
 20
671.26153983832626
 30
0.0
 40
0.5
 50
0.0
 51
90.0
  0
ARC
  5
436
  8
1外形線
 10
251.29822409302841
 20
671.26153983832626
 30
0.0
 40
0.5
 50
90.0
 51
180.0
  0
LINE
  5
437
  8
1外形線
 10
254.29822409302841
 20
671.76153983832626
 30
0.0
 11
251.29822409302841
 21
671.76153983832626
 31
0.0
  0
TEXT
  5
438
  8
1外形線
 10
72.678487304709279
 20
1030.244106032671
 30
0.0
 40
10.0
  1
SJ-66
  7
KANJI
  0
LINE
  5
439
  8
1外形線
 10
22.678487000130641
 20
828.14410580276763
 30
0.0
 11
388.67848700013383
 21
828.14410580276763
 31
0.0
  0
LINE
  5
43A
  8
1外形線
 10
388.67848700013383
 20
1060.244105802768
 30
0.0
 11
22.678487000130641
 21
1060.244105802768
 31
0.0
  0
LINE
  5
43B
  8
1外形線
 10
73.178487000130644
 20
950.24410580276765
 30
0.0
 11
106.6784870001308
 21
950.24410580276526
 31
0.0
  0
LINE
  5
43C
  8
1外形線
 10
106.6784870001308
 20
952.24410580276503
 30
0.0
 11
73.178487000130644
 21
952.2441058027681
 31
0.0
  0
LINE
  5
43D
  8
1外形線
 10
73.178487000130644
 20
998.2441058027681
 30
0.0
 11
106.6784870001308
 21
998.24410580276799
 31
0.0
  0
LINE
  5
43E
  8
1外形線
 10
106.6784870001308
 20
1000.244105802768
 30
0.0
 11
73.178487000130644
 21
1000.244105802768
 31
0.0
  0
ARC
  5
43F
  8
1外形線
 10
95.678487000130872
 20
879.34410580276744
 30
0.0
 40
17.0
 50
228.6153324127981
 51
240.73242240247009
  0
ARC
  5
440
  8
1外形線
 10
93.878487000131145
 20
879.34410580276756
 30
0.0
 40
21.199999999999999
 50
180.0
 51
270.0
  0
ARC
  5
441
  8
1外形線
 10
95.678487000130872
 20
879.34410580276744
 30
0.0
 40
19.0
 50
180.0
 51
270.0
  0
ARC
  5
442
  8
1外形線
 10
96.878487000130477
 20
896.0441058027676
 30
0.0
 40
24.199999999999989
 50
90.0
 51
180.0
  0
ARC
  5
443
  8
1外形線
 10
98.677577890438215
 20
895.34410580276744
 30
0.0
 40
22.0
 50
90.0
 51
180.52087789764039
  0
LINE
  5
444
  8
1外形線
 10
77.143613860047253
 20
895.14410580276751
 30
0.0
 11
85.078487000130735
 21
895.14410580276751
 31
0.0
  0
LINE
  5
445
  8
1外形線
 10
72.678487000131099
 20
879.34410580276653
 30
0.0
 11
72.678487000130644
 21
887.14410580276751
 31
0.0
  0
LINE
  5
446
  8
1外形線
 10
76.678487000130872
 20
879.34410580276744
 30
0.0
 11
76.678487000130872
 21
895.14410580276751
 31
0.0
  0
LINE
  5
447
  8
1外形線
 10
81.828487000130735
 20
893.14410580276763
 30
0.0
 11
81.828487000130735
 21
866.33728067132211
 31
0.0
  0
ARC
  5
448
  8
1外形線
 10
83.778487000130553
 20
865.83892161298331
 30
0.0
 40
1.0
 50
48.615332412806772
 51
180.0
  0
LINE
  5
449
  8
1外形線
 10
82.778487000130795
 20
865.83892161298331
 30
0.0
 11
82.778487000130795
 21
865.39455383863606
 31
0.0
  0
LINE
  5
44A
  8
1外形線
 10
72.678487000130644
 20
896.04410580276738
 30
0.0
 11
72.678487000130644
 21
893.14410580276763
 31
0.0
  0
LINE
  5
44B
  8
1外形線
 10
72.678487000130872
 20
887.14410580276751
 30
0.0
 11
73.378487000130676
 21
887.14410580276751
 31
0.0
  0
POLYLINE
  5
44C
  8
1外形線
 66
     1
 10
0.0
 20
0.0
 30
0.0
  0
VERTEX
  5
51E
  8
1外形線
 10
75.178487000130872
 20
890.14410580276774
 30
0.0
  0
VERTEX
  5
51F
  8
1外形線
 10
74.278487000130781
 20
890.14410580276774
 30
0.0
  0
SEQEND
  5
520
  8
1外形線
  0
LINE
  5
44D
  8
1外形線
 10
73.378487000130676
 20
887.14410580276751
 30
0.0
 11
74.278487000130781
 21
890.14410580276774
 31
0.0
  0
LINE
  5
44E
  8
1外形線
 10
72.678487000130644
 20
893.14410580276763
 30
0.0
 11
73.378487000130676
 21
893.14410580276763
 31
0.0
  0
ARC
  5
44F
  8
1外形線
 10
75.678487000131099
 20
894.64410580276751
 30
0.0
 40
0.5
 50
90.0
 51
180.0
  0
LINE
  5
450
  8
1外形線
 10
77.143613860047253
 20
895.14410580276751
 30
0.0
 11
75.678487000131099
 21
895.14410580276751
 31
0.0
  0
LINE
  5
451
  8
1外形線
 10
73.378487000130676
 20
893.14410580276763
 30
0.0
 11
74.278487000130781
 21
890.14410580276774
 31
0.0
  0
LINE
  5
452
  8
1外形線
 10
75.178487000130872
 20
890.14410580276774
 30
0.0
 11
75.179310414121105
 21
894.67278917738395
 31
0.0
  0
LINE
  5
453
  8
1外形線
 10
83.828487000130735
 20
893.14410580276763
 30
0.0
 11
79.678487000130872
 21
893.14410580276763
 31
0.0
  0
LINE
  5
454
  8
1外形線
 10
83.828487000130735
 20
895.14410580276751
 30
0.0
 11
83.828487000130735
 21
893.14410580276763
 31
0.0
  0
LINE
  5
455
  8
1外形線
 10
79.678487000130872
 20
893.14410580276763
 30
0.0
 11
79.678487000130872
 21
895.14410580276751
 31
0.0
  0
CIRCLE
  5
456
  8
1外形線
 10
78.178487000130872
 20
975.2441058027681
 30
0.0
 40
2.0
  0
ARC
  5
457
  8
1外形線
 10
78.178487000130872
 20
975.2441058027681
 30
0.0
 40
4.5
 50
270.0
 51
90.0
  0
LINE
  5
458
  8
1外形線
 10
74.878487000130463
 20
979.74410580276788
 30
0.0
 11
74.878487000130463
 21
970.74410580276788
 31
0.0
  0
LINE
  5
459
  8
1外形線
 10
73.378487000130463
 20
998.24410580276799
 30
0.0
 11
73.378487000130463
 21
952.24410580276788
 31
0.0
  0
CIRCLE
  5
45A
  8
1外形線
 10
78.178487000130872
 20
975.2441058027681
 30
0.0
 40
1.6000000000000001
  0
LINE
  5
45B
  8
1外形線
 10
78.178487000130872
 20
970.74410580276788
 30
0.0
 11
74.878487000130463
 21
970.74410580276788
 31
0.0
  0
LINE
  5
45C
  8
1外形線
 10
72.678487000130644
 20
951.74410580276799
 30
0.0
 11
72.678487000130644
 21
950.74410580276799
 31
0.0
  0
ARC
  5
45D
  8
1外形線
 10
73.178487000130644
 20
950.74410580276799
 30
0.0
 40
0.5
 50
180.0
 51
270.0
  0
ARC
  5
45E
  8
1外形線
 10
73.178487000130644
 20
951.74410580276822
 30
0.0
 40
0.5
 50
90.0
 51
180.0
  0
LINE
  5
45F
  8
1外形線
 10
74.998559468409439
 20
952.24410580276788
 30
0.0
 11
74.998559468409439
 21
970.74410580276788
 31
0.0
  0
LINE
  5
460
  8
1外形線
 10
80.678614550812426
 20
952.24410580276731
 30
0.0
 11
80.678614550812426
 21
971.50253364252274
 31
0.0
  0
LINE
  5
461
  8
1外形線
 10
72.678487000130644
 20
999.74410580276799
 30
0.0
 11
72.678487000130644
 21
998.74410580276799
 31
0.0
  0
ARC
  5
462
  8
1外形線
 10
73.178487000130644
 20
999.74410580276799
 30
0.0
 40
0.5
 50
90.0
 51
180.0
  0
ARC
  5
463
  8
1外形線
 10
73.178487000130644
 20
998.74410580276799
 30
0.0
 40
0.5
 50
180.0
 51
270.0
  0
LINE
  5
464
  8
1外形線
 10
78.178487000130872
 20
979.74410580276788
 30
0.0
 11
74.878487000130463
 21
979.74410580276788
 31
0.0
  0
LINE
  5
465
  8
1外形線
 10
74.998559468409439
 20
979.74410580276788
 30
0.0
 11
74.998559468409439
 21
998.2441058027681
 31
0.0
  0
LINE
  5
466
  8
1外形線
 10
80.678614550812426
 20
978.98567796301325
 30
0.0
 11
80.678614550812426
 21
998.2441058027681
 31
0.0
  0
LINE
  5
467
  8
1外形線
 10
218.67848700013101
 20
870.77383171353893
 30
0.0
 11
195.6784870001311
 21
870.77383171353893
 31
0.0
  0
LINE
  5
468
  8
1外形線
 10
218.67848700013101
 20
863.71754077603225
 30
0.0
 11
195.6784870001311
 21
863.71754077603225
 31
0.0
  0
LINE
  5
469
  8
1外形線
 10
218.67848700013101
 20
859.32969719546475
 30
0.0
 11
195.6784870001311
 21
859.32969719546475
 31
0.0
  0
LINE
  5
46A
  8
1外形線
 10
195.6784870001311
 20
919.54410580276749
 30
0.0
 11
218.67848700013101
 21
919.54410580276749
 31
0.0
  0
LINE
  5
46B
  8
1外形線
 10
218.67848700013101
 20
918.43568968230397
 30
0.0
 11
195.6784870001311
 21
918.43568968230397
 31
0.0
  0
LINE
  5
46C
  8
1外形線
 10
218.67848700013101
 20
905.15227637685257
 30
0.0
 11
200.1784870001311
 21
905.15227637685257
 31
0.0
  0
LINE
  5
46D
  8
1外形線
 10
218.67848700013101
 20
913.34306914239596
 30
0.0
 11
198.59116256493709
 21
913.34306914239596
 31
0.0
  0
LINE
  5
46E
  8
1外形線
 10
195.6784870001311
 20
887.14410580276751
 30
0.0
 11
220.67848700013101
 21
887.1441058027674
 31
0.0
  0
LINE
  5
46F
  8
1外形線
 10
195.6784870001311
 20
893.1441058027674
 30
0.0
 11
220.67848700013101
 21
893.1441058027674
 31
0.0
  0
LINE
  5
470
  8
1外形線
 10
195.6784870001311
 20
890.14410580276751
 30
0.0
 11
220.67848700013101
 21
890.14410580276729
 31
0.0
  0
LINE
  5
471
  8
1外形線
 10
195.6784870001311
 20
858.14410580276729
 30
0.0
 11
220.67848700013101
 21
858.1441058027674
 31
0.0
  0
LINE
  5
472
  8
1外形線
 10
136.67848700013079
 20
879.34410580276744
 30
0.0
 11
136.67848700013079
 21
895.14410580276751
 31
0.0
  0
LINE
  5
473
  8
1外形線
 10
140.67848700013059
 20
879.34410580276653
 30
0.0
 11
140.6784870001311
 21
887.14410580276751
 31
0.0
  0
LINE
  5
474
  8
1外形線
 10
131.52848700013101
 20
893.14410580276763
 30
0.0
 11
131.52848700013101
 21
866.33728067132211
 31
0.0
  0
LINE
  5
475
  8
1外形線
 10
106.6784870001308
 20
860.34410580276744
 30
0.0
 11
117.6784870001308
 21
860.34410580276744
 31
0.0
  0
LINE
  5
476
  8
1外形線
 10
106.6784870001308
 20
858.14410580276763
 30
0.0
 11
119.4784870001305
 21
858.14410580276763
 31
0.0
  0
LINE
  5
477
  8
1外形線
 10
106.6784870001308
 20
858.14410580276763
 30
0.0
 11
93.878487000131145
 21
858.14410580276763
 31
0.0
  0
LINE
  5
478
  8
1外形線
 10
106.6784870001308
 20
860.34410580276744
 30
0.0
 11
95.678487000130872
 21
860.34410580276744
 31
0.0
  0
ARC
  5
479
  8
1外形線
 10
86.878487000131145
 20
863.64187666165481
 30
0.0
 40
1.0
 50
0.0
 51
60.732422402470121
  0
LINE
  5
47A
  8
1外形線
 10
87.878487000130903
 20
863.64187666165481
 30
0.0
 11
87.878487000131145
 21
862.01897954060109
 31
0.0
  0
ARC
  5
47B
  8
1外形線
 10
117.6784870001308
 20
879.34410580276744
 30
0.0
 40
19.0
 50
270.0
 51
0.0
  0
ARC
  5
47C
  8
1外形線
 10
119.4784870001305
 20
879.34410580276756
 30
0.0
 40
21.199999999999999
 50
270.0
 51
0.0
  0
LINE
  5
47D
  8
1外形線
 10
130.57848700013091
 20
865.83892161298331
 30
0.0
 11
130.57848700013091
 21
865.39455383863606
 31
0.0
  0
ARC
  5
47E
  8
1外形線
 10
129.5784870001311
 20
865.83892161298331
 30
0.0
 40
1.0
 50
0.0
 51
131.38466758719321
  0
LINE
  5
47F
  8
1外形線
 10
125.4784870001308
 20
863.64187666165481
 30
0.0
 11
125.4784870001306
 21
862.01897954060109
 31
0.0
  0
ARC
  5
480
  8
1外形線
 10
117.6784870001308
 20
879.34410580276744
 30
0.0
 40
17.0
 50
299.26757759752979
 51
311.38466758720182
  0
ARC
  5
481
  8
1外形線
 10
126.4784870001306
 20
863.64187666165481
 30
0.0
 40
1.0
 50
119.26757759752969
 51
180.0
  0
LINE
  5
482
  8
1外形線
 10
116.478487000131
 20
920.24410580276754
 30
0.0
 11
106.6784870001308
 21
920.24410580276754
 31
0.0
  0
ARC
  5
483
  8
1外形線
 10
114.6793961098235
 20
895.34410580276744
 30
0.0
 40
22.0
 50
359.4791221023595
 51
90.0
  0
LINE
  5
484
  8
1外形線
 10
107.4284870001308
 20
917.34410580276744
 30
0.0
 11
107.4284870001308
 21
911.34410580276744
 31
0.0
  0
LINE
  5
485
  8
1外形線
 10
105.9284870001308
 20
917.34410580276744
 30
0.0
 11
105.9284870001308
 21
911.34410580276744
 31
0.0
  0
LINE
  5
486
  8
1外形線
 10
85.078487000130977
 20
912.63759379556848
 30
0.0
 11
85.078487000130735
 21
895.14410580276751
 31
0.0
  0
LINE
  5
487
  8
1外形線
 10
107.4284870001308
 20
911.34410580276744
 30
0.0
 11
106.6784870001308
 21
911.34410580276744
 31
0.0
  0
LINE
  5
488
  8
1外形線
 10
105.9284870001308
 20
911.34410580276744
 30
0.0
 11
106.6784870001308
 21
911.34410580276744
 31
0.0
  0
LINE
  5
489
  8
1外形線
 10
106.6784870001308
 20
917.34410580276744
 30
0.0
 11
98.677577890438215
 21
917.34410580276744
 31
0.0
  0
LINE
  5
48A
  8
1外形線
 10
96.878487000130704
 20
920.24410580276754
 30
0.0
 11
106.6784870001308
 21
920.24410580276754
 31
0.0
  0
LINE
  5
48B
  8
1外形線
 10
106.6784870001308
 20
917.34410580276744
 30
0.0
 11
114.6793961098235
 21
917.34410580276744
 31
0.0
  0
ARC
  5
48C
  8
1外形線
 10
116.4784870001312
 20
896.0441058027676
 30
0.0
 40
24.199999999999989
 50
0.0
 51
90.0
  0
LINE
  5
48D
  8
1外形線
 10
129.52848700013101
 20
893.14410580276763
 30
0.0
 11
133.67848700013079
 21
893.14410580276763
 31
0.0
  0
LINE
  5
48E
  8
1外形線
 10
136.21336014021449
 20
895.14410580276751
 30
0.0
 11
128.27848700013101
 21
895.14410580276751
 31
0.0
  0
LINE
  5
48F
  8
1外形線
 10
129.52848700013101
 20
895.14410580276751
 30
0.0
 11
129.52848700013101
 21
893.14410580276763
 31
0.0
  0
LINE
  5
490
  8
1外形線
 10
128.2784870001307
 20
912.63759379556848
 30
0.0
 11
128.27848700013101
 21
895.14410580276751
 31
0.0
  0
POLYLINE
  5
491
  8
1外形線
 66
     1
 10
0.0
 20
0.0
 30
0.0
  0
VERTEX
  5
521
  8
1外形線
 10
138.17848700013079
 20
890.14410580276774
 30
0.0
  0
VERTEX
  5
522
  8
1外形線
 10
139.07848700013091
 20
890.14410580276774
 30
0.0
  0
SEQEND
  5
523
  8
1外形線
  0
ARC
  5
492
  8
1外形線
 10
137.67848700013059
 20
894.64410580276751
 30
0.0
 40
0.5
 50
0.0
 51
90.0
  0
LINE
  5
493
  8
1外形線
 10
133.67848700013079
 20
893.14410580276763
 30
0.0
 11
133.67848700013079
 21
895.14410580276751
 31
0.0
  0
LINE
  5
494
  8
1外形線
 10
140.67848700013079
 20
887.14410580276751
 30
0.0
 11
139.978487000131
 21
887.14410580276751
 31
0.0
  0
LINE
  5
495
  8
1外形線
 10
139.978487000131
 20
893.14410580276763
 30
0.0
 11
139.07848700013091
 21
890.14410580276774
 31
0.0
  0
LINE
  5
496
  8
1外形線
 10
139.978487000131
 20
887.14410580276751
 30
0.0
 11
139.07848700013091
 21
890.14410580276774
 31
0.0
  0
LINE
  5
497
  8
1外形線
 10
140.6784870001311
 20
893.14410580276763
 30
0.0
 11
139.978487000131
 21
893.14410580276763
 31
0.0
  0
LINE
  5
498
  8
1外形線
 10
140.6784870001311
 20
896.04410580276738
 30
0.0
 11
140.6784870001311
 21
893.14410580276763
 31
0.0
  0
LINE
  5
499
  8
1外形線
 10
138.17848700013079
 20
890.14410580276774
 30
0.0
 11
138.1776635861406
 21
894.67278917738395
 31
0.0
  0
LINE
  5
49A
  8
1外形線
 10
136.21336014021449
 20
895.14410580276751
 30
0.0
 11
137.67848700013059
 21
895.14410580276751
 31
0.0
  0
LINE
  5
49B
  8
1外形線
 10
172.6784870001311
 20
887.1441058027674
 30
0.0
 11
172.6784870001311
 21
858.1441058027674
 31
0.0
  0
LINE
  5
49C
  8
1外形線
 10
170.6784870001311
 20
858.1441058027674
 30
0.0
 11
170.6784870001311
 21
919.74410580276765
 31
0.0
  0
LINE
  5
49D
  8
1外形線
 10
172.6784870001311
 20
859.32969719546475
 30
0.0
 11
195.6784870001311
 21
859.32969719546475
 31
0.0
  0
LINE
  5
49E
  8
1外形線
 10
172.6784870001311
 20
863.71754077603225
 30
0.0
 11
195.6784870001311
 21
863.71754077603225
 31
0.0
  0
LINE
  5
49F
  8
1外形線
 10
172.6784870001311
 20
870.77383171353893
 30
0.0
 11
195.6784870001311
 21
870.77383171353893
 31
0.0
  0
LINE
  5
4A0
  8
1外形線
 10
195.6784870001311
 20
858.14410580276729
 30
0.0
 11
170.6784870001311
 21
858.1441058027674
 31
0.0
  0
LINE
  5
4A1
  8
1外形線
 10
172.6784870001311
 20
905.15227637685257
 30
0.0
 11
191.17848700013101
 21
905.15227637685257
 31
0.0
  0
LINE
  5
4A2
  8
1外形線
 10
172.6784870001311
 20
913.34306914239596
 30
0.0
 11
192.76581143532499
 21
913.34306914239596
 31
0.0
  0
LINE
  5
4A3
  8
1外形線
 10
172.6784870001311
 20
918.43568968230397
 30
0.0
 11
195.6784870001311
 21
918.43568968230397
 31
0.0
  0
LINE
  5
4A4
  8
1外形線
 10
195.6784870001311
 20
890.14410580276751
 30
0.0
 11
170.6784870001311
 21
890.14410580276729
 31
0.0
  0
LINE
  5
4A5
  8
1外形線
 10
195.6784870001311
 20
893.1441058027674
 30
0.0
 11
170.6784870001311
 21
893.1441058027674
 31
0.0
  0
LINE
  5
4A6
  8
1外形線
 10
195.6784870001311
 20
887.14410580276751
 30
0.0
 11
170.6784870001311
 21
887.1441058027674
 31
0.0
  0
LINE
  5
4A7
  8
1外形線
 10
195.6784870001311
 20
919.54410580276749
 30
0.0
 11
172.6784870001311
 21
919.54410580276749
 31
0.0
  0
LINE
  5
4A8
  8
1外形線
 10
172.6784870001311
 20
919.74410580276765
 30
0.0
 11
172.6784870001311
 21
893.1441058027674
 31
0.0
  0
ARC
  5
4A9
  8
1外形線
 10
171.17848700013101
 20
919.74410580276765
 30
0.0
 40
0.5
 50
90.0
 51
180.0
  0
ARC
  5
4AA
  8
1外形線
 10
172.17848700013101
 20
919.74410580276765
 30
0.0
 40
0.5
 50
0.0
 51
90.0
  0
LINE
  5
4AB
  8
1外形線
 10
171.17848700013101
 20
920.24410580276754
 30
0.0
 11
172.17848700013101
 21
920.24410580276754
 31
0.0
  0
ARC
  5
4AC
  8
1外形線
 10
195.6784870001311
 20
909.91286199789545
 30
0.0
 40
4.5
 50
0.0
 51
90.0
  0
ARC
  5
4AD
  8
1外形線
 10
195.6784870001311
 20
909.91286199789545
 30
0.0
 40
4.5
 50
90.0
 51
180.0
  0
LINE
  5
4AE
  8
1外形線
 10
195.6784870001311
 20
897.14410580276751
 30
0.0
 11
191.17848700013101
 21
897.14410580276751
 31
0.0
  0
LINE
  5
4AF
  8
1外形線
 10
191.17848700013101
 20
897.14410580276751
 30
0.0
 11
191.17848700013101
 21
909.91286199789545
 31
0.0
  0
LINE
  5
4B0
  8
1外形線
 10
195.6784870001311
 20
897.14410580276751
 30
0.0
 11
200.1784870001311
 21
897.14410580276751
 31
0.0
  0
LINE
  5
4B1
  8
1外形線
 10
200.1784870001311
 20
897.14410580276751
 30
0.0
 11
200.1784870001311
 21
909.91286199789545
 31
0.0
  0
LINE
  5
4B2
  8
1外形線
 10
106.6784870001308
 20
1000.244105802768
 30
0.0
 11
140.17848700013101
 21
1000.244105802768
 31
0.0
  0
LINE
  5
4B3
  8
1外形線
 10
140.17848700013101
 20
998.2441058027681
 30
0.0
 11
106.6784870001308
 21
998.24410580276799
 31
0.0
  0
LINE
  5
4B4
  8
1外形線
 10
106.6784870001308
 20
952.24410580276503
 30
0.0
 11
140.17848700013101
 21
952.2441058027681
 31
0.0
  0
LINE
  5
4B5
  8
1外形線
 10
140.17848700013101
 20
950.24410580276765
 30
0.0
 11
106.6784870001308
 21
950.24410580276526
 31
0.0
  0
LINE
  5
4B6
  8
1外形線
 10
89.112730670856067
 20
952.24410580276663
 30
0.0
 11
89.112730670856067
 21
998.24410580276799
 31
0.0
  0
LINE
  5
4B7
  8
1外形線
 10
124.24424332940561
 20
952.24410580276663
 30
0.0
 11
124.24424332940561
 21
998.24410580276799
 31
0.0
  0
CIRCLE
  5
4B8
  8
1外形線
 10
135.17848700013079
 20
975.2441058027681
 30
0.0
 40
2.0
  0
LINE
  5
4B9
  8
1外形線
 10
139.9784870001312
 20
998.24410580276799
 30
0.0
 11
139.9784870001312
 21
952.24410580276788
 31
0.0
  0
LINE
  5
4BA
  8
1外形線
 10
138.4784870001312
 20
979.74410580276788
 30
0.0
 11
138.4784870001312
 21
970.74410580276788
 31
0.0
  0
ARC
  5
4BB
  8
1外形線
 10
135.17848700013079
 20
975.2441058027681
 30
0.0
 40
4.5
 50
90.0
 51
270.0
  0
LINE
  5
4BC
  8
1外形線
 10
138.3584145318523
 20
952.24410580276788
 30
0.0
 11
138.3584145318523
 21
970.74410580276788
 31
0.0
  0
LINE
  5
4BD
  8
1外形線
 10
132.67835944944929
 20
952.24410580276731
 30
0.0
 11
132.67835944944929
 21
971.50253364252274
 31
0.0
  0
CIRCLE
  5
4BE
  8
1外形線
 10
135.17848700013079
 20
975.2441058027681
 30
0.0
 40
1.6000000000000001
  0
ARC
  5
4BF
  8
1外形線
 10
140.17848700013101
 20
951.74410580276822
 30
0.0
 40
0.5
 50
0.0
 51
90.0
  0
ARC
  5
4C0
  8
1外形線
 10
140.17848700013101
 20
950.74410580276799
 30
0.0
 40
0.5
 50
270.0
 51
0.0
  0
LINE
  5
4C1
  8
1外形線
 10
140.6784870001311
 20
951.74410580276799
 30
0.0
 11
140.6784870001311
 21
950.74410580276799
 31
0.0
  0
LINE
  5
4C2
  8
1外形線
 10
135.17848700013079
 20
970.74410580276788
 30
0.0
 11
138.4784870001312
 21
970.74410580276788
 31
0.0
  0
LINE
  5
4C3
  8
1外形線
 10
132.67835944944929
 20
978.98567796301325
 30
0.0
 11
132.67835944944929
 21
998.2441058027681
 31
0.0
  0
LINE
  5
4C4
  8
1外形線
 10
138.3584145318523
 20
979.74410580276788
 30
0.0
 11
138.3584145318523
 21
998.2441058027681
 31
0.0
  0
ARC
  5
4C5
  8
1外形線
 10
140.17848700013101
 20
998.74410580276799
 30
0.0
 40
0.5
 50
270.0
 51
0.0
  0
ARC
  5
4C6
  8
1外形線
 10
140.17848700013101
 20
999.74410580276799
 30
0.0
 40
0.5
 50
0.0
 51
90.0
  0
LINE
  5
4C7
  8
1外形線
 10
140.6784870001311
 20
999.74410580276799
 30
0.0
 11
140.6784870001311
 21
998.74410580276799
 31
0.0
  0
LINE
  5
4C8
  8
1外形線
 10
135.17848700013079
 20
979.74410580276788
 30
0.0
 11
138.4784870001312
 21
979.74410580276788
 31
0.0
  0
LINE
  5
4C9
  8
1外形線
 10
220.67848700013101
 20
858.1441058027674
 30
0.0
 11
220.67848700013101
 21
919.74410580276765
 31
0.0
  0
LINE
  5
4CA
  8
1外形線
 10
218.67848700013101
 20
887.1441058027674
 30
0.0
 11
218.67848700013101
 21
858.1441058027674
 31
0.0
  0
LINE
  5
4CB
  8
1外形線
 10
218.67848700013101
 20
919.74410580276765
 30
0.0
 11
218.67848700013101
 21
893.1441058027674
 31
0.0
  0
ARC
  5
4CC
  8
1外形線
 10
220.17848700013101
 20
919.74410580276765
 30
0.0
 40
0.5
 50
0.0
 51
90.0
  0
ARC
  5
4CD
  8
1外形線
 10
219.1784870001311
 20
919.74410580276765
 30
0.0
 40
0.5
 50
90.0
 51
180.0
  0
LINE
  5
4CE
  8
1外形線
 10
220.17848700013101
 20
920.24410580276754
 30
0.0
 11
219.1784870001311
 21
920.24410580276754
 31
0.0
  0
ENDSEC
  0
EOF
