  0
SECTION
  2
HEADER
  9
$ACADVER
  1
AC1015
  9
$ACADMAINTVER
 70
    20
  9
$DWGCODEPAGE
  3
ANSI_932
  9
$INSBASE
 10
0.0
 20
0.0
 30
0.0
  9
$EXTMIN
 10
25.80370362560484
 20
263.5343601822332
 30
-0.0000000349181948
  9
$EXTMAX
 10
595.8854965675286
 20
462.5367501031349
 30
0.0000000814935747
  9
$LIMMIN
 10
0.0
 20
0.0
  9
$LIMMAX
 10
420.0
 20
297.0
  9
$ORTHOMODE
 70
     0
  9
$REGENMODE
 70
     1
  9
$FILLMODE
 70
     1
  9
$QTEXTMODE
 70
     0
  9
$MIRRTEXT
 70
     1
  9
$LTSCALE
 40
1.0
  9
$ATTMODE
 70
     1
  9
$TEXTSIZE
 40
2.5
  9
$TRACEWID
 40
1.0
  9
$TEXTSTYLE
  7
STANDARD
  9
$CLAYER
  8
0
  9
$CELTYPE
  6
ByLayer
  9
$CECOLOR
 62
   256
  9
$CELTSCALE
 40
1.0
  9
$DISPSILH
 70
     0
  9
$DIMSCALE
 40
1.0
  9
$DIMASZ
 40
2.5
  9
$DIMEXO
 40
0.625
  9
$DIMDLI
 40
3.75
  9
$DIMRND
 40
0.0
  9
$DIMDLE
 40
0.0
  9
$DIMEXE
 40
1.25
  9
$DIMTP
 40
0.0
  9
$DIMTM
 40
0.0
  9
$DIMTXT
 40
2.5
  9
$DIMCEN
 40
2.5
  9
$DIMTSZ
 40
0.0
  9
$DIMTOL
 70
     0
  9
$DIMLIM
 70
     0
  9
$DIMTIH
 70
     0
  9
$DIMTOH
 70
     0
  9
$DIMSE1
 70
     0
  9
$DIMSE2
 70
     0
  9
$DIMTAD
 70
     1
  9
$DIMZIN
 70
     8
  9
$DIMBLK
  1

  9
$DIMASO
 70
     1
  9
$DIMSHO
 70
     1
  9
$DIMPOST
  1

  9
$DIMAPOST
  1

  9
$DIMALT
 70
     0
  9
$DIMALTD
 70
     3
  9
$DIMALTF
 40
0.03937007874016
  9
$DIMLFAC
 40
1.0
  9
$DIMTOFL
 70
     1
  9
$DIMTVP
 40
0.0
  9
$DIMTIX
 70
     0
  9
$DIMSOXD
 70
     0
  9
$DIMSAH
 70
     0
  9
$DIMBLK1
  1

  9
$DIMBLK2
  1

  9
$DIMSTYLE
  2
ISO-25
  9
$DIMCLRD
 70
     0
  9
$DIMCLRE
 70
     0
  9
$DIMCLRT
 70
     0
  9
$DIMTFAC
 40
1.0
  9
$DIMGAP
 40
0.625
  9
$DIMJUST
 70
     0
  9
$DIMSD1
 70
     0
  9
$DIMSD2
 70
     0
  9
$DIMTOLJ
 70
     1
  9
$DIMTZIN
 70
     0
  9
$DIMALTZ
 70
     0
  9
$DIMALTTZ
 70
     0
  9
$DIMUPT
 70
     0
  9
$DIMDEC
 70
     4
  9
$DIMTDEC
 70
     4
  9
$DIMALTU
 70
     2
  9
$DIMALTTD
 70
     2
  9
$DIMTXSTY
  7
STANDARD
  9
$DIMAUNIT
 70
     0
  9
$DIMADEC
 70
     0
  9
$DIMALTRND
 40
0.0
  9
$DIMAZIN
 70
     0
  9
$DIMDSEP
 70
    46
  9
$DIMATFIT
 70
     3
  9
$DIMFRAC
 70
     0
  9
$DIMLDRBLK
  1

  9
$DIMLUNIT
 70
     2
  9
$DIMLWD
 70
    -2
  9
$DIMLWE
 70
    -2
  9
$DIMTMOVE
 70
     0
  9
$LUNITS
 70
     2
  9
$LUPREC
 70
     4
  9
$SKETCHINC
 40
1.0
  9
$FILLETRAD
 40
10.0
  9
$AUNITS
 70
     0
  9
$AUPREC
 70
     0
  9
$MENU
  1
.
  9
$ELEVATION
 40
0.0
  9
$PELEVATION
 40
0.0
  9
$THICKNESS
 40
0.0
  9
$LIMCHECK
 70
     0
  9
$CHAMFERA
 40
10.0
  9
$CHAMFERB
 40
10.0
  9
$CHAMFERC
 40
0.0
  9
$CHAMFERD
 40
0.0
  9
$SKPOLY
 70
     0
  9
$TDCREATE
 40
2452216.481322512
  9
$TDUCREATE
 40
2452216.106322512
  9
$TDUPDATE
 40
2455499.672819664
  9
$TDUUPDATE
 40
2455499.297819664
  9
$TDINDWG
 40
0.0008188889
  9
$TDUSRTIMER
 40
0.0008187037
  9
$USRTIMER
 70
     1
  9
$ANGBASE
 50
0.0
  9
$ANGDIR
 70
     0
  9
$PDMODE
 70
     0
  9
$PDSIZE
 40
0.0
  9
$PLINEWID
 40
0.0
  9
$SPLFRAME
 70
     0
  9
$SPLINETYPE
 70
     6
  9
$SPLINESEGS
 70
     8
  9
$HANDSEED
  5
2B9
  9
$SURFTAB1
 70
     6
  9
$SURFTAB2
 70
     6
  9
$SURFTYPE
 70
     6
  9
$SURFU
 70
     6
  9
$SURFV
 70
     6
  9
$UCSBASE
  2

  9
$UCSNAME
  2

  9
$UCSORG
 10
0.0
 20
0.0
 30
0.0
  9
$UCSXDIR
 10
1.0
 20
0.0
 30
0.0
  9
$UCSYDIR
 10
0.0
 20
1.0
 30
0.0
  9
$UCSORTHOREF
  2

  9
$UCSORTHOVIEW
 70
     0
  9
$UCSORGTOP
 10
0.0
 20
0.0
 30
0.0
  9
$UCSORGBOTTOM
 10
0.0
 20
0.0
 30
0.0
  9
$UCSORGLEFT
 10
0.0
 20
0.0
 30
0.0
  9
$UCSORGRIGHT
 10
0.0
 20
0.0
 30
0.0
  9
$UCSORGFRONT
 10
0.0
 20
0.0
 30
0.0
  9
$UCSORGBACK
 10
0.0
 20
0.0
 30
0.0
  9
$PUCSBASE
  2

  9
$PUCSNAME
  2

  9
$PUCSORG
 10
0.0
 20
0.0
 30
0.0
  9
$PUCSXDIR
 10
1.0
 20
0.0
 30
0.0
  9
$PUCSYDIR
 10
0.0
 20
1.0
 30
0.0
  9
$PUCSORTHOREF
  2

  9
$PUCSORTHOVIEW
 70
     0
  9
$PUCSORGTOP
 10
0.0
 20
0.0
 30
0.0
  9
$PUCSORGBOTTOM
 10
0.0
 20
0.0
 30
0.0
  9
$PUCSORGLEFT
 10
0.0
 20
0.0
 30
0.0
  9
$PUCSORGRIGHT
 10
0.0
 20
0.0
 30
0.0
  9
$PUCSORGFRONT
 10
0.0
 20
0.0
 30
0.0
  9
$PUCSORGBACK
 10
0.0
 20
0.0
 30
0.0
  9
$USERI1
 70
     0
  9
$USERI2
 70
     0
  9
$USERI3
 70
     0
  9
$USERI4
 70
     0
  9
$USERI5
 70
     0
  9
$USERR1
 40
0.0
  9
$USERR2
 40
0.0
  9
$USERR3
 40
0.0
  9
$USERR4
 40
0.0
  9
$USERR5
 40
0.0
  9
$WORLDVIEW
 70
     1
  9
$SHADEDGE
 70
     3
  9
$SHADEDIF
 70
    70
  9
$TILEMODE
 70
     1
  9
$MAXACTVP
 70
    64
  9
$PINSBASE
 10
0.0
 20
0.0
 30
0.0
  9
$PLIMCHECK
 70
     0
  9
$PEXTMIN
 10
1.000000000000000E+20
 20
1.000000000000000E+20
 30
1.000000000000000E+20
  9
$PEXTMAX
 10
-1.000000000000000E+20
 20
-1.000000000000000E+20
 30
-1.000000000000000E+20
  9
$PLIMMIN
 10
0.0
 20
0.0
  9
$PLIMMAX
 10
420.0
 20
297.0
  9
$UNITMODE
 70
     0
  9
$VISRETAIN
 70
     1
  9
$PLINEGEN
 70
     0
  9
$PSLTSCALE
 70
     1
  9
$TREEDEPTH
 70
  3020
  9
$CMLSTYLE
  2
Standard
  9
$CMLJUST
 70
     0
  9
$CMLSCALE
 40
1.0
  9
$PROXYGRAPHICS
 70
     1
  9
$MEASUREMENT
 70
     0
  9
$CELWEIGHT
370
    -1
  9
$ENDCAPS
280
     0
  9
$JOINSTYLE
280
     0
  9
$LWDISPLAY
290
     0
  9
$INSUNITS
 70
     0
  9
$HYPERLINKBASE
  1

  9
$STYLESHEET
  1

  9
$XEDIT
290
     1
  9
$CEPSNTYPE
380
     0
  9
$PSTYLEMODE
290
     1
  9
$FINGERPRINTGUID
  2
{EB4856B5-0857-45B7-8F50-53CF81CBE0F2}
  9
$VERSIONGUID
  2
{7A44E616-496C-4EB7-B50C-8B78ECB74129}
  9
$EXTNAMES
290
     1
  9
$PSVPSCALE
 40
0.0
  9
$OLESTARTUP
290
     0
  0
ENDSEC
  0
SECTION
  2
CLASSES
  0
CLASS
  1
ACDBDICTIONARYWDFLT
  2
AcDbDictionaryWithDefault
  3
ObjectDBX Classes
 90
        0
280
     0
281
     0
  0
CLASS
  1
TABLESTYLE
  2
AcDbTableStyle
  3
ObjectDBX Classes
 90
     2047
280
     0
281
     0
  0
CLASS
  1
DICTIONARYVAR
  2
AcDbDictionaryVar
  3
ObjectDBX Classes
 90
        0
280
     0
281
     0
  0
CLASS
  1
ACDBPLACEHOLDER
  2
AcDbPlaceHolder
  3
ObjectDBX Classes
 90
        0
280
     0
281
     0
  0
CLASS
  1
LAYOUT
  2
AcDbLayout
  3
ObjectDBX Classes
 90
        0
280
     0
281
     0
  0
ENDSEC
  0
SECTION
  2
TABLES
  0
TABLE
  2
VPORT
  5
281
330
0
100
AcDbSymbolTable
 70
     2
  0
VPORT
  5
2B3
330
281
100
AcDbSymbolTableRecord
100
AcDbViewportTableRecord
  2
*Active
 70
     0
 10
0.0
 20
0.0
 11
1.0
 21
1.0
 12
310.8446000965667
 22
363.0355551426841
 13
0.0
 23
0.0
 14
10.0
 24
10.0
 15
10.0
 25
10.0
 16
0.0
 26
0.0
 36
1.0
 17
0.0
 27
0.0
 37
0.0
 40
354.1238150848825
 41
1.617724867724867
 42
50.0
 43
0.0
 44
0.0
 50
0.0
 51
0.0
 71
     0
 72
   100
 73
     1
 74
     3
 75
     0
 76
     0
 77
     0
 78
     0
281
     0
 65
     0
110
0.0
120
0.0
130
0.0
111
1.0
121
0.0
131
0.0
112
0.0
122
1.0
132
0.0
 79
     0
146
0.0
  0
ENDTAB
  0
TABLE
  2
LTYPE
  5
27E
330
0
100
AcDbSymbolTable
 70
     1
  0
LTYPE
  5
28C
330
27E
100
AcDbSymbolTableRecord
100
AcDbLinetypeTableRecord
  2
ByBlock
 70
     0
  3

 72
    65
 73
     0
 40
0.0
  0
LTYPE
  5
28D
330
27E
100
AcDbSymbolTableRecord
100
AcDbLinetypeTableRecord
  2
ByLayer
 70
     0
  3

 72
    65
 73
     0
 40
0.0
  0
LTYPE
  5
28E
330
27E
100
AcDbSymbolTableRecord
100
AcDbLinetypeTableRecord
  2
CONTINUOUS
 70
     0
  3
Solid line
 72
    65
 73
     0
 40
0.0
  0
ENDTAB
  0
TABLE
  2
LAYER
  5
27B
330
0
100
AcDbSymbolTable
 70
     2
  0
LAYER
  5
289
330
27B
100
AcDbSymbolTableRecord
100
AcDbLayerTableRecord
  2
0
 70
     0
 62
     7
  6
CONTINUOUS
370
    -3
390
288
  0
LAYER
  5
2A0
330
27B
100
AcDbSymbolTableRecord
100
AcDbLayerTableRecord
  2
1外形線
 70
     0
 62
     3
  6
CONTINUOUS
370
    -3
390
288
  0
ENDTAB
  0
TABLE
  2
STYLE
  5
27C
330
0
100
AcDbSymbolTable
 70
     2
  0
STYLE
  5
28A
330
27C
100
AcDbSymbolTableRecord
100
AcDbTextStyleTableRecord
  2
STANDARD
 70
     0
 40
0.0
 41
1.0
 50
0.0
 71
     0
 42
2.5
  3
txt
  4

  0
STYLE
  5
2A1
330
27C
100
AcDbSymbolTableRecord
100
AcDbTextStyleTableRecord
  2
KANJI
 70
     0
 40
0.0
 41
1.0
 50
0.0
 71
     0
 42
2.5
  3
simplex.shx
  4
extfont.shx
  0
ENDTAB
  0
TABLE
  2
VIEW
  5
27F
330
0
100
AcDbSymbolTable
 70
     0
  0
ENDTAB
  0
TABLE
  2
UCS
  5
280
330
0
100
AcDbSymbolTable
 70
     0
  0
ENDTAB
  0
TABLE
  2
APPID
  5
282
330
0
100
AcDbSymbolTable
 70
     1
  0
APPID
  5
28B
330
282
100
AcDbSymbolTableRecord
100
AcDbRegAppTableRecord
  2
ACAD
 70
     0
  0
ENDTAB
  0
TABLE
  2
DIMSTYLE
  5
283
330
0
100
AcDbSymbolTable
 70
     2
100
AcDbDimStyleTable
 71
     0
  0
DIMSTYLE
105
2A2
330
283
100
AcDbSymbolTableRecord
100
AcDbDimStyleTableRecord
  2
ISO-25
 70
     0
 41
2.5
 42
0.625
 43
3.75
 44
1.25
 73
     0
 74
     0
 77
     1
 78
     8
140
2.5
141
2.5
143
0.03937007874016
147
0.625
171
     3
172
     1
274
     3
279
     2
284
     8
285
     8
286
     8
340
28A
  0
DIMSTYLE
105
2A3
330
283
100
AcDbSymbolTableRecord
100
AcDbDimStyleTableRecord
  2
STANDARD
 70
     0
274
     3
279
     2
284
     8
285
     8
286
     8
340
28A
  0
ENDTAB
  0
TABLE
  2
BLOCK_RECORD
  5
27A
330
0
100
AcDbSymbolTable
 70
     4
  0
BLOCK_RECORD
  5
29B
330
27A
100
AcDbSymbolTableRecord
100
AcDbBlockTableRecord
  2
*Model_Space
340
29E
  0
BLOCK_RECORD
  5
297
330
27A
100
AcDbSymbolTableRecord
100
AcDbBlockTableRecord
  2
*Paper_Space
340
29A
  0
BLOCK_RECORD
  5
2A7
330
27A
100
AcDbSymbolTableRecord
100
AcDbBlockTableRecord
  2
$MODEL_SPACE
340
0
  0
BLOCK_RECORD
  5
2A9
330
27A
100
AcDbSymbolTableRecord
100
AcDbBlockTableRecord
  2
$PAPER_SPACE
340
0
  0
BLOCK_RECORD
  5
2AB
330
27A
100
AcDbSymbolTableRecord
100
AcDbBlockTableRecord
  2
2
340
0
  0
BLOCK_RECORD
  5
2AD
330
27A
100
AcDbSymbolTableRecord
100
AcDbBlockTableRecord
  2
*U3
340
0
102
{BLKREFS
331
2C
102
}
  0
ENDTAB
  0
ENDSEC
  0
SECTION
  2
BLOCKS
  0
BLOCK
  5
29C
330
29B
100
AcDbEntity
  8
0
100
AcDbBlockBegin
  2
*Model_Space
 70
     0
 10
0.0
 20
0.0
 30
0.0
  3
*Model_Space
  1

  0
ENDBLK
  5
29D
330
29B
100
AcDbEntity
  8
0
100
AcDbBlockEnd
  0
BLOCK
  5
298
330
297
100
AcDbEntity
 67
     1
  8
0
100
AcDbBlockBegin
  2
*Paper_Space
 70
     0
 10
0.0
 20
0.0
 30
0.0
  3
*Paper_Space
  1

  0
ENDBLK
  5
299
330
297
100
AcDbEntity
 67
     1
  8
0
100
AcDbBlockEnd
  0
BLOCK
  5
2A8
330
2A7
100
AcDbEntity
  8
0
100
AcDbBlockBegin
  2
$MODEL_SPACE
 70
     0
 10
0.0
 20
0.0
 30
0.0
  3
$MODEL_SPACE
  1

  0
ENDBLK
  5
21
330
2A7
100
AcDbEntity
  8
0
100
AcDbBlockEnd
  0
BLOCK
  5
2AA
330
2A9
100
AcDbEntity
  8
0
100
AcDbBlockBegin
  2
$PAPER_SPACE
 70
     0
 10
0.0
 20
0.0
 30
0.0
  3
$PAPER_SPACE
  1

  0
ENDBLK
  5
1D
330
2A9
100
AcDbEntity
  8
0
100
AcDbBlockEnd
  0
BLOCK
  5
2AC
330
2AB
100
AcDbEntity
  8
0
100
AcDbBlockBegin
  2
2
 70
     0
 10
0.0
 20
0.0
 30
0.0
  3
2
  1

  0
INSERT
  5
2C
330
2AB
100
AcDbEntity
  8
0
  6
Continuous
100
AcDbBlockReference
  2
*U3
 10
0.0
 20
0.0
 30
0.0
1001
ACAD
1002
{
1000
R14_HATCH_DATA
1000
2C
1011
1.0
1021
0.0
1031
0.0
1011
0.0
1021
1.0
1031
0.0
1011
0.0
1021
0.0
1031
1.0
1040
0.0
1010
0.0
1020
0.0
1030
1.0
1000
SOLID
1070
     1
1070
     1
1071
        1
1071
        7
1070
     0
1070
     1
1071
        3
1040
0.0000000000000284
1040
0.0
1040
-0.899999999998343
1040
0.2411542731875897
1040
-0.8999999999983572
1040
-0.2411542731875613
1071
        3
1005
2F
1005
2D
1005
30
1070
     0
1070
     1
1040
0.0028941747346077
1071
        1
1040
-0.5303136156475148
1040
-0.0796654556697263
1040
0.0
1002
}
  0
LINE
  5
2D
330
2AB
100
AcDbEntity
  8
0
100
AcDbLine
 10
-0.8999999999983572
 20
0.2411542731879876
 30
0.0
 11
-0.8999999999983572
 21
-0.2411542731880445
 31
0.0
  0
LINE
  5
2E
330
2AB
100
AcDbEntity
  8
0
100
AcDbLine
 10
-0.9999999999983517
 20
0.0
 30
0.0
 11
0.0
 21
0.0
 31
0.0
  0
LINE
  5
2F
330
2AB
100
AcDbEntity
  8
0
100
AcDbLine
 10
-0.8999999999984423
 20
0.2411542731875897
 30
0.0
 11
0.0
 21
0.0
 31
0.0
  0
LINE
  5
30
330
2AB
100
AcDbEntity
  8
0
100
AcDbLine
 10
-0.8999999999984423
 20
-0.2411542731875897
 30
0.0
 11
0.0
 21
0.0
 31
0.0
  0
ENDBLK
  5
32
330
2AB
100
AcDbEntity
  8
0
100
AcDbBlockEnd
  0
BLOCK
  5
2AE
330
2AD
100
AcDbEntity
  8
0
100
AcDbBlockBegin
  2
*U3
 70
     1
 10
0.0
 20
0.0
 30
0.0
  3
*U3
  1

  0
SOLID
  5
275
330
2AD
100
AcDbEntity
  8
0
  6
Continuous
100
AcDbTrace
 10
-0.5999999999988905
 20
0.0000000000000095
 30
0.0
 11
0.0000000000000284
 21
0.0
 31
0.0
 12
-0.899999999998343
 22
0.2411542731875897
 32
0.0
 13
-0.899999999998343
 23
0.2411542731875897
 33
0.0
  0
SOLID
  5
276
330
2AD
100
AcDbEntity
  8
0
  6
Continuous
100
AcDbTrace
 10
-0.5999999999988905
 20
0.0000000000000095
 30
0.0
 11
-0.899999999998343
 21
0.2411542731875897
 31
0.0
 12
-0.8999999999983572
 22
-0.2411542731875613
 32
0.0
 13
-0.8999999999983572
 23
-0.2411542731875613
 33
0.0
  0
SOLID
  5
277
330
2AD
100
AcDbEntity
  8
0
  6
Continuous
100
AcDbTrace
 10
-0.5999999999988905
 20
0.0000000000000095
 30
0.0
 11
-0.8999999999983572
 21
-0.2411542731875613
 31
0.0
 12
0.0000000000000284
 22
0.0
 32
0.0
 13
0.0000000000000284
 23
0.0
 33
0.0
  0
ENDBLK
  5
279
330
2AD
100
AcDbEntity
  8
0
100
AcDbBlockEnd
  0
ENDSEC
  0
SECTION
  2
ENTITIES
  0
LINE
  5
155
330
29B
100
AcDbEntity
  8
1外形線
100
AcDbLine
 10
595.8429254904207
 20
263.536686044902
 30
0.0
 11
25.84292549042084
 21
263.536686044902
 31
0.0
  0
LINE
  5
156
330
29B
100
AcDbEntity
  8
1外形線
100
AcDbLine
 10
25.84292549042084
 20
462.5366860449019
 30
0.0
 11
595.8429254904207
 21
462.5366860449019
 31
0.0
  0
LINE
  5
15D
330
29B
100
AcDbEntity
  8
1外形線
100
AcDbLine
 10
318.7677370470201
 20
392.5366860449019
 30
0.0
 11
288.8429254904208
 21
392.5366860449019
 31
0.0
  0
ARC
  5
15E
330
29B
100
AcDbEntity
  8
1外形線
100
AcDbCircle
 10
303.8429254904208
 20
375.036686044902
 30
0.0
 40
23.0
100
AcDbArc
 50
0.0
 51
90.0
  0
ARC
  5
15F
330
29B
100
AcDbEntity
  8
1外形線
100
AcDbCircle
 10
303.8429254904208
 20
377.536686044902
 30
0.0
 40
25.0
100
AcDbArc
 50
0.0
 51
90.0
  0
LINE
  5
160
330
29B
100
AcDbEntity
  8
1外形線
100
AcDbLine
 10
318.7677370470201
 20
303.536686044902
 30
0.0
 11
288.8429254904208
 21
303.5366860449021
 31
0.0
  0
ARC
  5
161
330
29B
100
AcDbEntity
  8
1外形線
100
AcDbCircle
 10
303.8429254904208
 20
321.036686044902
 30
0.0
 40
23.0
100
AcDbArc
 50
270.0
 51
0.0
  0
ARC
  5
162
330
29B
100
AcDbEntity
  8
1外形線
100
AcDbCircle
 10
303.8429254904208
 20
318.536686044902
 30
0.0
 40
25.0
100
AcDbArc
 50
270.0
 51
0.0
  0
LINE
  5
163
330
29B
100
AcDbEntity
  8
1外形線
100
AcDbLine
 10
25.84292549042084
 20
462.5366860449019
 30
0.0
 11
25.84292549042084
 21
263.536686044902
 31
0.0
  0
LINE
  5
164
330
29B
100
AcDbEntity
  8
1外形線
100
AcDbLine
 10
288.8429254904208
 20
295.036686044902
 30
0.0
 11
288.8429254904208
 21
296.5366860449019
 31
0.0
  0
ARC
  5
165
330
29B
100
AcDbEntity
  8
1外形線
100
AcDbCircle
 10
281.8429254904208
 20
321.5366860449019
 30
0.0
 40
28.0
100
AcDbArc
 50
180.0
 51
270.0
  0
ARC
  5
166
330
29B
100
AcDbEntity
  8
1外形線
100
AcDbCircle
 10
281.8429254904208
 20
323.036686044902
 30
0.0
 40
25.0
100
AcDbArc
 50
180.0
 51
270.0
  0
LINE
  5
167
330
29B
100
AcDbEntity
  8
1外形線
100
AcDbLine
 10
219.8429254904208
 20
348.036686044902
 30
0.0
 11
219.8429254904208
 21
294.536686044902
 31
0.0
  0
LINE
  5
168
330
29B
100
AcDbEntity
  8
1外形線
100
AcDbLine
 10
223.8429254904208
 20
348.036686044902
 30
0.0
 11
223.8429254904208
 21
294.536686044902
 31
0.0
  0
LINE
  5
169
330
29B
100
AcDbEntity
  8
1外形線
100
AcDbLine
 10
154.3429254904208
 20
300.036686044902
 30
0.0
 11
154.3429254904208
 21
294.536686044902
 31
0.0
  0
LINE
  5
16A
330
29B
100
AcDbEntity
  8
1外形線
100
AcDbLine
 10
145.3429254904208
 20
300.036686044902
 30
0.0
 11
145.3429254904208
 21
294.536686044902
 31
0.0
  0
LINE
  5
16B
330
29B
100
AcDbEntity
  8
1外形線
100
AcDbLine
 10
79.84292549042085
 20
294.536686044902
 30
0.0
 11
79.84292549042085
 21
348.036686044902
 31
0.0
  0
LINE
  5
16C
330
29B
100
AcDbEntity
  8
1外形線
100
AcDbLine
 10
75.84292549042086
 20
294.536686044902
 30
0.0
 11
75.84292549042086
 21
348.036686044902
 31
0.0
  0
LINE
  5
176
330
29B
100
AcDbEntity
  8
1外形線
100
AcDbLine
 10
79.84292549042085
 20
294.536686044902
 30
0.0
 11
219.8429254904208
 21
294.536686044902
 31
0.0
  0
LINE
  5
181
330
29B
100
AcDbEntity
  8
1外形線
100
AcDbLine
 10
76.84292549042081
 20
293.536686044902
 30
0.0
 11
78.84292549042085
 21
293.536686044902
 31
0.0
  0
ARC
  5
182
330
29B
100
AcDbEntity
  8
1外形線
100
AcDbCircle
 10
76.84292549042081
 20
294.536686044902
 30
0.0
 40
1.0
100
AcDbArc
 50
180.0
 51
270.0
  0
ARC
  5
183
330
29B
100
AcDbEntity
  8
1外形線
100
AcDbCircle
 10
78.84292549042085
 20
294.536686044902
 30
0.0
 40
1.0
100
AcDbArc
 50
270.0
 51
0.0
  0
LINE
  5
1A2
330
29B
100
AcDbEntity
  8
1外形線
100
AcDbLine
 10
220.8429254904208
 20
293.536686044902
 30
0.0
 11
222.8429254904208
 21
293.536686044902
 31
0.0
  0
ARC
  5
1A7
330
29B
100
AcDbEntity
  8
1外形線
100
AcDbCircle
 10
220.8429254904208
 20
294.536686044902
 30
0.0
 40
1.0
100
AcDbArc
 50
180.0
 51
270.0
  0
ARC
  5
1BE
330
29B
100
AcDbEntity
  8
1外形線
100
AcDbCircle
 10
222.8429254904208
 20
294.536686044902
 30
0.0
 40
1.0
100
AcDbArc
 50
270.0
 51
0.0
  0
LINE
  5
1BF
330
29B
100
AcDbEntity
  8
1外形線
100
AcDbLine
 10
288.8429254904208
 20
295.036686044902
 30
0.0
 11
285.8429254904208
 21
294.536686044902
 31
0.0
  0
LINE
  5
1C0
330
29B
100
AcDbEntity
  8
1外形線
100
AcDbLine
 10
281.8429254904208
 20
293.536686044902
 30
0.0
 11
285.8429254904208
 21
293.536686044902
 31
0.0
  0
LINE
  5
1C1
330
29B
100
AcDbEntity
  8
1外形線
100
AcDbLine
 10
285.8429254904208
 20
294.536686044902
 30
0.0
 11
285.8429254904208
 21
293.536686044902
 31
0.0
  0
LINE
  5
1C2
330
29B
100
AcDbEntity
  8
1外形線
100
AcDbLine
 10
291.8429254904208
 20
293.536686044902
 30
0.0
 11
303.8429254904208
 21
293.536686044902
 31
0.0
  0
LINE
  5
1C3
330
29B
100
AcDbEntity
  8
1外形線
100
AcDbLine
 10
291.8429254904208
 20
293.536686044902
 30
0.0
 11
291.8429254904208
 21
294.536686044902
 31
0.0
  0
LINE
  5
1C4
330
29B
100
AcDbEntity
  8
1外形線
100
AcDbLine
 10
291.8429254904208
 20
294.536686044902
 30
0.0
 11
288.8429254904208
 21
295.036686044902
 31
0.0
  0
TEXT
  5
1C5
330
29B
100
AcDbEntity
  8
1外形線
100
AcDbText
 10
75.84292579499946
 20
432.5366862748055
 30
0.0
 40
10.0
  1
SJA-100
  7
KANJI
100
AcDbText
  0
LINE
  5
1C6
330
29B
100
AcDbEntity
  8
1外形線
100
AcDbLine
 10
79.84292549042085
 20
393.6285691369388
 30
0.0
 11
146.0414819543964
 21
393.6285691369388
 31
0.0
  0
LINE
  5
1C7
330
29B
100
AcDbEntity
  8
1外形線
100
AcDbLine
 10
79.84292549042085
 20
399.4814334227068
 30
0.0
 11
145.3429254904208
 21
399.4814334227068
 31
0.0
  0
LINE
  5
1C8
330
29B
100
AcDbEntity
  8
1外形線
100
AcDbLine
 10
79.84292549042085
 20
401.5366860449018
 30
0.0
 11
219.8429254904208
 21
401.5366860449018
 31
0.0
  0
LINE
  5
1C9
330
29B
100
AcDbEntity
  8
1外形線
100
AcDbLine
 10
79.84292549042085
 20
384.8691387187593
 30
0.0
 11
219.8429254904207
 21
384.8691387187593
 31
0.0
  0
LINE
  5
1CA
330
29B
100
AcDbEntity
  8
1外形線
100
AcDbLine
 10
79.84292549042085
 20
296.5919386670972
 30
0.0
 11
145.3429254904208
 21
296.5919386670972
 31
0.0
  0
LINE
  5
1CB
330
29B
100
AcDbEntity
  8
1外形線
100
AcDbLine
 10
79.84292549042085
 20
302.4448029528652
 30
0.0
 11
146.0414819543964
 21
302.4448029528652
 31
0.0
  0
LINE
  5
1CC
330
29B
100
AcDbEntity
  8
1外形線
100
AcDbLine
 10
79.84292549042085
 20
311.2042333710446
 30
0.0
 11
219.8429254904207
 21
311.2042333710447
 31
0.0
  0
LINE
  5
1CD
330
29B
100
AcDbEntity
  8
1外形線
100
AcDbLine
 10
79.84292549042085
 20
401.5366860449018
 30
0.0
 11
79.84292549042085
 21
348.036686044902
 31
0.0
  0
LINE
  5
1CE
330
29B
100
AcDbEntity
  8
1外形線
100
AcDbLine
 10
75.84292549042086
 20
401.5366860449018
 30
0.0
 11
75.84292549042086
 21
348.036686044902
 31
0.0
  0
LINE
  5
1CF
330
29B
100
AcDbEntity
  8
1外形線
100
AcDbLine
 10
76.84292549042081
 20
402.5366860449019
 30
0.0
 11
78.84292549042085
 21
402.5366860449019
 31
0.0
  0
ARC
  5
1D0
330
29B
100
AcDbEntity
  8
1外形線
100
AcDbCircle
 10
76.84292549042081
 20
401.5366860449018
 30
0.0
 40
1.0
100
AcDbArc
 50
90.0
 51
180.0
  0
ARC
  5
1D1
330
29B
100
AcDbEntity
  8
1外形線
100
AcDbCircle
 10
78.84292549042085
 20
401.5366860449018
 30
0.0
 40
1.0
100
AcDbArc
 50
0.0
 51
90.0
  0
LINE
  5
1D2
330
29B
100
AcDbEntity
  8
1外形線
100
AcDbLine
 10
220.8429254904208
 20
402.5366860449019
 30
0.0
 11
222.8429254904208
 21
402.5366860449019
 31
0.0
  0
LINE
  5
1D3
330
29B
100
AcDbEntity
  8
1外形線
100
AcDbLine
 10
219.8429254904208
 20
348.036686044902
 30
0.0
 11
219.8429254904208
 21
401.5366860449018
 31
0.0
  0
LINE
  5
1D4
330
29B
100
AcDbEntity
  8
1外形線
100
AcDbLine
 10
153.6443690264452
 20
302.4448029528652
 30
0.0
 11
219.8429254904208
 21
302.4448029528652
 31
0.0
  0
LINE
  5
1D5
330
29B
100
AcDbEntity
  8
1外形線
100
AcDbLine
 10
154.3429254904208
 20
296.5919386670972
 30
0.0
 11
219.8429254904208
 21
296.5919386670972
 31
0.0
  0
CIRCLE
  5
1D6
330
29B
100
AcDbEntity
  8
1外形線
100
AcDbCircle
 10
149.8429254904208
 20
300.036686044902
 30
0.0
 40
2.0
  0
ARC
  5
1D7
330
29B
100
AcDbEntity
  8
1外形線
100
AcDbCircle
 10
149.8429254904208
 20
300.036686044902
 30
0.0
 40
4.5
100
AcDbArc
 50
0.0
 51
180.0
  0
LINE
  5
1D8
330
29B
100
AcDbEntity
  8
1外形線
100
AcDbLine
 10
154.3429254904208
 20
399.4814334227065
 30
0.0
 11
219.8429254904208
 21
399.4814334227066
 31
0.0
  0
LINE
  5
1D9
330
29B
100
AcDbEntity
  8
1外形線
100
AcDbLine
 10
153.6443690264452
 20
393.6285691369388
 30
0.0
 11
219.8429254904208
 21
393.6285691369388
 31
0.0
  0
LINE
  5
1DA
330
29B
100
AcDbEntity
  8
1外形線
100
AcDbLine
 10
154.3429254904208
 20
396.036686044902
 30
0.0
 11
154.3429254904208
 21
401.5366860449018
 31
0.0
  0
LINE
  5
1DB
330
29B
100
AcDbEntity
  8
1外形線
100
AcDbLine
 10
145.3429254904208
 20
396.036686044902
 30
0.0
 11
145.3429254904208
 21
401.5366860449018
 31
0.0
  0
ARC
  5
1DC
330
29B
100
AcDbEntity
  8
1外形線
100
AcDbCircle
 10
149.8429254904208
 20
396.036686044902
 30
0.0
 40
4.5
100
AcDbArc
 50
180.0
 51
0.0
  0
CIRCLE
  5
1DD
330
29B
100
AcDbEntity
  8
1外形線
100
AcDbCircle
 10
149.8429254904208
 20
396.036686044902
 30
0.0
 40
2.0
  0
ARC
  5
1DE
330
29B
100
AcDbEntity
  8
1外形線
100
AcDbCircle
 10
220.8429254904208
 20
401.5366860449018
 30
0.0
 40
1.0
100
AcDbArc
 50
90.0
 51
180.0
  0
LINE
  5
1DF
330
29B
100
AcDbEntity
  8
1外形線
100
AcDbLine
 10
223.8429254904208
 20
348.036686044902
 30
0.0
 11
223.8429254904208
 21
401.5366860449018
 31
0.0
  0
ARC
  5
1E0
330
29B
100
AcDbEntity
  8
1外形線
100
AcDbCircle
 10
281.8429254904208
 20
374.536686044902
 30
0.0
 40
28.0
100
AcDbArc
 50
90.0
 51
180.0
  0
ARC
  5
1E1
330
29B
100
AcDbEntity
  8
1外形線
100
AcDbCircle
 10
281.8429254904208
 20
373.036686044902
 30
0.0
 40
25.0
100
AcDbArc
 50
90.0
 51
180.0
  0
LINE
  5
1E2
330
29B
100
AcDbEntity
  8
1外形線
100
AcDbLine
 10
288.8429254904208
 20
304.536686044902
 30
0.0
 11
265.0277537696206
 21
304.536686044902
 31
0.0
  0
LINE
  5
1E3
330
29B
100
AcDbEntity
  8
1外形線
100
AcDbLine
 10
253.8429254904208
 20
374.536686044902
 30
0.0
 11
253.8429254904208
 21
321.5366860449019
 31
0.0
  0
LINE
  5
1E4
330
29B
100
AcDbEntity
  8
1外形線
100
AcDbLine
 10
256.8429254904208
 20
373.036686044902
 30
0.0
 11
256.8429254904208
 21
323.036686044902
 31
0.0
  0
LINE
  5
1E5
330
29B
100
AcDbEntity
  8
1外形線
100
AcDbLine
 10
281.8429254904208
 20
298.036686044902
 30
0.0
 11
303.8429254904208
 21
298.036686044902
 31
0.0
  0
LINE
  5
1E6
330
29B
100
AcDbEntity
  8
1外形線
100
AcDbLine
 10
288.8429254904208
 20
296.5366860449019
 30
0.0
 11
283.8429254904208
 21
296.5366860449019
 31
0.0
  0
LINE
  5
1E7
330
29B
100
AcDbEntity
  8
1外形線
100
AcDbLine
 10
286.8429254904208
 20
299.036686044902
 30
0.0
 11
288.8429254904208
 21
299.036686044902
 31
0.0
  0
LINE
  5
1E8
330
29B
100
AcDbEntity
  8
1外形線
100
AcDbLine
 10
286.8429254904208
 20
298.036686044902
 30
0.0
 11
286.8429254904208
 21
299.036686044902
 31
0.0
  0
LINE
  5
1E9
330
29B
100
AcDbEntity
  8
1外形線
100
AcDbLine
 10
283.8429254904208
 20
296.5366860449019
 30
0.0
 11
283.8429254904208
 21
298.036686044902
 31
0.0
  0
LINE
  5
1EA
330
29B
100
AcDbEntity
  8
1外形線
100
AcDbLine
 10
288.8429254904208
 20
299.036686044902
 30
0.0
 11
288.8429254904208
 21
304.536686044902
 31
0.0
  0
LINE
  5
1EB
330
29B
100
AcDbEntity
  8
1外形線
100
AcDbLine
 10
288.8429254904208
 20
391.536686044902
 30
0.0
 11
265.0277537696206
 21
391.536686044902
 31
0.0
  0
ARC
  5
1EC
330
29B
100
AcDbEntity
  8
1外形線
100
AcDbCircle
 10
222.8429254904208
 20
401.5366860449018
 30
0.0
 40
1.0
100
AcDbArc
 50
0.0
 51
90.0
  0
LINE
  5
1ED
330
29B
100
AcDbEntity
  8
1外形線
100
AcDbLine
 10
303.8429254904208
 20
398.036686044902
 30
0.0
 11
281.8429254904208
 21
398.036686044902
 31
0.0
  0
LINE
  5
1EE
330
29B
100
AcDbEntity
  8
1外形線
100
AcDbLine
 10
288.8429254904208
 20
399.536686044902
 30
0.0
 11
283.8429254904208
 21
399.536686044902
 31
0.0
  0
LINE
  5
1EF
330
29B
100
AcDbEntity
  8
1外形線
100
AcDbLine
 10
288.8429254904208
 20
401.0366860449019
 30
0.0
 11
285.8429254904208
 21
401.5366860449018
 31
0.0
  0
LINE
  5
1F0
330
29B
100
AcDbEntity
  8
1外形線
100
AcDbLine
 10
286.8429254904208
 20
397.0366860449019
 30
0.0
 11
288.8429254904208
 21
397.0366860449019
 31
0.0
  0
LINE
  5
1F1
330
29B
100
AcDbEntity
  8
1外形線
100
AcDbLine
 10
286.8429254904208
 20
398.036686044902
 30
0.0
 11
286.8429254904208
 21
397.0366860449019
 31
0.0
  0
LINE
  5
1F2
330
29B
100
AcDbEntity
  8
1外形線
100
AcDbLine
 10
283.8429254904208
 20
399.536686044902
 30
0.0
 11
283.8429254904208
 21
398.036686044902
 31
0.0
  0
LINE
  5
1F3
330
29B
100
AcDbEntity
  8
1外形線
100
AcDbLine
 10
285.8429254904208
 20
402.5366860449019
 30
0.0
 11
281.8429254904208
 21
402.5366860449019
 31
0.0
  0
LINE
  5
1F4
330
29B
100
AcDbEntity
  8
1外形線
100
AcDbLine
 10
285.8429254904208
 20
401.5366860449018
 30
0.0
 11
285.8429254904208
 21
402.5366860449019
 31
0.0
  0
LINE
  5
1F5
330
29B
100
AcDbEntity
  8
1外形線
100
AcDbLine
 10
291.8429254904208
 20
401.5366860449018
 30
0.0
 11
288.8429254904208
 21
401.0366860449019
 31
0.0
  0
LINE
  5
1F6
330
29B
100
AcDbEntity
  8
1外形線
100
AcDbLine
 10
288.8429254904208
 20
401.0366860449019
 30
0.0
 11
288.8429254904208
 21
399.536686044902
 31
0.0
  0
LINE
  5
1F7
330
29B
100
AcDbEntity
  8
1外形線
100
AcDbLine
 10
288.8429254904208
 20
397.0366860449019
 30
0.0
 11
288.8429254904208
 21
391.536686044902
 31
0.0
  0
LINE
  5
1F8
330
29B
100
AcDbEntity
  8
1外形線
100
AcDbLine
 10
303.8429254904208
 20
402.5366860449019
 30
0.0
 11
291.8429254904208
 21
402.5366860449019
 31
0.0
  0
LINE
  5
1F9
330
29B
100
AcDbEntity
  8
1外形線
100
AcDbLine
 10
291.8429254904208
 20
402.5366860449019
 30
0.0
 11
291.8429254904208
 21
401.5366860449018
 31
0.0
  0
LINE
  5
1FA
330
29B
100
AcDbEntity
  8
1外形線
100
AcDbLine
 10
595.8429254904207
 20
462.5366860449019
 30
0.0
 11
595.8429254904207
 21
263.536686044902
 31
0.0
  0
LINE
  5
1FB
330
29B
100
AcDbEntity
  8
1外形線
100
AcDbLine
 10
502.8429254904208
 20
294.536686044902
 30
0.0
 11
502.8429254904208
 21
318.536686044902
 31
0.0
  0
LINE
  5
1FC
330
29B
100
AcDbEntity
  8
1外形線
100
AcDbLine
 10
362.8429254904208
 20
294.536686044902
 30
0.0
 11
362.8429254904208
 21
318.536686044902
 31
0.0
  0
LINE
  5
1FD
330
29B
100
AcDbEntity
  8
1外形線
100
AcDbLine
 10
506.8429254904208
 20
294.536686044902
 30
0.0
 11
506.8429254904208
 21
348.036686044902
 31
0.0
  0
LINE
  5
1FE
330
29B
100
AcDbEntity
  8
1外形線
100
AcDbLine
 10
358.8429254904208
 20
348.036686044902
 30
0.0
 11
358.8429254904208
 21
294.536686044902
 31
0.0
  0
LINE
  5
207
330
29B
100
AcDbEntity
  8
1外形線
100
AcDbLine
 10
362.8429254904208
 20
294.536686044902
 30
0.0
 11
502.8429254904208
 21
294.536686044902
 31
0.0
  0
LINE
  5
237
330
29B
100
AcDbEntity
  8
1外形線
100
AcDbLine
 10
359.8429254904208
 20
293.536686044902
 30
0.0
 11
361.8429254904208
 21
293.536686044902
 31
0.0
  0
ARC
  5
238
330
29B
100
AcDbEntity
  8
1外形線
100
AcDbCircle
 10
359.8429254904208
 20
294.536686044902
 30
0.0
 40
1.0
100
AcDbArc
 50
180.0
 51
270.0
  0
ARC
  5
239
330
29B
100
AcDbEntity
  8
1外形線
100
AcDbCircle
 10
361.8429254904208
 20
294.536686044902
 30
0.0
 40
1.0
100
AcDbArc
 50
270.0
 51
0.0
  0
LINE
  5
248
330
29B
100
AcDbEntity
  8
1外形線
100
AcDbLine
 10
503.8429254904208
 20
293.536686044902
 30
0.0
 11
505.8429254904208
 21
293.536686044902
 31
0.0
  0
ARC
  5
249
330
29B
100
AcDbEntity
  8
1外形線
100
AcDbCircle
 10
503.8429254904208
 20
294.536686044902
 30
0.0
 40
1.0
100
AcDbArc
 50
180.0
 51
270.0
  0
ARC
  5
24A
330
29B
100
AcDbEntity
  8
1外形線
100
AcDbCircle
 10
505.8429254904208
 20
294.536686044902
 30
0.0
 40
1.0
100
AcDbArc
 50
270.0
 51
0.0
  0
LINE
  5
24B
330
29B
100
AcDbEntity
  8
1外形線
100
AcDbLine
 10
362.8429254904208
 20
399.829954679476
 30
0.0
 11
502.8429254904208
 21
399.829954679476
 31
0.0
  0
LINE
  5
24C
330
29B
100
AcDbEntity
  8
1外形線
100
AcDbLine
 10
362.8429254904208
 20
393.6860486396248
 30
0.0
 11
502.8429254904208
 21
393.6860486396248
 31
0.0
  0
LINE
  5
24D
330
29B
100
AcDbEntity
  8
1外形線
100
AcDbLine
 10
362.8429254904208
 20
384.8704980286563
 30
0.0
 11
502.8429254904208
 21
384.8704980286563
 31
0.0
  0
LINE
  5
24E
330
29B
100
AcDbEntity
  8
1外形線
100
AcDbLine
 10
362.8429254904208
 20
296.2434174103279
 30
0.0
 11
502.8429254904208
 21
296.2434174103279
 31
0.0
  0
LINE
  5
24F
330
29B
100
AcDbEntity
  8
1外形線
100
AcDbLine
 10
362.8429254904208
 20
302.3873234501792
 30
0.0
 11
502.8429254904208
 21
302.3873234501792
 31
0.0
  0
LINE
  5
250
330
29B
100
AcDbEntity
  8
1外形線
100
AcDbLine
 10
362.8429254904208
 20
311.2028740611476
 30
0.0
 11
502.8429254904208
 21
311.2028740611476
 31
0.0
  0
LINE
  5
251
330
29B
100
AcDbEntity
  8
1外形線
100
AcDbLine
 10
362.8429254904208
 20
401.5366860449018
 30
0.0
 11
502.8429254904208
 21
401.5366860449018
 31
0.0
  0
ARC
  5
252
330
29B
100
AcDbEntity
  8
1外形線
100
AcDbCircle
 10
432.8429254904208
 20
348.036686044902
 30
0.0
 40
35.0
100
AcDbArc
 50
180.0
 51
0.0
  0
ARC
  5
253
330
29B
100
AcDbEntity
  8
1外形線
100
AcDbCircle
 10
432.8429254904208
 20
348.036686044902
 30
0.0
 40
35.0
100
AcDbArc
 50
0.0
 51
180.0
  0
LINE
  5
254
330
29B
100
AcDbEntity
  8
1外形線
100
AcDbLine
 10
362.8429254904208
 20
401.5366860449018
 30
0.0
 11
362.8429254904208
 21
377.536686044902
 31
0.0
  0
LINE
  5
255
330
29B
100
AcDbEntity
  8
1外形線
100
AcDbLine
 10
358.8429254904208
 20
348.036686044902
 30
0.0
 11
358.8429254904208
 21
401.5366860449018
 31
0.0
  0
LINE
  5
256
330
29B
100
AcDbEntity
  8
1外形線
100
AcDbLine
 10
328.8429254904208
 20
377.536686044902
 30
0.0
 11
328.8429254904208
 21
385.336686044902
 31
0.0
  0
LINE
  5
257
330
29B
100
AcDbEntity
  8
1外形線
100
AcDbLine
 10
324.8429254904208
 20
384.4175175645488
 30
0.0
 11
324.8429254904208
 21
311.6558545252551
 31
0.0
  0
LINE
  5
258
330
29B
100
AcDbEntity
  8
1外形線
100
AcDbLine
 10
328.8429254904208
 20
313.036686044902
 30
0.0
 11
328.8429254904208
 21
377.536686044902
 31
0.0
  0
LINE
  5
259
330
29B
100
AcDbEntity
  8
1外形線
100
AcDbLine
 10
326.8429254904208
 20
321.036686044902
 30
0.0
 11
326.8429254904208
 21
375.036686044902
 31
0.0
  0
LINE
  5
25A
330
29B
100
AcDbEntity
  8
1外形線
100
AcDbLine
 10
327.5949780333064
 20
310.7366860449019
 30
0.0
 11
328.8429254904208
 21
310.736686044902
 31
0.0
  0
LINE
  5
25B
330
29B
100
AcDbEntity
  8
1外形線
100
AcDbLine
 10
328.8429254904208
 20
310.736686044902
 30
0.0
 11
328.8429254904208
 21
313.036686044902
 31
0.0
  0
LINE
  5
25C
330
29B
100
AcDbEntity
  8
1外形線
100
AcDbLine
 10
326.8429254904208
 20
325.786686044902
 30
0.0
 11
324.8429254904208
 21
325.786686044902
 31
0.0
  0
LINE
  5
25D
330
29B
100
AcDbEntity
  8
1外形線
100
AcDbLine
 10
326.8429254904208
 20
330.286686044902
 30
0.0
 11
324.8429254904208
 21
330.286686044902
 31
0.0
  0
LINE
  5
25E
330
29B
100
AcDbEntity
  8
1外形線
100
AcDbLine
 10
326.8429254904208
 20
365.7866860449019
 30
0.0
 11
324.8429254904208
 21
365.7866860449019
 31
0.0
  0
LINE
  5
25F
330
29B
100
AcDbEntity
  8
1外形線
100
AcDbLine
 10
326.8429254904208
 20
370.286686044902
 30
0.0
 11
324.8429254904208
 21
370.286686044902
 31
0.0
  0
ARC
  5
260
330
29B
100
AcDbEntity
  8
1外形線
100
AcDbCircle
 10
388.8429254904208
 20
348.036686044902
 30
0.0
 40
2.25
100
AcDbArc
 50
180.0
 51
0.0
  0
ARC
  5
261
330
29B
100
AcDbEntity
  8
1外形線
100
AcDbCircle
 10
388.8429254904208
 20
348.036686044902
 30
0.0
 40
2.25
100
AcDbArc
 50
0.0
 51
180.0
  0
LINE
  5
262
330
29B
100
AcDbEntity
  8
1外形線
100
AcDbLine
 10
327.5949780333062
 20
385.336686044902
 30
0.0
 11
328.8429254904208
 21
385.336686044902
 31
0.0
  0
LINE
  5
263
330
29B
100
AcDbEntity
  8
1外形線
100
AcDbLine
 10
359.8429254904208
 20
402.5366860449019
 30
0.0
 11
361.8429254904208
 21
402.5366860449019
 31
0.0
  0
ARC
  5
264
330
29B
100
AcDbEntity
  8
1外形線
100
AcDbCircle
 10
359.8429254904208
 20
401.5366860449018
 30
0.0
 40
1.0
100
AcDbArc
 50
90.0
 51
180.0
  0
ARC
  5
265
330
29B
100
AcDbEntity
  8
1外形線
100
AcDbCircle
 10
361.8429254904208
 20
401.5366860449018
 30
0.0
 40
1.0
100
AcDbArc
 50
0.0
 51
90.0
  0
ARC
  5
266
330
29B
100
AcDbEntity
  8
1外形線
100
AcDbCircle
 10
476.8429254904208
 20
348.036686044902
 30
0.0
 40
2.25
100
AcDbArc
 50
180.0
 51
0.0
  0
ARC
  5
267
330
29B
100
AcDbEntity
  8
1外形線
100
AcDbCircle
 10
476.8429254904208
 20
348.036686044902
 30
0.0
 40
2.25
100
AcDbArc
 50
0.0
 51
180.0
  0
LINE
  5
268
330
29B
100
AcDbEntity
  8
1外形線
100
AcDbLine
 10
502.8429254904208
 20
401.5366860449018
 30
0.0
 11
502.8429254904208
 21
377.536686044902
 31
0.0
  0
LINE
  5
269
330
29B
100
AcDbEntity
  8
1外形線
100
AcDbLine
 10
506.8429254904208
 20
401.5366860449018
 30
0.0
 11
506.8429254904208
 21
348.036686044902
 31
0.0
  0
LINE
  5
26A
330
29B
100
AcDbEntity
  8
1外形線
100
AcDbLine
 10
503.8429254904208
 20
402.5366860449019
 30
0.0
 11
505.8429254904208
 21
402.5366860449019
 31
0.0
  0
ARC
  5
26B
330
29B
100
AcDbEntity
  8
1外形線
100
AcDbCircle
 10
503.8429254904208
 20
401.5366860449018
 30
0.0
 40
1.0
100
AcDbArc
 50
90.0
 51
180.0
  0
ARC
  5
26C
330
29B
100
AcDbEntity
  8
1外形線
100
AcDbCircle
 10
505.8429254904208
 20
401.5366860449018
 30
0.0
 40
1.0
100
AcDbArc
 50
0.0
 51
90.0
  0
ENDSEC
  0
SECTION
  2
OBJECTS
  0
DICTIONARY
  5
285
330
0
100
AcDbDictionary
281
     1
  3
ACAD_COLOR
350
294
  3
ACAD_GROUP
350
286
  3
ACAD_LAYOUT
350
292
  3
ACAD_MATERIAL
350
293
  3
ACAD_MLINESTYLE
350
28F
  3
ACAD_PLOTSETTINGS
350
291
  3
ACAD_PLOTSTYLENAME
350
287
  3
ACAD_TABLESTYLE
350
295
  3
ACDBHEADERROUNDTRIPXREC
350
2B4
  3
AcDbVariableDictionary
350
2AF
  0
DICTIONARY
  5
294
102
{ACAD_REACTORS
330
285
102
}
330
285
100
AcDbDictionary
281
     1
  0
DICTIONARY
  5
286
102
{ACAD_REACTORS
330
285
102
}
330
285
100
AcDbDictionary
281
     1
  0
DICTIONARY
  5
292
102
{ACAD_REACTORS
330
285
102
}
330
285
100
AcDbDictionary
281
     1
  3
Model
350
29E
  3
レイアウト1
350
29A
  0
DICTIONARY
  5
293
102
{ACAD_REACTORS
330
285
102
}
330
285
100
AcDbDictionary
281
     1
  0
DICTIONARY
  5
28F
102
{ACAD_REACTORS
330
285
102
}
330
285
100
AcDbDictionary
281
     1
  3
Standard
350
290
  0
DICTIONARY
  5
291
102
{ACAD_REACTORS
330
285
102
}
330
285
100
AcDbDictionary
281
     1
  0
ACDBDICTIONARYWDFLT
  5
287
102
{ACAD_REACTORS
330
285
102
}
330
285
100
AcDbDictionary
281
     1
  3
Normal
350
288
100
AcDbDictionaryWithDefault
340
288
  0
DICTIONARY
  5
295
102
{ACAD_REACTORS
330
285
102
}
330
285
100
AcDbDictionary
281
     1
  3
Standard
350
296
  0
DICTIONARY
  5
2B4
102
{ACAD_REACTORS
330
285
102
}
330
285
100
AcDbDictionary
281
     1
  0
DICTIONARY
  5
2AF
102
{ACAD_REACTORS
330
285
102
}
330
285
100
AcDbDictionary
281
     1
  3
CTABLESTYLE
350
2B0
  3
DIMASSOC
350
2B1
  3
PROJECTNAME
350
2B2
  0
LAYOUT
  5
29E
102
{ACAD_XDICTIONARY
360
2B7
102
}
102
{ACAD_REACTORS
330
292
102
}
330
292
100
AcDbPlotSettings
  1

  2
Canon LBP3920/3970 LIPSLX
  4

  6

 40
0.0
 41
0.0
 42
0.0
 43
0.0
 44
0.0
 45
0.0
 46
0.0
 47
0.0
 48
0.0
 49
0.0
140
0.0
141
0.0
142
1.0
143
1.0
 70
  1712
 72
     0
 73
     0
 74
     0
  7
INABA-CAD-Canon.ctb
 75
     0
147
1.0
148
0.0
149
0.0
100
AcDbLayout
  1
Model
 70
     1
 71
     0
 10
0.0
 20
0.0
 11
12.0
 21
9.0
 12
0.0
 22
0.0
 32
0.0
 14
0.0
 24
0.0
 34
0.0
 15
0.0
 25
0.0
 35
0.0
146
0.0
 13
0.0
 23
0.0
 33
0.0
 16
1.0
 26
0.0
 36
0.0
 17
0.0
 27
1.0
 37
0.0
 76
     0
330
29B
  0
LAYOUT
  5
29A
102
{ACAD_XDICTIONARY
360
2B5
102
}
102
{ACAD_REACTORS
330
292
102
}
330
292
100
AcDbPlotSettings
  1

  2
Canon LBP3920/3970 LIPSLX
  4

  6

 40
0.0
 41
0.0
 42
0.0
 43
0.0
 44
0.0
 45
0.0
 46
0.0
 47
0.0
 48
0.0
 49
0.0
140
0.0
141
0.0
142
1.0
143
1.0
 70
   688
 72
     0
 73
     0
 74
     5
  7
INABA-CAD-Canon.ctb
 75
    16
147
1.0
148
0.0
149
0.0
100
AcDbLayout
  1
レイアウト1
 70
     1
 71
     1
 10
0.0
 20
0.0
 11
420.0
 21
297.0
 12
0.0
 22
0.0
 32
0.0
 14
1.000000000000000E+20
 24
1.000000000000000E+20
 34
1.000000000000000E+20
 15
-1.000000000000000E+20
 25
-1.000000000000000E+20
 35
-1.000000000000000E+20
146
0.0
 13
0.0
 23
0.0
 33
0.0
 16
1.0
 26
0.0
 36
0.0
 17
0.0
 27
1.0
 37
0.0
 76
     0
330
297
  0
MLINESTYLE
  5
290
102
{ACAD_REACTORS
330
28F
102
}
330
28F
100
AcDbMlineStyle
  2
STANDARD
 70
     0
  3

 62
   256
 51
90.0
 52
90.0
 71
     2
 49
0.5
 62
   256
  6
BYLAYER
 49
-0.5
 62
   256
  6
BYLAYER
  0
ACDBPLACEHOLDER
  5
288
102
{ACAD_REACTORS
330
287
102
}
330
287
  0
TABLESTYLE
  5
296
102
{ACAD_REACTORS
330
295
102
}
330
295
100
AcDbTableStyle
  3
Standard
 70
     0
 71
     0
 40
0.06
 41
0.06
280
     0
281
     0
  7
STANDARD
140
0.18
170
     2
 62
     0
 63
     7
283
     0
274
    -2
284
     1
 64
     0
275
    -2
285
     1
 65
     0
276
    -2
286
     1
 66
     0
277
    -2
287
     1
 67
     0
278
    -2
288
     1
 68
     0
279
    -2
289
     1
 69
     0
  7
STANDARD
140
0.25
170
     5
 62
     0
 63
     7
283
     0
274
    -2
284
     1
 64
     0
275
    -2
285
     1
 65
     0
276
    -2
286
     1
 66
     0
277
    -2
287
     1
 67
     0
278
    -2
288
     1
 68
     0
279
    -2
289
     1
 69
     0
  7
STANDARD
140
0.18
170
     5
 62
     0
 63
     7
283
     0
274
    -2
284
     1
 64
     0
275
    -2
285
     1
 65
     0
276
    -2
286
     1
 66
     0
277
    -2
287
     1
 67
     0
278
    -2
288
     1
 68
     0
279
    -2
289
     1
 69
     0
  0
DICTIONARYVAR
  5
2B0
102
{ACAD_REACTORS
330
2AF
102
}
330
2AF
100
DictionaryVariables
280
     0
  1
STANDARD
  0
DICTIONARYVAR
  5
2B1
102
{ACAD_REACTORS
330
2AF
102
}
330
2AF
100
DictionaryVariables
280
     0
  1
1
  0
DICTIONARYVAR
  5
2B2
102
{ACAD_REACTORS
330
2AF
102
}
330
2AF
100
DictionaryVariables
280
     0
  1

  0
DICTIONARY
  5
2B7
330
29E
100
AcDbDictionary
280
     1
281
     1
  3
ACAD_XREC_ROUNDTRIP
360
2B8
  0
DICTIONARY
  5
2B5
330
29A
100
AcDbDictionary
280
     1
281
     1
  3
ACAD_XREC_ROUNDTRIP
360
2B6
  0
XRECORD
  5
2B8
102
{ACAD_REACTORS
330
2B7
102
}
330
2B7
100
AcDbXrecord
280
     1
102
SHADEPLOT
 70
     0
102
SHADEPLOTRESLEVEL
 70
     2
102
SHADEPLOTCUSTOMDPI
 70
   300
  0
XRECORD
  5
2B6
102
{ACAD_REACTORS
330
2B5
102
}
330
2B5
100
AcDbXrecord
280
     1
102
SHADEPLOT
 70
     0
102
SHADEPLOTRESLEVEL
 70
     2
102
SHADEPLOTCUSTOMDPI
 70
   300
  0
ENDSEC
  0
EOF
