  0
SECTION
  2
HEADER
  9
$ACADVER
  1
AC1024
  9
$ACADMAINTVER
 70
    63
  9
$DWGCODEPAGE
  3
ANSI_932
  9
$LASTSAVEDBY
  1
takaaki.hirami
  9
$INSBASE
 10
0.0
 20
0.0
 30
0.0
  9
$EXTMIN
 10
-258.4296064799255
 20
-839.7357393770873
 30
0.0
  9
$EXTMAX
 10
1287.812096889289
 20
270.8255088514448
 30
0.0
  9
$LIMMIN
 10
0.0
 20
0.0
  9
$LIMMAX
 10
420.0
 20
297.0
  9
$ORTHOMODE
 70
     0
  9
$REGENMODE
 70
     1
  9
$FILLMODE
 70
     1
  9
$QTEXTMODE
 70
     0
  9
$MIRRTEXT
 70
     1
  9
$LTSCALE
 40
1.0
  9
$ATTMODE
 70
     1
  9
$TEXTSIZE
 40
2.5
  9
$TRACEWID
 40
1.0
  9
$TEXTSTYLE
  7
KANJI
  9
$CLAYER
  8
2寸法線
  9
$CELTYPE
  6
ByLayer
  9
$CECOLOR
 62
   256
  9
$CELTSCALE
 40
1.0
  9
$DISPSILH
 70
     0
  9
$DIMSCALE
 40
0.0
  9
$DIMASZ
 40
1.8
  9
$DIMEXO
 40
1.0
  9
$DIMDLI
 40
0.0
  9
$DIMRND
 40
0.0
  9
$DIMDLE
 40
0.0
  9
$DIMEXE
 40
1.0
  9
$DIMTP
 40
0.0
  9
$DIMTM
 40
0.0
  9
$DIMTXT
 40
2.5
  9
$DIMCEN
 40
0.0
  9
$DIMTSZ
 40
0.0
  9
$DIMTOL
 70
     0
  9
$DIMLIM
 70
     0
  9
$DIMTIH
 70
     0
  9
$DIMTOH
 70
     0
  9
$DIMSE1
 70
     0
  9
$DIMSE2
 70
     0
  9
$DIMTAD
 70
     1
  9
$DIMZIN
 70
     8
  9
$DIMBLK
  1

  9
$DIMASO
 70
     1
  9
$DIMSHO
 70
     1
  9
$DIMPOST
  1

  9
$DIMAPOST
  1

  9
$DIMALT
 70
     0
  9
$DIMALTD
 70
     2
  9
$DIMALTF
 40
25.4
  9
$DIMLFAC
 40
1.0
  9
$DIMTOFL
 70
     1
  9
$DIMTVP
 40
0.0
  9
$DIMTIX
 70
     0
  9
$DIMSOXD
 70
     0
  9
$DIMSAH
 70
     1
  9
$DIMBLK1
  1
2
  9
$DIMBLK2
  1
2
  9
$DIMSTYLE
  2
M
  9
$DIMCLRD
 70
     0
  9
$DIMCLRE
 70
     0
  9
$DIMCLRT
 70
     0
  9
$DIMTFAC
 40
1.0
  9
$DIMGAP
 40
0.5
  9
$DIMJUST
 70
     0
  9
$DIMSD1
 70
     0
  9
$DIMSD2
 70
     0
  9
$DIMTOLJ
 70
     1
  9
$DIMTZIN
 70
     0
  9
$DIMALTZ
 70
     0
  9
$DIMALTTZ
 70
     0
  9
$DIMUPT
 70
     0
  9
$DIMDEC
 70
     4
  9
$DIMTDEC
 70
     4
  9
$DIMALTU
 70
     2
  9
$DIMALTTD
 70
     2
  9
$DIMTXSTY
  7
STANDARD
  9
$DIMAUNIT
 70
     0
  9
$DIMADEC
 70
     0
  9
$DIMALTRND
 40
0.0
  9
$DIMAZIN
 70
     0
  9
$DIMDSEP
 70
    46
  9
$DIMATFIT
 70
     3
  9
$DIMFRAC
 70
     0
  9
$DIMLDRBLK
  1
2
  9
$DIMLUNIT
 70
     2
  9
$DIMLWD
 70
    -2
  9
$DIMLWE
 70
    -2
  9
$DIMTMOVE
 70
     0
  9
$DIMFXL
 40
1.0
  9
$DIMFXLON
 70
     0
  9
$DIMJOGANG
 40
0.7853981633974483
  9
$DIMTFILL
 70
     0
  9
$DIMTFILLCLR
 70
     0
  9
$DIMARCSYM
 70
     0
  9
$DIMLTYPE
  6

  9
$DIMLTEX1
  6

  9
$DIMLTEX2
  6

  9
$DIMTXTDIRECTION
 70
     0
  9
$LUNITS
 70
     2
  9
$LUPREC
 70
     3
  9
$SKETCHINC
 40
1.0
  9
$FILLETRAD
 40
0.0
  9
$AUNITS
 70
     0
  9
$AUPREC
 70
     1
  9
$MENU
  1
.
  9
$ELEVATION
 40
0.0
  9
$PELEVATION
 40
0.0
  9
$THICKNESS
 40
0.0
  9
$LIMCHECK
 70
     0
  9
$CHAMFERA
 40
10.0
  9
$CHAMFERB
 40
10.0
  9
$CHAMFERC
 40
0.0
  9
$CHAMFERD
 40
0.0
  9
$SKPOLY
 70
     0
  9
$TDCREATE
 40
2453462.486800301
  9
$TDUCREATE
 40
2453462.111800301
  9
$TDUPDATE
 40
2458040.358305521
  9
$TDUUPDATE
 40
2458039.983305521
  9
$TDINDWG
 40
0.3130230787
  9
$TDUSRTIMER
 40
0.3130225347
  9
$USRTIMER
 70
     1
  9
$ANGBASE
 50
0.0
  9
$ANGDIR
 70
     0
  9
$PDMODE
 70
     0
  9
$PDSIZE
 40
0.0
  9
$PLINEWID
 40
0.0
  9
$SPLFRAME
 70
     0
  9
$SPLINETYPE
 70
     6
  9
$SPLINESEGS
 70
     8
  9
$HANDSEED
  5
2420
  9
$SURFTAB1
 70
     6
  9
$SURFTAB2
 70
     6
  9
$SURFTYPE
 70
     6
  9
$SURFU
 70
     6
  9
$SURFV
 70
     6
  9
$UCSBASE
  2

  9
$UCSNAME
  2

  9
$UCSORG
 10
0.0
 20
0.0
 30
0.0
  9
$UCSXDIR
 10
1.0
 20
0.0
 30
0.0
  9
$UCSYDIR
 10
0.0
 20
1.0
 30
0.0
  9
$UCSORTHOREF
  2

  9
$UCSORTHOVIEW
 70
     0
  9
$UCSORGTOP
 10
0.0
 20
0.0
 30
0.0
  9
$UCSORGBOTTOM
 10
0.0
 20
0.0
 30
0.0
  9
$UCSORGLEFT
 10
0.0
 20
0.0
 30
0.0
  9
$UCSORGRIGHT
 10
0.0
 20
0.0
 30
0.0
  9
$UCSORGFRONT
 10
0.0
 20
0.0
 30
0.0
  9
$UCSORGBACK
 10
0.0
 20
0.0
 30
0.0
  9
$PUCSBASE
  2

  9
$PUCSNAME
  2

  9
$PUCSORG
 10
0.0
 20
0.0
 30
0.0
  9
$PUCSXDIR
 10
1.0
 20
0.0
 30
0.0
  9
$PUCSYDIR
 10
0.0
 20
1.0
 30
0.0
  9
$PUCSORTHOREF
  2

  9
$PUCSORTHOVIEW
 70
     0
  9
$PUCSORGTOP
 10
0.0
 20
0.0
 30
0.0
  9
$PUCSORGBOTTOM
 10
0.0
 20
0.0
 30
0.0
  9
$PUCSORGLEFT
 10
0.0
 20
0.0
 30
0.0
  9
$PUCSORGRIGHT
 10
0.0
 20
0.0
 30
0.0
  9
$PUCSORGFRONT
 10
0.0
 20
0.0
 30
0.0
  9
$PUCSORGBACK
 10
0.0
 20
0.0
 30
0.0
  9
$USERI1
 70
     0
  9
$USERI2
 70
     0
  9
$USERI3
 70
     0
  9
$USERI4
 70
     0
  9
$USERI5
 70
     0
  9
$USERR1
 40
0.0
  9
$USERR2
 40
0.0
  9
$USERR3
 40
0.0
  9
$USERR4
 40
0.0
  9
$USERR5
 40
0.0
  9
$WORLDVIEW
 70
     1
  9
$SHADEDGE
 70
     3
  9
$SHADEDIF
 70
    70
  9
$TILEMODE
 70
     1
  9
$MAXACTVP
 70
    48
  9
$PINSBASE
 10
0.0
 20
0.0
 30
0.0
  9
$PLIMCHECK
 70
     0
  9
$PEXTMIN
 10
1.000000000000000E+20
 20
1.000000000000000E+20
 30
1.000000000000000E+20
  9
$PEXTMAX
 10
-1.000000000000000E+20
 20
-1.000000000000000E+20
 30
-1.000000000000000E+20
  9
$PLIMMIN
 10
0.0
 20
0.0
  9
$PLIMMAX
 10
420.0
 20
297.0
  9
$UNITMODE
 70
     0
  9
$VISRETAIN
 70
     1
  9
$PLINEGEN
 70
     0
  9
$PSLTSCALE
 70
     1
  9
$TREEDEPTH
 70
  3020
  9
$CMLSTYLE
  2
Standard
  9
$CMLJUST
 70
     0
  9
$CMLSCALE
 40
1.0
  9
$PROXYGRAPHICS
 70
     1
  9
$MEASUREMENT
 70
     0
  9
$CELWEIGHT
370
    -1
  9
$ENDCAPS
280
     0
  9
$JOINSTYLE
280
     0
  9
$LWDISPLAY
290
     0
  9
$INSUNITS
 70
     0
  9
$HYPERLINKBASE
  1

  9
$STYLESHEET
  1
INABA-CAD-Canon.ctb
  9
$XEDIT
290
     1
  9
$CEPSNTYPE
380
     0
  9
$PSTYLEMODE
290
     1
  9
$FINGERPRINTGUID
  2
{1A2E6D33-5A93-49EA-8BEF-0164C03B4062}
  9
$VERSIONGUID
  2
{8150D862-C78A-485D-9130-0D6FD9916568}
  9
$EXTNAMES
290
     1
  9
$PSVPSCALE
 40
0.0
  9
$OLESTARTUP
290
     0
  9
$SORTENTS
280
   127
  9
$INDEXCTL
280
     0
  9
$HIDETEXT
280
     0
  9
$XCLIPFRAME
280
     2
  9
$HALOGAP
280
     0
  9
$OBSCOLOR
 70
   257
  9
$OBSLTYPE
280
     0
  9
$INTERSECTIONDISPLAY
280
     0
  9
$INTERSECTIONCOLOR
 70
   257
  9
$DIMASSOC
280
     1
  9
$PROJECTNAME
  1

  9
$CAMERADISPLAY
290
     0
  9
$LENSLENGTH
 40
50.0
  9
$CAMERAHEIGHT
 40
0.0
  9
$STEPSPERSEC
 40
2.0
  9
$STEPSIZE
 40
6.0
  9
$3DDWFPREC
 40
2.0
  9
$PSOLWIDTH
 40
0.25
  9
$PSOLHEIGHT
 40
4.0
  9
$LOFTANG1
 40
1.570796326794896
  9
$LOFTANG2
 40
1.570796326794896
  9
$LOFTMAG1
 40
0.0
  9
$LOFTMAG2
 40
0.0
  9
$LOFTPARAM
 70
     7
  9
$LOFTNORMALS
280
     1
  9
$LATITUDE
 40
37.795
  9
$LONGITUDE
 40
-122.394
  9
$NORTHDIRECTION
 40
0.0
  9
$TIMEZONE
 70
 -8000
  9
$LIGHTGLYPHDISPLAY
280
     1
  9
$TILEMODELIGHTSYNCH
280
     1
  9
$CMATERIAL
347
C59
  9
$SOLIDHIST
280
     0
  9
$SHOWHIST
280
     1
  9
$DWFFRAME
280
     2
  9
$DGNFRAME
280
     0
  9
$REALWORLDSCALE
290
     1
  9
$INTERFERECOLOR
 62
     1
  9
$INTERFEREOBJVS
345
C7B
  9
$INTERFEREVPVS
346
C78
  9
$CSHADOW
280
     0
  9
$SHADOWPLANELOCATION
 40
0.0
  0
ENDSEC
  0
SECTION
  2
CLASSES
  0
CLASS
  1
ACDBDICTIONARYWDFLT
  2
AcDbDictionaryWithDefault
  3
ObjectDBX Classes
 90
        0
 91
        1
280
     0
281
     0
  0
CLASS
  1
DICTIONARYVAR
  2
AcDbDictionaryVar
  3
ObjectDBX Classes
 90
        0
 91
       11
280
     0
281
     0
  0
CLASS
  1
MATERIAL
  2
AcDbMaterial
  3
ObjectDBX Classes
 90
     1153
 91
        3
280
     0
281
     0
  0
CLASS
  1
VISUALSTYLE
  2
AcDbVisualStyle
  3
ObjectDBX Classes
 90
     4095
 91
       24
280
     0
281
     0
  0
CLASS
  1
TABLESTYLE
  2
AcDbTableStyle
  3
ObjectDBX Classes
 90
     4095
 91
        1
280
     0
281
     0
  0
CLASS
  1
SCALE
  2
AcDbScale
  3
ObjectDBX Classes
 90
     1153
 91
       17
280
     0
281
     0
  0
CLASS
  1
MLEADERSTYLE
  2
AcDbMLeaderStyle
  3
ACDB_MLEADERSTYLE_CLASS
 90
     4095
 91
        1
280
     0
281
     0
  0
CLASS
  1
SORTENTSTABLE
  2
AcDbSortentsTable
  3
ObjectDBX Classes
 90
        0
 91
        2
280
     0
281
     0
  0
CLASS
  1
CELLSTYLEMAP
  2
AcDbCellStyleMap
  3
ObjectDBX Classes
 90
     1152
 91
        2
280
     0
281
     0
  0
ENDSEC
  0
SECTION
  2
TABLES
  0
TABLE
  2
VPORT
  5
2CA
102
{ACAD_XDICTIONARY
360
17D6
102
}
330
0
100
AcDbSymbolTable
 70
     1
  0
VPORT
  5
C53
330
2CA
100
AcDbSymbolTableRecord
100
AcDbViewportTableRecord
  2
*Active
 70
     0
 10
0.0
 20
0.0
 11
1.0
 21
1.0
 12
292.2783491964683
 22
-198.054672573172
 13
0.0
 23
0.0
 14
10.0
 24
10.0
 15
10.0
 25
10.0
 16
0.0
 26
0.0
 36
1.0
 17
0.0
 27
0.0
 37
0.0
 40
1235.839401372426
 41
2.563587684069611
 42
50.0
 43
0.0
 44
0.0
 50
0.0
 51
0.0
 71
     0
 72
   100
 73
     1
 74
     1
 75
     0
 76
     0
 77
     0
 78
     0
281
     0
 65
     1
110
0.0
120
0.0
130
0.0
111
1.0
121
0.0
131
0.0
112
0.0
122
1.0
132
0.0
 79
     0
146
0.0
348
C77
 60
     3
 61
     5
292
     1
282
     1
141
0.0
142
0.0
 63
   250
421
  3355443
1001
ACAD_NAV_VCDISPLAY
1070
     3
  0
ENDTAB
  0
TABLE
  2
LTYPE
  5
2C7
330
0
100
AcDbSymbolTable
 70
     3
  0
LTYPE
  5
2D5
330
2C7
100
AcDbSymbolTableRecord
100
AcDbLinetypeTableRecord
  2
ByBlock
 70
     0
  3

 72
    65
 73
     0
 40
0.0
  0
LTYPE
  5
2D6
330
2C7
100
AcDbSymbolTableRecord
100
AcDbLinetypeTableRecord
  2
ByLayer
 70
     0
  3

 72
    65
 73
     0
 40
0.0
  0
LTYPE
  5
2D7
330
2C7
100
AcDbSymbolTableRecord
100
AcDbLinetypeTableRecord
  2
CONTINUOUS
 70
     0
  3
Solid line
 72
    65
 73
     0
 40
0.0
  0
LTYPE
  5
2E9
330
2C7
100
AcDbSymbolTableRecord
100
AcDbLinetypeTableRecord
  2
PHANTOM
 70
     0
  3
Phantom ______  __  __  ______  __  __  ______
 72
    65
 73
     6
 40
63.5
 49
31.75
 74
     0
 49
-6.349999999999997
 74
     0
 49
6.349999999999997
 74
     0
 49
-6.349999999999997
 74
     0
 49
6.349999999999997
 74
     0
 49
-6.349999999999997
 74
     0
  0
LTYPE
  5
194D
330
2C7
100
AcDbSymbolTableRecord
100
AcDbLinetypeTableRecord
  2
CENTER
 70
     0
  3
Center ____ _ ____ _ ____ _ ____ _ ____ _ ____
 72
    65
 73
     4
 40
50.8
 49
31.75
 74
     0
 49
-6.349999999999999
 74
     0
 49
6.349999999999999
 74
     0
 49
-6.349999999999999
 74
     0
  0
ENDTAB
  0
TABLE
  2
LAYER
  5
2C4
102
{ACAD_XDICTIONARY
360
13CB
102
}
330
0
100
AcDbSymbolTable
 70
     7
  0
LAYER
  5
2D2
102
{ACAD_XDICTIONARY
360
CA3
102
}
330
2C4
100
AcDbSymbolTableRecord
100
AcDbLayerTableRecord
  2
0
 70
     0
 62
     7
  6
CONTINUOUS
370
    -3
390
2D1
347
C69
  0
LAYER
  5
2E4
102
{ACAD_XDICTIONARY
360
CA5
102
}
330
2C4
100
AcDbSymbolTableRecord
100
AcDbLayerTableRecord
  2
2寸法線
 70
     0
 62
     2
  6
CONTINUOUS
370
    -3
390
2D1
347
C69
  0
LAYER
  5
2EA
102
{ACAD_XDICTIONARY
360
CA7
102
}
330
2C4
100
AcDbSymbolTableRecord
100
AcDbLayerTableRecord
  2
1外形線
 70
     0
 62
     3
  6
CONTINUOUS
370
    -3
390
2D1
347
C69
  0
LAYER
  5
2EF
330
2C4
100
AcDbSymbolTableRecord
100
AcDbLayerTableRecord
  2
DEFPOINTS
 70
     0
 62
     7
  6
CONTINUOUS
290
     0
370
    -3
390
2D1
347
C69
  0
LAYER
  5
2F0
102
{ACAD_XDICTIONARY
360
CA9
102
}
330
2C4
100
AcDbSymbolTableRecord
100
AcDbLayerTableRecord
  2
C4
 70
     0
 62
     3
  6
CONTINUOUS
370
    -3
390
2D1
347
C69
  0
LAYER
  5
194E
102
{ACAD_XDICTIONARY
360
194F
102
}
330
2C4
100
AcDbSymbolTableRecord
100
AcDbLayerTableRecord
  2
3補助線
 70
     0
 62
     4
  6
CONTINUOUS
370
    -3
390
2D1
347
C69
  0
LAYER
  5
1CA0
102
{ACAD_XDICTIONARY
360
1CA1
102
}
330
2C4
100
AcDbSymbolTableRecord
100
AcDbLayerTableRecord
  2
SUNPOU
 70
     0
 62
     2
  6
CONTINUOUS
370
    -3
390
2D1
347
C69
  0
ENDTAB
  0
TABLE
  2
STYLE
  5
2C5
330
0
100
AcDbSymbolTable
 70
     2
  0
STYLE
  5
2D3
330
2C5
100
AcDbSymbolTableRecord
100
AcDbTextStyleTableRecord
  2
STANDARD
 70
     0
 40
0.0
 41
1.0
 50
0.0
 71
     0
 42
2.5
  3
txt
  4

  0
STYLE
  5
2E5
330
2C5
100
AcDbSymbolTableRecord
100
AcDbTextStyleTableRecord
  2
KANJI
 70
     0
 40
0.0
 41
1.0
 50
0.0
 71
     0
 42
2.5
  3
simplex.shx
  4
bigfont.shx
  0
ENDTAB
  0
TABLE
  2
VIEW
  5
2C8
330
0
100
AcDbSymbolTable
 70
     0
  0
ENDTAB
  0
TABLE
  2
UCS
  5
2C9
330
0
100
AcDbSymbolTable
 70
     0
  0
ENDTAB
  0
TABLE
  2
APPID
  5
2CB
330
0
100
AcDbSymbolTable
 70
     6
  0
APPID
  5
2D4
330
2CB
100
AcDbSymbolTableRecord
100
AcDbRegAppTableRecord
  2
ACAD
 70
     0
  0
APPID
  5
CAB
330
2CB
100
AcDbSymbolTableRecord
100
AcDbRegAppTableRecord
  2
ACAD_NAV_VCDISPLAY
 70
     0
  0
APPID
  5
CD2
330
2CB
100
AcDbSymbolTableRecord
100
AcDbRegAppTableRecord
  2
ACAD_DSTYLE_DIMRADIAL_EXTENSION
 70
     0
  0
APPID
  5
D0E
330
2CB
100
AcDbSymbolTableRecord
100
AcDbRegAppTableRecord
  2
ACAD_EXEMPT_FROM_CAD_STANDARDS
 70
     0
  0
APPID
  5
13D3
330
2CB
100
AcDbSymbolTableRecord
100
AcDbRegAppTableRecord
  2
ACAD_PSEXT
 70
     0
  0
APPID
  5
180F
330
2CB
100
AcDbSymbolTableRecord
100
AcDbRegAppTableRecord
  2
ACAD_MLEADERVER
 70
     0
  0
ENDTAB
  0
TABLE
  2
DIMSTYLE
  5
2CC
330
0
100
AcDbSymbolTable
 70
     4
100
AcDbDimStyleTable
 71
     1
340
2F4
  0
DIMSTYLE
105
2F2
330
2CC
100
AcDbSymbolTableRecord
100
AcDbDimStyleTableRecord
  2
STANDARD
 70
     0
 73
     0
 74
     0
172
     1
271
     3
272
     3
279
     2
284
     8
285
     8
286
     8
340
2E5
  0
DIMSTYLE
105
2F4
330
2CC
100
AcDbSymbolTableRecord
100
AcDbDimStyleTableRecord
  2
M
 70
     0
 40
0.0
 41
2.0
 42
1.0
 43
0.0
 44
1.0
 73
     0
 74
     0
 77
     1
 78
     8
140
2.5
141
0.0
147
0.5
172
     1
173
     1
271
     3
272
     3
279
     2
284
     8
285
     8
286
     8
340
2E5
  0
DIMSTYLE
105
1623
330
2CC
100
AcDbSymbolTableRecord
100
AcDbDimStyleTableRecord
  2
ISO-25
 70
     0
 41
2.5
 42
0.625
 43
3.75
 44
1.25
 73
     0
 74
     0
 77
     1
 78
     8
140
2.5
141
2.5
143
0.03937007874016
147
0.625
171
     3
172
     1
271
     2
272
     2
274
     3
283
     0
284
     8
340
2D3
  0
DIMSTYLE
105
1950
330
2CC
100
AcDbSymbolTableRecord
100
AcDbDimStyleTableRecord
  2
M$4
 70
     0
 40
0.0
 41
2.0
 42
1.0
 43
0.0
 44
1.0
 73
     0
 77
     1
 78
     8
140
2.5
141
0.0
147
0.5
173
     1
284
     8
340
2E5
341
2FF
343
2FF
344
2FF
  0
ENDTAB
  0
TABLE
  2
BLOCK_RECORD
  5
2C3
330
0
100
AcDbSymbolTable
 70
    24
  0
BLOCK_RECORD
  5
2E0
102
{ACAD_XDICTIONARY
360
12DF
102
}
330
2C3
100
AcDbSymbolTableRecord
100
AcDbBlockTableRecord
  2
*Model_Space
340
2E3
 70
     0
280
     1
281
     0
  0
BLOCK_RECORD
  5
2DC
330
2C3
100
AcDbSymbolTableRecord
100
AcDbBlockTableRecord
  2
*Paper_Space
340
2DF
 70
     0
280
     1
281
     0
  0
BLOCK_RECORD
  5
2FF
330
2C3
100
AcDbSymbolTableRecord
100
AcDbBlockTableRecord
  2
2
340
0
102
{BLKREFS
331
1B09
331
1B0A
331
1B12
331
1B13
331
1B1D
331
1B1E
331
1B84
331
1B85
331
1B8D
331
1B8E
331
151B
331
151C
331
1524
331
1525
331
152D
331
152E
331
1536
331
1537
331
153F
331
1540
331
1641
331
1642
331
164A
331
164B
331
1653
331
1654
331
165C
331
165D
331
1666
331
1667
331
1671
331
1672
331
167B
331
167C
331
1685
331
1686
331
168F
331
1690
331
16E1
331
16E2
102
}
 70
     0
280
     1
281
     0
  0
BLOCK_RECORD
  5
301
330
2C3
100
AcDbSymbolTableRecord
100
AcDbBlockTableRecord
  2
*U1
340
0
102
{BLKREFS
331
131
102
}
 70
     0
280
     1
281
     0
  0
BLOCK_RECORD
  5
CB9
330
2C3
100
AcDbSymbolTableRecord
100
AcDbBlockTableRecord
  2
*D2
340
0
 70
     0
280
     1
281
     0
  0
BLOCK_RECORD
  5
CC6
330
2C3
100
AcDbSymbolTableRecord
100
AcDbBlockTableRecord
  2
*D3
340
0
 70
     0
280
     1
281
     0
  0
BLOCK_RECORD
  5
CE8
330
2C3
100
AcDbSymbolTableRecord
100
AcDbBlockTableRecord
  2
*D4
340
0
 70
     0
280
     1
281
     0
  0
BLOCK_RECORD
  5
CF5
330
2C3
100
AcDbSymbolTableRecord
100
AcDbBlockTableRecord
  2
*D5
340
0
 70
     0
280
     1
281
     0
  0
BLOCK_RECORD
  5
D02
330
2C3
100
AcDbSymbolTableRecord
100
AcDbBlockTableRecord
  2
*D6
340
0
 70
     0
280
     1
281
     0
  0
BLOCK_RECORD
  5
11D3
330
2C3
100
AcDbSymbolTableRecord
100
AcDbBlockTableRecord
  2
*D7
340
0
 70
     0
280
     1
281
     0
  0
BLOCK_RECORD
  5
11DF
330
2C3
100
AcDbSymbolTableRecord
100
AcDbBlockTableRecord
  2
*D8
340
0
 70
     0
280
     1
281
     0
  0
BLOCK_RECORD
  5
11FD
330
2C3
100
AcDbSymbolTableRecord
100
AcDbBlockTableRecord
  2
*D9
340
0
 70
     0
280
     1
281
     0
  0
BLOCK_RECORD
  5
1209
330
2C3
100
AcDbSymbolTableRecord
100
AcDbBlockTableRecord
  2
*D10
340
0
 70
     0
280
     1
281
     0
  0
BLOCK_RECORD
  5
1215
330
2C3
100
AcDbSymbolTableRecord
100
AcDbBlockTableRecord
  2
*D11
340
0
 70
     0
280
     1
281
     0
  0
BLOCK_RECORD
  5
12E2
330
2C3
100
AcDbSymbolTableRecord
100
AcDbBlockTableRecord
  2
*D12
340
0
 70
     0
280
     1
281
     0
  0
BLOCK_RECORD
  5
132D
330
2C3
100
AcDbSymbolTableRecord
100
AcDbBlockTableRecord
  2
*D13
340
0
 70
     0
280
     1
281
     0
  0
BLOCK_RECORD
  5
1362
330
2C3
100
AcDbSymbolTableRecord
100
AcDbBlockTableRecord
  2
*D14
340
0
 70
     0
280
     1
281
     0
  0
BLOCK_RECORD
  5
137E
330
2C3
100
AcDbSymbolTableRecord
100
AcDbBlockTableRecord
  2
*D15
340
0
 70
     0
280
     1
281
     0
  0
BLOCK_RECORD
  5
13E6
330
2C3
100
AcDbSymbolTableRecord
100
AcDbBlockTableRecord
  2
*D16
340
0
 70
     0
280
     1
281
     0
  0
BLOCK_RECORD
  5
1915
330
2C3
100
AcDbSymbolTableRecord
100
AcDbBlockTableRecord
  2
INABAロゴ
340
0
 70
     0
280
     1
281
     0
  0
BLOCK_RECORD
  5
1A78
330
2C3
100
AcDbSymbolTableRecord
100
AcDbBlockTableRecord
  2
*D18
340
0
 70
     0
280
     1
281
     0
  0
BLOCK_RECORD
  5
1A84
330
2C3
100
AcDbSymbolTableRecord
100
AcDbBlockTableRecord
  2
*D19
340
0
 70
     0
280
     1
281
     0
  0
BLOCK_RECORD
  5
1A90
330
2C3
100
AcDbSymbolTableRecord
100
AcDbBlockTableRecord
  2
*D20
340
0
 70
     0
280
     1
281
     0
  0
BLOCK_RECORD
  5
1AC9
330
2C3
100
AcDbSymbolTableRecord
100
AcDbBlockTableRecord
  2
*D21
340
0
 70
     0
280
     1
281
     0
  0
BLOCK_RECORD
  5
1B75
330
2C3
100
AcDbSymbolTableRecord
100
AcDbBlockTableRecord
  2
*D22
340
0
 70
     0
280
     1
281
     0
  0
ENDTAB
  0
ENDSEC
  0
SECTION
  2
BLOCKS
  0
BLOCK
  5
2E1
330
2E0
100
AcDbEntity
  8
0
100
AcDbBlockBegin
  2
*Model_Space
 70
     0
 10
0.0
 20
0.0
 30
0.0
  3
*Model_Space
  1

  0
ENDBLK
  5
2E2
330
2E0
100
AcDbEntity
  8
0
100
AcDbBlockEnd
  0
BLOCK
  5
2DD
330
2DC
100
AcDbEntity
 67
     1
  8
0
100
AcDbBlockBegin
  2
*Paper_Space
 70
     0
 10
0.0
 20
0.0
 30
0.0
  3
*Paper_Space
  1

  0
ENDBLK
  5
2DE
330
2DC
100
AcDbEntity
 67
     1
  8
0
100
AcDbBlockEnd
  0
BLOCK
  5
300
330
2FF
100
AcDbEntity
  8
0
100
AcDbBlockBegin
  2
2
 70
     0
 10
0.0
 20
0.0
 30
0.0
  3
2
  1

  0
INSERT
  5
131
330
2FF
100
AcDbEntity
  8
0
  6
Continuous
 62
     0
100
AcDbBlockReference
  2
*U1
 10
0.0
 20
0.0
 30
0.0
1001
ACAD
1002
{
1000
R14_HATCH_DATA
1000
131
1011
1.0
1021
0.0
1031
0.0
1011
0.0
1021
1.0
1031
0.0
1011
0.0
1021
0.0
1031
1.0
1040
0.0
1010
0.0
1020
0.0
1030
1.0
1000
SOLID
1070
     1
1070
     0
1071
        1
1071
        1
1071
        3
1070
     1
1040
-0.9999999999983517
1040
0.2679491924306774
1040
0.0
1040
0.0
1070
     1
1040
0.0
1040
0.0
1040
-0.9999999999983517
1040
-0.2679491924306765
1070
     1
1040
-0.9999999999983524
1040
-0.267949192430676
1040
-0.9999999999983524
1040
0.2679491924306774
1071
        0
1070
     0
1070
     1
1071
        1
1040
2.995745117231336
1040
-4.124946096263201
1040
0.0
1002
}
  0
ENDBLK
  5
132
330
2FF
100
AcDbEntity
  8
0
100
AcDbBlockEnd
  0
BLOCK
  5
309
330
301
100
AcDbEntity
  8
0
100
AcDbBlockBegin
  2
*U1
 70
     1
 10
0.0
 20
0.0
 30
0.0
  3
*U1
  1

  0
SOLID
  5
209
330
301
100
AcDbEntity
  8
0
  6
Continuous
 62
     0
100
AcDbTrace
 10
0.666666666665568
 20
0.0000000000000004
 30
0.0
 11
0.9999999999983517
 21
0.2679491924306774
 31
0.0
 12
0.0
 22
0.0
 32
0.0
 13
0.0
 23
0.0
 33
0.0
210
0.0
220
0.0
230
-1.0
  0
SOLID
  5
20A
330
301
100
AcDbEntity
  8
0
  6
Continuous
 62
     0
100
AcDbTrace
 10
0.666666666665568
 20
0.0000000000000004
 30
0.0
 11
0.0
 21
0.0
 31
0.0
 12
0.9999999999983524
 22
-0.267949192430676
 32
0.0
 13
0.9999999999983524
 23
-0.267949192430676
 33
0.0
210
0.0
220
0.0
230
-1.0
  0
SOLID
  5
20B
330
301
100
AcDbEntity
  8
0
  6
Continuous
 62
     0
100
AcDbTrace
 10
0.666666666665568
 20
0.0000000000000004
 30
0.0
 11
0.9999999999983524
 21
-0.267949192430676
 31
0.0
 12
0.9999999999983517
 22
0.2679491924306774
 32
0.0
 13
0.9999999999983517
 23
0.2679491924306774
 33
0.0
210
0.0
220
0.0
230
-1.0
  0
ENDBLK
  5
20D
330
301
100
AcDbEntity
  8
0
100
AcDbBlockEnd
  0
BLOCK
  5
CBA
330
CB9
100
AcDbEntity
  8
0
100
AcDbBlockBegin
  2
*D2
 70
     1
 10
0.0
 20
0.0
 30
0.0
  3
*D2
  1

  0
LINE
  5
16DE
330
CB9
100
AcDbEntity
  8
2寸法線
 62
     0
440
 16777216
370
    -2
100
AcDbLine
 10
658.5672913017908
 20
139.5992084573975
 30
0.0
 11
584.1891814076729
 21
139.5992084573975
 31
0.0
  0
LINE
  5
16DF
330
CB9
100
AcDbEntity
  8
2寸法線
 62
     0
440
 16777216
370
    -2
100
AcDbLine
 10
619.766956180095
 20
48.59920845739754
 30
0.0
 11
584.1891814076729
 21
48.59920845739755
 31
0.0
  0
LINE
  5
16E0
330
CB9
100
AcDbEntity
  8
2寸法線
 62
     0
440
 16777216
370
    -2
100
AcDbLine
 10
585.1891814076729
 20
137.7992084573975
 30
0.0
 11
585.1891814076729
 21
50.39920845739755
 31
0.0
  0
INSERT
  5
16E1
330
CB9
100
AcDbEntity
  8
2寸法線
 62
     0
440
 16777216
370
    -2
100
AcDbBlockReference
  2
2
 10
585.1891814076729
 20
139.5992084573975
 30
0.0
 41
1.8
 42
1.8
 43
1.8
 50
90.0
  0
INSERT
  5
16E2
330
CB9
100
AcDbEntity
  8
2寸法線
 62
     0
440
 16777216
370
    -2
100
AcDbBlockReference
  2
2
 10
585.1891814076729
 20
48.59920845739755
 30
0.0
 41
1.8
 42
1.8
 43
1.8
 50
270.0
  0
MTEXT
  5
16E3
330
CB9
100
AcDbEntity
  8
2寸法線
 62
     0
440
 16777216
100
AcDbMText
 10
580.6891814076729
 20
94.0992084573976
 30
0.0
 40
8.0
 41
0.0
 46
0.0
 71
     5
 72
     1
  1
\A1;91
 11
0.0000000000000001
 21
1.0
 31
0.0
 73
     1
 44
1.0
  0
POINT
  5
16E4
330
CB9
100
AcDbEntity
  8
DEFPOINTS
 62
     0
440
 16777216
100
AcDbPoint
 10
659.5672913017907
 20
139.5992084573975
 30
0.0
  0
POINT
  5
16E5
330
CB9
100
AcDbEntity
  8
DEFPOINTS
 62
     0
440
 16777216
100
AcDbPoint
 10
620.7669561800951
 20
48.59920845739754
 30
0.0
  0
POINT
  5
16E6
330
CB9
100
AcDbEntity
  8
DEFPOINTS
 62
     0
440
 16777216
100
AcDbPoint
 10
585.1891814076729
 20
48.59920845739755
 30
0.0
  0
ENDBLK
  5
CBB
330
CB9
100
AcDbEntity
  8
0
100
AcDbBlockEnd
  0
BLOCK
  5
CC7
330
CC6
100
AcDbEntity
  8
0
100
AcDbBlockBegin
  2
*D3
 70
     1
 10
0.0
 20
0.0
 30
0.0
  3
*D3
  1

  0
LINE
  5
163E
330
CC6
100
AcDbEntity
  8
2寸法線
 62
     0
440
 16777216
370
    -2
100
AcDbLine
 10
664.2363797482494
 20
-188.3361669863909
 30
0.0
 11
573.6884100982494
 21
-188.3361669863909
 31
0.0
  0
LINE
  5
163F
330
CC6
100
AcDbEntity
  8
2寸法線
 62
     0
440
 16777216
370
    -2
100
AcDbLine
 10
625.3363797482493
 20
-292.1361669863913
 30
0.0
 11
573.6884100982492
 21
-292.1361669863913
 31
0.0
  0
LINE
  5
1640
330
CC6
100
AcDbEntity
  8
2寸法線
 62
     0
440
 16777216
370
    -2
100
AcDbLine
 10
574.6884100982494
 20
-190.1361669863909
 30
0.0
 11
574.6884100982493
 21
-290.3361669863913
 31
0.0
  0
INSERT
  5
1641
330
CC6
100
AcDbEntity
  8
2寸法線
 62
     0
440
 16777216
370
    -2
100
AcDbBlockReference
  2
2
 10
574.6884100982494
 20
-188.3361669863909
 30
0.0
 41
1.8
 42
1.8
 43
1.8
 50
90.0
  0
INSERT
  5
1642
330
CC6
100
AcDbEntity
  8
2寸法線
 62
     0
440
 16777216
370
    -2
100
AcDbBlockReference
  2
2
 10
574.6884100982493
 20
-292.1361669863913
 30
0.0
 41
1.8
 42
1.8
 43
1.8
 50
270.0
  0
MTEXT
  5
1643
330
CC6
100
AcDbEntity
  8
2寸法線
 62
     0
440
 16777216
100
AcDbMText
 10
570.1884100982494
 20
-240.236166986391
 30
0.0
 40
8.0
 41
0.0
 46
0.0
 71
     5
 72
     1
  1
\A1;103.8
 11
0.0000000000000001
 21
1.0
 31
0.0
 73
     1
 44
1.0
  0
POINT
  5
1644
330
CC6
100
AcDbEntity
  8
DEFPOINTS
 62
     0
440
 16777216
100
AcDbPoint
 10
665.2363797482494
 20
-188.3361669863909
 30
0.0
  0
POINT
  5
1645
330
CC6
100
AcDbEntity
  8
DEFPOINTS
 62
     0
440
 16777216
100
AcDbPoint
 10
626.3363797482493
 20
-292.1361669863913
 30
0.0
  0
POINT
  5
1646
330
CC6
100
AcDbEntity
  8
DEFPOINTS
 62
     0
440
 16777216
100
AcDbPoint
 10
574.6884100982493
 20
-292.1361669863913
 30
0.0
  0
ENDBLK
  5
CC8
330
CC6
100
AcDbEntity
  8
0
100
AcDbBlockEnd
  0
BLOCK
  5
CE9
330
CE8
100
AcDbEntity
  8
0
100
AcDbBlockBegin
  2
*D4
 70
     1
 10
0.0
 20
0.0
 30
0.0
  3
*D4
  1

  0
LINE
  5
1647
330
CE8
100
AcDbEntity
  8
2寸法線
 62
     0
440
 16777216
370
    -2
100
AcDbLine
 10
660.5672913017911
 20
202.5992084573975
 30
0.0
 11
744.82948338092
 21
202.5992084573975
 31
0.0
  0
LINE
  5
1648
330
CE8
100
AcDbEntity
  8
2寸法線
 62
     0
440
 16777216
370
    -2
100
AcDbLine
 10
699.3676264234882
 20
48.59920845739753
 30
0.0
 11
744.82948338092
 21
48.59920845739752
 31
0.0
  0
LINE
  5
1649
330
CE8
100
AcDbEntity
  8
2寸法線
 62
     0
440
 16777216
370
    -2
100
AcDbLine
 10
743.82948338092
 20
200.7992084573975
 30
0.0
 11
743.82948338092
 21
50.39920845739752
 31
0.0
  0
INSERT
  5
164A
330
CE8
100
AcDbEntity
  8
2寸法線
 62
     0
440
 16777216
370
    -2
100
AcDbBlockReference
  2
2
 10
743.82948338092
 20
202.5992084573975
 30
0.0
 41
1.8
 42
1.8
 43
1.8
 50
90.0
  0
INSERT
  5
164B
330
CE8
100
AcDbEntity
  8
2寸法線
 62
     0
440
 16777216
370
    -2
100
AcDbBlockReference
  2
2
 10
743.82948338092
 20
48.59920845739752
 30
0.0
 41
1.8
 42
1.8
 43
1.8
 50
270.0
  0
MTEXT
  5
164C
330
CE8
100
AcDbEntity
  8
2寸法線
 62
     0
440
 16777216
100
AcDbMText
 10
739.32948338092
 20
125.5992084573976
 30
0.0
 40
8.0
 41
0.0
 46
0.0
 71
     5
 72
     1
  1
\A1;154
 11
0.0000000000000001
 21
1.0
 31
0.0
 73
     1
 44
1.0
  0
POINT
  5
164D
330
CE8
100
AcDbEntity
  8
DEFPOINTS
 62
     0
440
 16777216
100
AcDbPoint
 10
659.5672913017911
 20
202.5992084573975
 30
0.0
  0
POINT
  5
164E
330
CE8
100
AcDbEntity
  8
DEFPOINTS
 62
     0
440
 16777216
100
AcDbPoint
 10
698.3676264234881
 20
48.59920845739753
 30
0.0
  0
POINT
  5
164F
330
CE8
100
AcDbEntity
  8
DEFPOINTS
 62
     0
440
 16777216
100
AcDbPoint
 10
743.82948338092
 20
48.59920845739752
 30
0.0
  0
ENDBLK
  5
CEA
330
CE8
100
AcDbEntity
  8
0
100
AcDbBlockEnd
  0
BLOCK
  5
CF6
330
CF5
100
AcDbEntity
  8
0
100
AcDbBlockBegin
  2
*D5
 70
     1
 10
0.0
 20
0.0
 30
0.0
  3
*D5
  1

  0
LINE
  5
1650
330
CF5
100
AcDbEntity
  8
2寸法線
 62
     0
440
 16777216
370
    -2
100
AcDbLine
 10
666.2363797482498
 20
-115.1361669863919
 30
0.0
 11
765.4557869629794
 21
-115.1361669863919
 31
0.0
  0
LINE
  5
1651
330
CF5
100
AcDbEntity
  8
2寸法線
 62
     0
440
 16777216
370
    -2
100
AcDbLine
 10
705.1363797482496
 20
-292.1361669863913
 30
0.0
 11
765.4557869629793
 21
-292.1361669863913
 31
0.0
  0
LINE
  5
1652
330
CF5
100
AcDbEntity
  8
2寸法線
 62
     0
440
 16777216
370
    -2
100
AcDbLine
 10
764.4557869629794
 20
-116.9361669863919
 30
0.0
 11
764.4557869629793
 21
-290.3361669863913
 31
0.0
  0
INSERT
  5
1653
330
CF5
100
AcDbEntity
  8
2寸法線
 62
     0
440
 16777216
370
    -2
100
AcDbBlockReference
  2
2
 10
764.4557869629794
 20
-115.1361669863919
 30
0.0
 41
1.8
 42
1.8
 43
1.8
 50
90.0
  0
INSERT
  5
1654
330
CF5
100
AcDbEntity
  8
2寸法線
 62
     0
440
 16777216
370
    -2
100
AcDbBlockReference
  2
2
 10
764.4557869629793
 20
-292.1361669863913
 30
0.0
 41
1.8
 42
1.8
 43
1.8
 50
270.0
  0
MTEXT
  5
1655
330
CF5
100
AcDbEntity
  8
2寸法線
 62
     0
440
 16777216
100
AcDbMText
 10
759.9557869629794
 20
-203.6361669863915
 30
0.0
 40
8.0
 41
0.0
 46
0.0
 71
     5
 72
     1
  1
\A1;177
 11
0.0000000000000001
 21
1.0
 31
0.0
 73
     1
 44
1.0
  0
POINT
  5
1656
330
CF5
100
AcDbEntity
  8
DEFPOINTS
 62
     0
440
 16777216
100
AcDbPoint
 10
665.2363797482498
 20
-115.1361669863919
 30
0.0
  0
POINT
  5
1657
330
CF5
100
AcDbEntity
  8
DEFPOINTS
 62
     0
440
 16777216
100
AcDbPoint
 10
704.1363797482496
 20
-292.1361669863913
 30
0.0
  0
POINT
  5
1658
330
CF5
100
AcDbEntity
  8
DEFPOINTS
 62
     0
440
 16777216
100
AcDbPoint
 10
764.4557869629793
 20
-292.1361669863913
 30
0.0
  0
ENDBLK
  5
CF7
330
CF5
100
AcDbEntity
  8
0
100
AcDbBlockEnd
  0
BLOCK
  5
D03
330
D02
100
AcDbEntity
  8
0
100
AcDbBlockBegin
  2
*D6
 70
     1
 10
0.0
 20
0.0
 30
0.0
  3
*D6
  1

  0
LINE
  5
1659
330
D02
100
AcDbEntity
  8
2寸法線
 62
     0
440
 16777216
370
    -2
100
AcDbLine
 10
666.0197760962034
 20
-475.0873443606766
 30
0.0
 11
758.0019011235313
 21
-475.0873443606766
 31
0.0
  0
LINE
  5
165A
330
D02
100
AcDbEntity
  8
2寸法線
 62
     0
440
 16777216
370
    -2
100
AcDbLine
 10
666.0197760962034
 20
-652.0873443606767
 30
0.0
 11
758.0019011235313
 21
-652.0873443606767
 31
0.0
  0
LINE
  5
165B
330
D02
100
AcDbEntity
  8
2寸法線
 62
     0
440
 16777216
370
    -2
100
AcDbLine
 10
757.0019011235313
 20
-476.8873443606767
 30
0.0
 11
757.0019011235313
 21
-650.2873443606768
 31
0.0
  0
INSERT
  5
165C
330
D02
100
AcDbEntity
  8
2寸法線
 62
     0
440
 16777216
370
    -2
100
AcDbBlockReference
  2
2
 10
757.0019011235313
 20
-475.0873443606766
 30
0.0
 41
1.8
 42
1.8
 43
1.8
 50
90.0
  0
INSERT
  5
165D
330
D02
100
AcDbEntity
  8
2寸法線
 62
     0
440
 16777216
370
    -2
100
AcDbBlockReference
  2
2
 10
757.0019011235313
 20
-652.0873443606767
 30
0.0
 41
1.8
 42
1.8
 43
1.8
 50
270.0
  0
MTEXT
  5
165E
330
D02
100
AcDbEntity
  8
2寸法線
 62
     0
440
 16777216
100
AcDbMText
 10
752.5019011235314
 20
-563.5873443606766
 30
0.0
 40
8.0
 41
0.0
 46
0.0
 71
     5
 72
     1
  1
\A1;177
 11
0.0000000000000001
 21
1.0
 31
0.0
 73
     1
 44
1.0
  0
POINT
  5
165F
330
D02
100
AcDbEntity
  8
DEFPOINTS
 62
     0
440
 16777216
100
AcDbPoint
 10
665.0197760962035
 20
-475.0873443606766
 30
0.0
  0
POINT
  5
1660
330
D02
100
AcDbEntity
  8
DEFPOINTS
 62
     0
440
 16777216
100
AcDbPoint
 10
665.0197760962035
 20
-652.0873443606767
 30
0.0
  0
POINT
  5
1661
330
D02
100
AcDbEntity
  8
DEFPOINTS
 62
     0
440
 16777216
100
AcDbPoint
 10
757.0019011235313
 20
-652.0873443606767
 30
0.0
  0
ENDBLK
  5
D04
330
D02
100
AcDbEntity
  8
0
100
AcDbBlockEnd
  0
BLOCK
  5
11D4
330
11D3
100
AcDbEntity
  8
0
100
AcDbBlockBegin
  2
*D7
 70
     1
 10
0.0
 20
0.0
 30
0.0
  3
*D7
  1

  0
LINE
  5
1521
330
11D3
100
AcDbEntity
  8
2寸法線
 62
     0
440
 16777216
370
    -2
100
AcDbLine
 10
1043.862019667731
 20
139.5992082188269
 30
0.0
 11
969.483909773613
 21
139.5992082188269
 31
0.0
  0
LINE
  5
1522
330
11D3
100
AcDbEntity
  8
2寸法線
 62
     0
440
 16777216
370
    -2
100
AcDbLine
 10
1043.862019667731
 20
52.5992082188269
 30
0.0
 11
969.483909773613
 21
52.59920821882693
 31
0.0
  0
LINE
  5
1523
330
11D3
100
AcDbEntity
  8
2寸法線
 62
     0
440
 16777216
370
    -2
100
AcDbLine
 10
970.483909773613
 20
137.7992082188269
 30
0.0
 11
970.483909773613
 21
54.39920821882693
 31
0.0
  0
INSERT
  5
1524
330
11D3
100
AcDbEntity
  8
2寸法線
 62
     0
440
 16777216
370
    -2
100
AcDbBlockReference
  2
2
 10
970.483909773613
 20
139.5992082188269
 30
0.0
 41
1.8
 42
1.8
 43
1.8
 50
90.0
  0
INSERT
  5
1525
330
11D3
100
AcDbEntity
  8
2寸法線
 62
     0
440
 16777216
370
    -2
100
AcDbBlockReference
  2
2
 10
970.483909773613
 20
52.59920821882693
 30
0.0
 41
1.8
 42
1.8
 43
1.8
 50
270.0
  0
MTEXT
  5
1526
330
11D3
100
AcDbEntity
  8
2寸法線
 62
     0
440
 16777216
100
AcDbMText
 10
965.983909773613
 20
96.09920821882708
 30
0.0
 40
8.0
 41
0.0
 46
0.0
 71
     5
 72
     1
  1
\A1;87
 11
0.0000000000000001
 21
1.0
 31
0.0
 73
     1
 44
1.0
  0
POINT
  5
1527
330
11D3
100
AcDbEntity
  8
DEFPOINTS
 62
     0
440
 16777216
100
AcDbPoint
 10
1044.86201966773
 20
139.5992082188269
 30
0.0
  0
POINT
  5
1528
330
11D3
100
AcDbEntity
  8
DEFPOINTS
 62
     0
440
 16777216
100
AcDbPoint
 10
1044.862019667731
 20
52.5992082188269
 30
0.0
  0
POINT
  5
1529
330
11D3
100
AcDbEntity
  8
DEFPOINTS
 62
     0
440
 16777216
100
AcDbPoint
 10
970.483909773613
 20
52.59920821882693
 30
0.0
  0
ENDBLK
  5
11D5
330
11D3
100
AcDbEntity
  8
0
100
AcDbBlockEnd
  0
BLOCK
  5
11E0
330
11DF
100
AcDbEntity
  8
0
100
AcDbBlockBegin
  2
*D8
 70
     1
 10
0.0
 20
0.0
 30
0.0
  3
*D8
  1

  0
LINE
  5
1533
330
11DF
100
AcDbEntity
  8
2寸法線
 62
     0
440
 16777216
370
    -2
100
AcDbLine
 10
1049.531108114189
 20
-188.3361672249615
 30
0.0
 11
958.9831384641895
 21
-188.3361672249615
 31
0.0
  0
LINE
  5
1534
330
11DF
100
AcDbEntity
  8
2寸法線
 62
     0
440
 16777216
370
    -2
100
AcDbLine
 10
1049.531108114189
 20
-286.1361672249619
 30
0.0
 11
958.9831384641893
 21
-286.1361672249619
 31
0.0
  0
LINE
  5
1535
330
11DF
100
AcDbEntity
  8
2寸法線
 62
     0
440
 16777216
370
    -2
100
AcDbLine
 10
959.9831384641895
 20
-190.1361672249615
 30
0.0
 11
959.9831384641893
 21
-284.3361672249618
 31
0.0
  0
INSERT
  5
1536
330
11DF
100
AcDbEntity
  8
2寸法線
 62
     0
440
 16777216
370
    -2
100
AcDbBlockReference
  2
2
 10
959.9831384641895
 20
-188.3361672249615
 30
0.0
 41
1.8
 42
1.8
 43
1.8
 50
90.0
  0
INSERT
  5
1537
330
11DF
100
AcDbEntity
  8
2寸法線
 62
     0
440
 16777216
370
    -2
100
AcDbBlockReference
  2
2
 10
959.9831384641893
 20
-286.1361672249619
 30
0.0
 41
1.8
 42
1.8
 43
1.8
 50
270.0
  0
MTEXT
  5
1538
330
11DF
100
AcDbEntity
  8
2寸法線
 62
     0
440
 16777216
100
AcDbMText
 10
955.4831384641895
 20
-237.2361672249615
 30
0.0
 40
8.0
 41
0.0
 46
0.0
 71
     5
 72
     1
  1
\A1;97.8
 11
0.0000000000000001
 21
1.0
 31
0.0
 73
     1
 44
1.0
  0
POINT
  5
1539
330
11DF
100
AcDbEntity
  8
DEFPOINTS
 62
     0
440
 16777216
100
AcDbPoint
 10
1050.531108114189
 20
-188.3361672249615
 30
0.0
  0
POINT
  5
153A
330
11DF
100
AcDbEntity
  8
DEFPOINTS
 62
     0
440
 16777216
100
AcDbPoint
 10
1050.531108114189
 20
-286.1361672249619
 30
0.0
  0
POINT
  5
153B
330
11DF
100
AcDbEntity
  8
DEFPOINTS
 62
     0
440
 16777216
100
AcDbPoint
 10
959.9831384641893
 20
-286.1361672249619
 30
0.0
  0
ENDBLK
  5
11E1
330
11DF
100
AcDbEntity
  8
0
100
AcDbBlockEnd
  0
BLOCK
  5
11FE
330
11FD
100
AcDbEntity
  8
0
100
AcDbBlockBegin
  2
*D9
 70
     1
 10
0.0
 20
0.0
 30
0.0
  3
*D9
  1

  0
LINE
  5
1518
330
11FD
100
AcDbEntity
  8
2寸法線
 62
     0
440
 16777216
370
    -2
100
AcDbLine
 10
1045.862019667731
 20
202.5992082188269
 30
0.0
 11
1130.12421174686
 21
202.5992082188269
 31
0.0
  0
LINE
  5
1519
330
11FD
100
AcDbEntity
  8
2寸法線
 62
     0
440
 16777216
370
    -2
100
AcDbLine
 10
1044.862019667731
 20
52.5992082188269
 30
0.0
 11
1130.12421174686
 21
52.59920821882688
 31
0.0
  0
LINE
  5
151A
330
11FD
100
AcDbEntity
  8
2寸法線
 62
     0
440
 16777216
370
    -2
100
AcDbLine
 10
1129.12421174686
 20
200.7992082188269
 30
0.0
 11
1129.12421174686
 21
54.39920821882687
 31
0.0
  0
INSERT
  5
151B
330
11FD
100
AcDbEntity
  8
2寸法線
 62
     0
440
 16777216
370
    -2
100
AcDbBlockReference
  2
2
 10
1129.12421174686
 20
202.5992082188269
 30
0.0
 41
1.8
 42
1.8
 43
1.8
 50
90.0
  0
INSERT
  5
151C
330
11FD
100
AcDbEntity
  8
2寸法線
 62
     0
440
 16777216
370
    -2
100
AcDbBlockReference
  2
2
 10
1129.12421174686
 20
52.59920821882688
 30
0.0
 41
1.8
 42
1.8
 43
1.8
 50
270.0
  0
MTEXT
  5
151D
330
11FD
100
AcDbEntity
  8
2寸法線
 62
     0
440
 16777216
100
AcDbMText
 10
1124.62421174686
 20
127.599208218827
 30
0.0
 40
8.0
 41
0.0
 46
0.0
 71
     5
 72
     1
  1
\A1;150
 11
0.0000000000000001
 21
1.0
 31
0.0
 73
     1
 44
1.0
  0
POINT
  5
151E
330
11FD
100
AcDbEntity
  8
DEFPOINTS
 62
     0
440
 16777216
100
AcDbPoint
 10
1044.862019667731
 20
202.5992082188269
 30
0.0
  0
POINT
  5
151F
330
11FD
100
AcDbEntity
  8
DEFPOINTS
 62
     0
440
 16777216
100
AcDbPoint
 10
1043.862019667731
 20
52.5992082188269
 30
0.0
  0
POINT
  5
1520
330
11FD
100
AcDbEntity
  8
DEFPOINTS
 62
     0
440
 16777216
100
AcDbPoint
 10
1129.12421174686
 20
52.59920821882688
 30
0.0
  0
ENDBLK
  5
11FF
330
11FD
100
AcDbEntity
  8
0
100
AcDbBlockEnd
  0
BLOCK
  5
120A
330
1209
100
AcDbEntity
  8
0
100
AcDbBlockBegin
  2
*D10
 70
     1
 10
0.0
 20
0.0
 30
0.0
  3
*D10
  1

  0
LINE
  5
152A
330
1209
100
AcDbEntity
  8
2寸法線
 62
     0
440
 16777216
370
    -2
100
AcDbLine
 10
1051.53110811419
 20
-115.1361672249625
 30
0.0
 11
1150.750515328919
 21
-115.1361672249625
 31
0.0
  0
LINE
  5
152B
330
1209
100
AcDbEntity
  8
2寸法線
 62
     0
440
 16777216
370
    -2
100
AcDbLine
 10
1051.531108114189
 20
-286.1361672249619
 30
0.0
 11
1150.750515328919
 21
-286.1361672249619
 31
0.0
  0
LINE
  5
152C
330
1209
100
AcDbEntity
  8
2寸法線
 62
     0
440
 16777216
370
    -2
100
AcDbLine
 10
1149.750515328919
 20
-116.9361672249625
 30
0.0
 11
1149.750515328919
 21
-284.3361672249618
 31
0.0
  0
INSERT
  5
152D
330
1209
100
AcDbEntity
  8
2寸法線
 62
     0
440
 16777216
370
    -2
100
AcDbBlockReference
  2
2
 10
1149.750515328919
 20
-115.1361672249625
 30
0.0
 41
1.8
 42
1.8
 43
1.8
 50
90.0
  0
INSERT
  5
152E
330
1209
100
AcDbEntity
  8
2寸法線
 62
     0
440
 16777216
370
    -2
100
AcDbBlockReference
  2
2
 10
1149.750515328919
 20
-286.1361672249619
 30
0.0
 41
1.8
 42
1.8
 43
1.8
 50
270.0
  0
MTEXT
  5
152F
330
1209
100
AcDbEntity
  8
2寸法線
 62
     0
440
 16777216
100
AcDbMText
 10
1145.250515328919
 20
-200.636167224962
 30
0.0
 40
8.0
 41
0.0
 46
0.0
 71
     5
 72
     1
  1
\A1;171
 11
0.0000000000000001
 21
1.0
 31
0.0
 73
     1
 44
1.0
  0
POINT
  5
1530
330
1209
100
AcDbEntity
  8
DEFPOINTS
 62
     0
440
 16777216
100
AcDbPoint
 10
1050.53110811419
 20
-115.1361672249625
 30
0.0
  0
POINT
  5
1531
330
1209
100
AcDbEntity
  8
DEFPOINTS
 62
     0
440
 16777216
100
AcDbPoint
 10
1050.531108114189
 20
-286.1361672249619
 30
0.0
  0
POINT
  5
1532
330
1209
100
AcDbEntity
  8
DEFPOINTS
 62
     0
440
 16777216
100
AcDbPoint
 10
1149.750515328919
 20
-286.1361672249619
 30
0.0
  0
ENDBLK
  5
120B
330
1209
100
AcDbEntity
  8
0
100
AcDbBlockEnd
  0
BLOCK
  5
1216
330
1215
100
AcDbEntity
  8
0
100
AcDbBlockBegin
  2
*D11
 70
     1
 10
0.0
 20
0.0
 30
0.0
  3
*D11
  1

  0
LINE
  5
153C
330
1215
100
AcDbEntity
  8
2寸法線
 62
     0
440
 16777216
370
    -2
100
AcDbLine
 10
1051.314504462143
 20
-475.0873445992472
 30
0.0
 11
1143.296629489471
 21
-475.0873445992472
 31
0.0
  0
LINE
  5
153D
330
1215
100
AcDbEntity
  8
2寸法線
 62
     0
440
 16777216
370
    -2
100
AcDbLine
 10
1051.314504462143
 20
-646.0873445992473
 30
0.0
 11
1143.296629489471
 21
-646.0873445992473
 31
0.0
  0
LINE
  5
153E
330
1215
100
AcDbEntity
  8
2寸法線
 62
     0
440
 16777216
370
    -2
100
AcDbLine
 10
1142.296629489471
 20
-476.8873445992473
 30
0.0
 11
1142.296629489471
 21
-644.2873445992473
 31
0.0
  0
INSERT
  5
153F
330
1215
100
AcDbEntity
  8
2寸法線
 62
     0
440
 16777216
370
    -2
100
AcDbBlockReference
  2
2
 10
1142.296629489471
 20
-475.0873445992472
 30
0.0
 41
1.8
 42
1.8
 43
1.8
 50
90.0
  0
INSERT
  5
1540
330
1215
100
AcDbEntity
  8
2寸法線
 62
     0
440
 16777216
370
    -2
100
AcDbBlockReference
  2
2
 10
1142.296629489471
 20
-646.0873445992473
 30
0.0
 41
1.8
 42
1.8
 43
1.8
 50
270.0
  0
MTEXT
  5
1541
330
1215
100
AcDbEntity
  8
2寸法線
 62
     0
440
 16777216
100
AcDbMText
 10
1137.796629489471
 20
-560.5873445992472
 30
0.0
 40
8.0
 41
0.0
 46
0.0
 71
     5
 72
     1
  1
\A1;171
 11
0.0000000000000001
 21
1.0
 31
0.0
 73
     1
 44
1.0
  0
POINT
  5
1542
330
1215
100
AcDbEntity
  8
DEFPOINTS
 62
     0
440
 16777216
100
AcDbPoint
 10
1050.314504462143
 20
-475.0873445992472
 30
0.0
  0
POINT
  5
1543
330
1215
100
AcDbEntity
  8
DEFPOINTS
 62
     0
440
 16777216
100
AcDbPoint
 10
1050.314504462143
 20
-646.0873445992473
 30
0.0
  0
POINT
  5
1544
330
1215
100
AcDbEntity
  8
DEFPOINTS
 62
     0
440
 16777216
100
AcDbPoint
 10
1142.296629489471
 20
-646.0873445992473
 30
0.0
  0
ENDBLK
  5
1217
330
1215
100
AcDbEntity
  8
0
100
AcDbBlockEnd
  0
BLOCK
  5
12E3
330
12E2
100
AcDbEntity
  8
0
100
AcDbBlockBegin
  2
*D12
 70
     1
 10
0.0
 20
0.0
 30
0.0
  3
*D12
  1

  0
LINE
  5
1662
330
12E2
100
AcDbEntity
  8
2寸法線
 62
     0
440
 16777216
370
    -2
100
AcDbLine
 10
706.1363797482497
 20
-188.3361669863909
 30
0.0
 11
719.9511827385708
 21
-188.3361669863909
 31
0.0
  0
LINE
  5
1663
330
12E2
100
AcDbEntity
  8
2寸法線
 62
     0
440
 16777216
370
    -2
100
AcDbLine
 10
706.1363797482497
 20
-194.3361669863909
 30
0.0
 11
719.9511827385708
 21
-194.3361669863909
 31
0.0
  0
LINE
  5
1664
330
12E2
100
AcDbEntity
  8
2寸法線
 62
     0
440
 16777216
370
    -2
100
AcDbLine
 10
718.9511827385708
 20
-192.5361669863909
 30
0.0
 11
718.9511827385708
 21
-190.1361669863909
 31
0.0
  0
LINE
  5
1665
330
12E2
100
AcDbEntity
  8
2寸法線
 62
     0
440
 16777216
370
    -2
100
AcDbLine
 10
718.9511827385708
 20
-188.3361669863909
 30
0.0
 11
718.9511827385708
 21
-175.5063135451555
 31
0.0
  0
INSERT
  5
1666
330
12E2
100
AcDbEntity
  8
2寸法線
 62
     0
440
 16777216
370
    -2
100
AcDbBlockReference
  2
2
 10
718.9511827385708
 20
-194.3361669863909
 30
0.0
 41
1.8
 42
1.8
 43
1.8
 50
270.0
  0
INSERT
  5
1667
330
12E2
100
AcDbEntity
  8
2寸法線
 62
     0
440
 16777216
370
    -2
100
AcDbBlockReference
  2
2
 10
718.9511827385708
 20
-188.3361669863909
 30
0.0
 41
1.8
 42
1.8
 43
1.8
 50
90.0
  0
MTEXT
  5
1668
330
12E2
100
AcDbEntity
  8
2寸法線
 62
     0
440
 16777216
100
AcDbMText
 10
714.4511827385708
 20
-178.672980211822
 30
0.0
 40
8.0
 41
0.0
 46
0.0
 71
     5
 72
     1
  1
\A1;6
 11
0.0000000000000001
 21
1.0
 31
0.0
 73
     1
 44
1.0
  0
POINT
  5
1669
330
12E2
100
AcDbEntity
  8
DEFPOINTS
 62
     0
440
 16777216
100
AcDbPoint
 10
705.1363797482497
 20
-188.3361669863909
 30
0.0
  0
POINT
  5
166A
330
12E2
100
AcDbEntity
  8
DEFPOINTS
 62
     0
440
 16777216
100
AcDbPoint
 10
705.1363797482497
 20
-194.3361669863909
 30
0.0
  0
POINT
  5
166B
330
12E2
100
AcDbEntity
  8
DEFPOINTS
 62
     0
440
 16777216
100
AcDbPoint
 10
718.9511827385708
 20
-194.3361669863909
 30
0.0
  0
ENDBLK
  5
12E4
330
12E2
100
AcDbEntity
  8
0
100
AcDbBlockEnd
  0
BLOCK
  5
132E
330
132D
100
AcDbEntity
  8
0
100
AcDbBlockBegin
  2
*D13
 70
     1
 10
0.0
 20
0.0
 30
0.0
  3
*D13
  1

  0
LINE
  5
166C
330
132D
100
AcDbEntity
  8
2寸法線
 62
     0
440
 16777216
370
    -2
100
AcDbLine
 10
700.3676264234862
 20
139.5992084573975
 30
0.0
 11
713.0313745191783
 21
139.5992084573975
 31
0.0
  0
LINE
  5
166D
330
132D
100
AcDbEntity
  8
2寸法線
 62
     0
440
 16777216
370
    -2
100
AcDbLine
 10
700.3676264234862
 20
135.5992084573975
 30
0.0
 11
713.0313745191783
 21
135.5992084573975
 31
0.0
  0
LINE
  5
166E
330
132D
100
AcDbEntity
  8
2寸法線
 62
     0
440
 16777216
370
    -2
100
AcDbLine
 10
712.0313745191784
 20
133.7992084573975
 30
0.0
 11
712.0313745191784
 21
131.9992084573975
 31
0.0
  0
LINE
  5
166F
330
132D
100
AcDbEntity
  8
2寸法線
 62
     0
440
 16777216
370
    -2
100
AcDbLine
 10
712.0313745191784
 20
141.3992084573975
 30
0.0
 11
712.0313745191784
 21
150.4514324273878
 31
0.0
  0
LINE
  5
1670
330
132D
100
AcDbEntity
  8
2寸法線
 62
     0
440
 16777216
370
    -2
100
AcDbLine
 10
712.0313745191784
 20
135.5992084573975
 30
0.0
 11
712.0313745191784
 21
139.5992084573975
 31
0.0
  0
INSERT
  5
1671
330
132D
100
AcDbEntity
  8
2寸法線
 62
     0
440
 16777216
370
    -2
100
AcDbBlockReference
  2
2
 10
712.0313745191784
 20
135.5992084573975
 30
0.0
 41
1.8
 42
1.8
 43
1.8
 50
90.0
  0
INSERT
  5
1672
330
132D
100
AcDbEntity
  8
2寸法線
 62
     0
440
 16777216
370
    -2
100
AcDbBlockReference
  2
2
 10
712.0313745191784
 20
139.5992084573975
 30
0.0
 41
1.8
 42
1.8
 43
1.8
 50
270.0
  0
MTEXT
  5
1673
330
132D
100
AcDbEntity
  8
2寸法線
 62
     0
440
 16777216
100
AcDbMText
 10
707.5313745191784
 20
147.2847657607212
 30
0.0
 40
8.0
 41
0.0
 46
0.0
 71
     5
 72
     1
  1
\A1;4
 11
0.0000000000000001
 21
1.0
 31
0.0
 73
     1
 44
1.0
  0
POINT
  5
1674
330
132D
100
AcDbEntity
  8
DEFPOINTS
 62
     0
440
 16777216
100
AcDbPoint
 10
699.3676264234863
 20
139.5992084573975
 30
0.0
  0
POINT
  5
1675
330
132D
100
AcDbEntity
  8
DEFPOINTS
 62
     0
440
 16777216
100
AcDbPoint
 10
699.3676264234863
 20
135.5992084573975
 30
0.0
  0
POINT
  5
1676
330
132D
100
AcDbEntity
  8
DEFPOINTS
 62
     0
440
 16777216
100
AcDbPoint
 10
712.0313745191784
 20
135.5992084573975
 30
0.0
  0
ENDBLK
  5
132F
330
132D
100
AcDbEntity
  8
0
100
AcDbBlockEnd
  0
BLOCK
  5
1363
330
1362
100
AcDbEntity
  8
0
100
AcDbBlockBegin
  2
*D14
 70
     1
 10
0.0
 20
0.0
 30
0.0
  3
*D14
  1

  0
LINE
  5
1677
330
1362
100
AcDbEntity
  8
2寸法線
 62
     0
440
 16777216
370
    -2
100
AcDbLine
 10
739.4363797482488
 20
-188.3361669863909
 30
0.0
 11
748.5619577835464
 21
-188.3361669863909
 31
0.0
  0
LINE
  5
1678
330
1362
100
AcDbEntity
  8
2寸法線
 62
     0
440
 16777216
370
    -2
100
AcDbLine
 10
739.4363797482488
 20
-194.3361669863909
 30
0.0
 11
748.5619577835464
 21
-194.3361669863909
 31
0.0
  0
LINE
  5
1679
330
1362
100
AcDbEntity
  8
2寸法線
 62
     0
440
 16777216
370
    -2
100
AcDbLine
 10
747.5619577835463
 20
-192.5361669863909
 30
0.0
 11
747.5619577835463
 21
-190.1361669863909
 31
0.0
  0
LINE
  5
167A
330
1362
100
AcDbEntity
  8
2寸法線
 62
     0
440
 16777216
370
    -2
100
AcDbLine
 10
747.5619577835463
 20
-188.3361669863909
 30
0.0
 11
747.5619577835463
 21
-175.9812530847188
 31
0.0
  0
INSERT
  5
167B
330
1362
100
AcDbEntity
  8
2寸法線
 62
     0
440
 16777216
370
    -2
100
AcDbBlockReference
  2
2
 10
747.5619577835463
 20
-194.3361669863909
 30
0.0
 41
1.8
 42
1.8
 43
1.8
 50
270.0
  0
INSERT
  5
167C
330
1362
100
AcDbEntity
  8
2寸法線
 62
     0
440
 16777216
370
    -2
100
AcDbBlockReference
  2
2
 10
747.5619577835463
 20
-188.3361669863909
 30
0.0
 41
1.8
 42
1.8
 43
1.8
 50
90.0
  0
MTEXT
  5
167D
330
1362
100
AcDbEntity
  8
2寸法線
 62
     0
440
 16777216
100
AcDbMText
 10
743.0619577835464
 20
-179.1479197513854
 30
0.0
 40
8.0
 41
0.0
 46
0.0
 71
     5
 72
     1
  1
\A1;6
 11
0.0000000000000001
 21
1.0
 31
0.0
 73
     1
 44
1.0
  0
POINT
  5
167E
330
1362
100
AcDbEntity
  8
DEFPOINTS
 62
     0
440
 16777216
100
AcDbPoint
 10
738.4363797482487
 20
-188.3361669863909
 30
0.0
  0
POINT
  5
167F
330
1362
100
AcDbEntity
  8
DEFPOINTS
 62
     0
440
 16777216
100
AcDbPoint
 10
738.4363797482487
 20
-194.3361669863909
 30
0.0
  0
POINT
  5
1680
330
1362
100
AcDbEntity
  8
DEFPOINTS
 62
     0
440
 16777216
100
AcDbPoint
 10
747.5619577835463
 20
-194.3361669863909
 30
0.0
  0
ENDBLK
  5
1364
330
1362
100
AcDbEntity
  8
0
100
AcDbBlockEnd
  0
BLOCK
  5
137F
330
137E
100
AcDbEntity
  8
0
100
AcDbBlockBegin
  2
*D15
 70
     1
 10
0.0
 20
0.0
 30
0.0
  3
*D15
  1

  0
LINE
  5
1681
330
137E
100
AcDbEntity
  8
2寸法線
 62
     0
440
 16777216
370
    -2
100
AcDbLine
 10
739.2197760962035
 20
-548.2873443606766
 30
0.0
 11
747.5253054955569
 21
-548.2873443606766
 31
0.0
  0
LINE
  5
1682
330
137E
100
AcDbEntity
  8
2寸法線
 62
     0
440
 16777216
370
    -2
100
AcDbLine
 10
739.2197760962035
 20
-554.2873443606765
 30
0.0
 11
747.5253054955569
 21
-554.2873443606765
 31
0.0
  0
LINE
  5
1683
330
137E
100
AcDbEntity
  8
2寸法線
 62
     0
440
 16777216
370
    -2
100
AcDbLine
 10
746.5253054955569
 20
-552.4873443606765
 30
0.0
 11
746.5253054955569
 21
-550.0873443606765
 31
0.0
  0
LINE
  5
1684
330
137E
100
AcDbEntity
  8
2寸法線
 62
     0
440
 16777216
370
    -2
100
AcDbLine
 10
746.5253054955569
 20
-548.2873443606766
 30
0.0
 11
746.5253054955569
 21
-527.4351591647504
 31
0.0
  0
INSERT
  5
1685
330
137E
100
AcDbEntity
  8
2寸法線
 62
     0
440
 16777216
370
    -2
100
AcDbBlockReference
  2
2
 10
746.5253054955569
 20
-554.2873443606765
 30
0.0
 41
1.8
 42
1.8
 43
1.8
 50
270.0
  0
INSERT
  5
1686
330
137E
100
AcDbEntity
  8
2寸法線
 62
     0
440
 16777216
370
    -2
100
AcDbBlockReference
  2
2
 10
746.5253054955569
 20
-548.2873443606766
 30
0.0
 41
1.8
 42
1.8
 43
1.8
 50
90.0
  0
MTEXT
  5
1687
330
137E
100
AcDbEntity
  8
2寸法線
 62
     0
440
 16777216
100
AcDbMText
 10
742.025305495557
 20
-530.601825831417
 30
0.0
 40
8.0
 41
0.0
 46
0.0
 71
     5
 72
     1
  1
\A1;6
 11
0.0000000000000001
 21
1.0
 31
0.0
 73
     1
 44
1.0
  0
POINT
  5
1688
330
137E
100
AcDbEntity
  8
DEFPOINTS
 62
     0
440
 16777216
100
AcDbPoint
 10
738.2197760962035
 20
-548.2873443606766
 30
0.0
  0
POINT
  5
1689
330
137E
100
AcDbEntity
  8
DEFPOINTS
 62
     0
440
 16777216
100
AcDbPoint
 10
738.2197760962035
 20
-554.2873443606765
 30
0.0
  0
POINT
  5
168A
330
137E
100
AcDbEntity
  8
DEFPOINTS
 62
     0
440
 16777216
100
AcDbPoint
 10
746.5253054955569
 20
-554.2873443606765
 30
0.0
  0
ENDBLK
  5
1380
330
137E
100
AcDbEntity
  8
0
100
AcDbBlockEnd
  0
BLOCK
  5
13E7
330
13E6
100
AcDbEntity
  8
0
100
AcDbBlockBegin
  2
*D16
 70
     1
 10
0.0
 20
0.0
 30
0.0
  3
*D16
  1

  0
LINE
  5
168B
330
13E6
100
AcDbEntity
  8
2寸法線
 62
     0
440
 16777216
370
    -2
100
AcDbLine
 10
710.7197760961951
 20
-548.2873443606766
 30
0.0
 11
724.8465703779952
 21
-548.2873443606766
 31
0.0
  0
LINE
  5
168C
330
13E6
100
AcDbEntity
  8
2寸法線
 62
     0
440
 16777216
370
    -2
100
AcDbLine
 10
710.7197760961951
 20
-554.2873443606766
 30
0.0
 11
724.8465703779952
 21
-554.2873443606766
 31
0.0
  0
LINE
  5
168D
330
13E6
100
AcDbEntity
  8
2寸法線
 62
     0
440
 16777216
370
    -2
100
AcDbLine
 10
723.8465703779952
 20
-552.4873443606767
 30
0.0
 11
723.8465703779952
 21
-550.0873443606766
 31
0.0
  0
LINE
  5
168E
330
13E6
100
AcDbEntity
  8
2寸法線
 62
     0
440
 16777216
370
    -2
100
AcDbLine
 10
723.8465703779952
 20
-548.2873443606766
 30
0.0
 11
723.8465703779952
 21
-530.8395620430086
 31
0.0
  0
INSERT
  5
168F
330
13E6
100
AcDbEntity
  8
2寸法線
 62
     0
440
 16777216
370
    -2
100
AcDbBlockReference
  2
2
 10
723.8465703779952
 20
-554.2873443606766
 30
0.0
 41
1.8
 42
1.8
 43
1.8
 50
270.0
  0
INSERT
  5
1690
330
13E6
100
AcDbEntity
  8
2寸法線
 62
     0
440
 16777216
370
    -2
100
AcDbBlockReference
  2
2
 10
723.8465703779952
 20
-548.2873443606766
 30
0.0
 41
1.8
 42
1.8
 43
1.8
 50
90.0
  0
MTEXT
  5
1691
330
13E6
100
AcDbEntity
  8
2寸法線
 62
     0
440
 16777216
100
AcDbMText
 10
719.3465703779954
 20
-534.0062287096753
 30
0.0
 40
8.0
 41
0.0
 46
0.0
 71
     5
 72
     1
  1
\A1;6
 11
0.0000000000000001
 21
1.0
 31
0.0
 73
     1
 44
1.0
  0
POINT
  5
1692
330
13E6
100
AcDbEntity
  8
DEFPOINTS
 62
     0
440
 16777216
100
AcDbPoint
 10
709.7197760961951
 20
-548.2873443606766
 30
0.0
  0
POINT
  5
1693
330
13E6
100
AcDbEntity
  8
DEFPOINTS
 62
     0
440
 16777216
100
AcDbPoint
 10
709.7197760961951
 20
-554.2873443606766
 30
0.0
  0
POINT
  5
1694
330
13E6
100
AcDbEntity
  8
DEFPOINTS
 62
     0
440
 16777216
100
AcDbPoint
 10
723.8465703779952
 20
-554.2873443606766
 30
0.0
  0
ENDBLK
  5
13E8
330
13E6
100
AcDbEntity
  8
0
100
AcDbBlockEnd
  0
BLOCK
  5
1916
330
1915
100
AcDbEntity
  8
0
 48
3.0
100
AcDbBlockBegin
  2
INABAロゴ
 70
     0
 10
0.0
 20
0.0
 30
0.0
  3
INABAロゴ
  1

  0
LINE
  5
1917
330
1915
100
AcDbEntity
  8
C4
100
AcDbLine
 10
0.0000007494031777
 20
-0.0000005923924462
 30
0.0
 11
2.000000749403177
 21
-0.0000005923924462
 31
0.0
  0
LINE
  5
1918
330
1915
100
AcDbEntity
  8
C4
100
AcDbLine
 10
0.0000007494032914
 20
5.999999407607553
 30
0.0
 11
2.000000749403177
 21
5.999999407607553
 31
0.0
  0
LINE
  5
1919
330
1915
100
AcDbEntity
  8
C4
100
AcDbLine
 10
2.000000749403177
 20
5.999999407607553
 30
0.0
 11
2.000000749403177
 21
-0.0000005923924462
 31
0.0
  0
LINE
  5
191A
330
1915
100
AcDbEntity
  8
C4
100
AcDbLine
 10
0.0000007494032346
 20
5.999999407607553
 30
0.0
 11
0.0000007494031209
 21
-0.0000005923924462
 31
0.0
  0
LINE
  5
191B
330
1915
100
AcDbEntity
  8
C4
100
AcDbLine
 10
3.000000749403177
 20
5.999999407607553
 30
0.0
 11
3.00000074940312
 21
-0.0000005923924462
 31
0.0
  0
LINE
  5
191C
330
1915
100
AcDbEntity
  8
C4
100
AcDbLine
 10
5.000000749403177
 20
2.999999407607639
 30
0.0
 11
5.00000074940312
 21
-0.0000005923924462
 31
0.0
  0
LINE
  5
191D
330
1915
100
AcDbEntity
  8
C4
100
AcDbLine
 10
9.000000749403234
 20
5.999999407607553
 30
0.0
 11
9.000000749403177
 21
-0.0000005923924462
 31
0.0
  0
LINE
  5
191E
330
1915
100
AcDbEntity
  8
C4
100
AcDbLine
 10
7.000000749403234
 20
5.99999940760761
 30
0.0
 11
7.000000749403177
 21
2.999999407607496
 31
0.0
  0
LINE
  5
191F
330
1915
100
AcDbEntity
  8
C4
100
AcDbLine
 10
5.000000749403177
 20
2.999999407607639
 30
0.0
 11
7.000000749403177
 21
-0.0000005923924462
 31
0.0
  0
LINE
  5
1920
330
1915
100
AcDbEntity
  8
C4
100
AcDbLine
 10
5.000000749403177
 20
5.999999407607553
 30
0.0
 11
7.000000749403177
 21
2.999999407607496
 31
0.0
  0
LINE
  5
1921
330
1915
100
AcDbEntity
  8
C4
100
AcDbLine
 10
9.500000749403177
 20
-0.0000005923924462
 30
0.0
 11
11.00000074940318
 21
5.999999407607553
 31
0.0
  0
LINE
  5
1922
330
1915
100
AcDbEntity
  8
C4
100
AcDbLine
 10
11.50000074940318
 20
-0.0000005923924462
 30
0.0
 11
12.50000074940318
 21
3.99999940760744
 31
0.0
  0
LINE
  5
1923
330
1915
100
AcDbEntity
  8
C4
100
AcDbLine
 10
15.50000074940317
 20
-0.0000005923924462
 30
0.0
 11
14.00000074940318
 21
5.999999407607553
 31
0.0
  0
LINE
  5
1924
330
1915
100
AcDbEntity
  8
C4
100
AcDbLine
 10
11.87500074940317
 20
1.499999407607553
 30
0.0
 11
13.12500074940318
 21
1.499999407607525
 31
0.0
  0
LINE
  5
1925
330
1915
100
AcDbEntity
  8
C4
100
AcDbLine
 10
13.12500074940318
 20
1.499999407607525
 30
0.0
 11
12.50000074940318
 21
3.99999940760744
 31
0.0
  0
LINE
  5
1926
330
1915
100
AcDbEntity
  8
C4
100
AcDbLine
 10
11.87500074940317
 20
1.499999407607553
 30
0.0
 11
12.37500074940317
 21
-0.0000005923924462
 31
0.0
  0
LINE
  5
1927
330
1915
100
AcDbEntity
  8
C4
100
AcDbLine
 10
16.00000074940318
 20
-0.0000005923924462
 30
0.0
 11
16.00000074940318
 21
5.999999407607553
 31
0.0
  0
LINE
  5
1928
330
1915
100
AcDbEntity
  8
C4
100
AcDbLine
 10
18.00000074940312
 20
1.399999407607559
 30
0.0
 11
18.00000074940317
 21
2.249999407607553
 31
0.0
  0
LINE
  5
1929
330
1915
100
AcDbEntity
  8
C4
100
AcDbLine
 10
18.00000074940317
 20
3.749999407607553
 30
0.0
 11
19.77500074940321
 21
3.749999407607553
 31
0.0
  0
LINE
  5
192A
330
1915
100
AcDbEntity
  8
C4
100
AcDbLine
 10
18.00000074940323
 20
2.249999407607553
 30
0.0
 11
19.77500074940321
 21
2.249999407607553
 31
0.0
  0
LINE
  5
192B
330
1915
100
AcDbEntity
  8
C4
100
AcDbLine
 10
18.00000074940317
 20
4.599999407607548
 30
0.0
 11
19.77500074940321
 21
4.599999407607548
 31
0.0
  0
LINE
  5
192C
330
1915
100
AcDbEntity
  8
C4
100
AcDbLine
 10
18.00000074940312
 20
1.399999407607559
 30
0.0
 11
19.77500074940321
 21
1.399999407607559
 31
0.0
  0
ARC
  5
192D
330
1915
100
AcDbEntity
  8
C4
100
AcDbCircle
 10
19.77500074940321
 20
4.174999407607565
 30
0.0
 40
0.425
100
AcDbArc
 50
270.0
 51
90.0
  0
ARC
  5
192E
330
1915
100
AcDbEntity
  8
C4
100
AcDbCircle
 10
20.71810822603869
 20
4.239368566486085
 30
0.0
 40
1.783054781389808
100
AcDbArc
 50
315.9662536629796
 51
80.9036439828637
  0
ARC
  5
192F
330
1915
100
AcDbEntity
  8
C4
100
AcDbCircle
 10
19.77500074940321
 20
1.82499940760757
 30
0.0
 40
0.425
100
AcDbArc
 50
270.0
 51
90.0
  0
ARC
  5
1930
330
1915
100
AcDbEntity
  8
C4
100
AcDbCircle
 10
20.71810822603869
 20
1.760630248729079
 30
0.0
 40
1.783054781389769
100
AcDbArc
 50
279.096356017136
 51
44.03374633701921
  0
LINE
  5
1931
330
1915
100
AcDbEntity
  8
C4
100
AcDbLine
 10
22.50000074940318
 20
-0.0000005923924462
 30
0.0
 11
24.00000074940318
 21
5.999999407607553
 31
0.0
  0
LINE
  5
1932
330
1915
100
AcDbEntity
  8
C4
100
AcDbLine
 10
24.50000074940318
 20
-0.0000005923924462
 30
0.0
 11
25.50000074940318
 21
3.99999940760744
 31
0.0
  0
LINE
  5
1933
330
1915
100
AcDbEntity
  8
C4
100
AcDbLine
 10
28.50000074940318
 20
-0.0000005923924462
 30
0.0
 11
27.00000074940318
 21
5.999999407607553
 31
0.0
  0
LINE
  5
1934
330
1915
100
AcDbEntity
  8
C4
100
AcDbLine
 10
24.87500074940318
 20
1.499999407607553
 30
0.0
 11
26.12500074940318
 21
1.499999407607525
 31
0.0
  0
LINE
  5
1935
330
1915
100
AcDbEntity
  8
C4
100
AcDbLine
 10
26.12500074940318
 20
1.499999407607525
 30
0.0
 11
25.50000074940318
 21
3.99999940760744
 31
0.0
  0
LINE
  5
1936
330
1915
100
AcDbEntity
  8
C4
100
AcDbLine
 10
24.87500074940318
 20
1.499999407607553
 30
0.0
 11
25.37500074940318
 21
-0.0000005923924462
 31
0.0
  0
LINE
  5
1937
330
1915
100
AcDbEntity
  8
C4
100
AcDbLine
 10
18.00000074940317
 20
3.749999407607582
 30
0.0
 11
18.00000074940317
 21
4.599999407607548
 31
0.0
  0
LINE
  5
1938
330
1915
100
AcDbEntity
  8
C4
100
AcDbLine
 10
3.00000074940312
 20
-0.0000005923924462
 30
0.0
 11
5.000000749403177
 21
-0.0000005923924462
 31
0.0
  0
LINE
  5
1939
330
1915
100
AcDbEntity
  8
C4
100
AcDbLine
 10
3.000000749403177
 20
5.999999407607553
 30
0.0
 11
5.000000749403177
 21
5.999999407607553
 31
0.0
  0
LINE
  5
193A
330
1915
100
AcDbEntity
  8
C4
100
AcDbLine
 10
7.000000749403177
 20
5.999999407607582
 30
0.0
 11
9.000000749403291
 21
5.999999407607525
 31
0.0
  0
LINE
  5
193B
330
1915
100
AcDbEntity
  8
C4
100
AcDbLine
 10
7.000000749403177
 20
-0.0000005923924462
 30
0.0
 11
9.000000749403291
 21
-0.0000005923924462
 31
0.0
  0
LINE
  5
193C
330
1915
100
AcDbEntity
  8
C4
100
AcDbLine
 10
9.500000749403234
 20
-0.0000005923924462
 30
0.0
 11
11.50000074940318
 21
-0.0000005923924462
 31
0.0
  0
LINE
  5
193D
330
1915
100
AcDbEntity
  8
C4
100
AcDbLine
 10
11.00000074940318
 20
5.999999407607525
 30
0.0
 11
14.00000074940312
 21
5.999999407607525
 31
0.0
  0
LINE
  5
193E
330
1915
100
AcDbEntity
  8
C4
100
AcDbLine
 10
12.37500074940306
 20
-0.0000005923924462
 30
0.0
 11
15.50000074940323
 21
-0.0000005923924746
 31
0.0
  0
LINE
  5
193F
330
1915
100
AcDbEntity
  8
C4
100
AcDbLine
 10
16.00000074940318
 20
-0.0000005923924746
 30
0.0
 11
21.00000074940301
 21
-0.0000005923924178
 31
0.0
  0
LINE
  5
1940
330
1915
100
AcDbEntity
  8
C4
100
AcDbLine
 10
16.00000074940318
 20
5.999999407607553
 30
0.0
 11
21.00000074940352
 21
5.999999407607553
 31
0.0
  0
LINE
  5
1941
330
1915
100
AcDbEntity
  8
C4
100
AcDbLine
 10
24.00000074940318
 20
5.999999407607553
 30
0.0
 11
27.00000074940312
 21
5.999999407607553
 31
0.0
  0
LINE
  5
1942
330
1915
100
AcDbEntity
  8
C4
100
AcDbLine
 10
22.50000074940329
 20
-0.0000005923923894
 30
0.0
 11
24.50000074940312
 21
-0.0000005923924746
 31
0.0
  0
LINE
  5
1943
330
1915
100
AcDbEntity
  8
C4
100
AcDbLine
 10
25.37500074940318
 20
-0.0000005923924178
 30
0.0
 11
28.50000074940312
 21
-0.0000005923924178
 31
0.0
  0
ENDBLK
  5
1944
330
1915
100
AcDbEntity
  8
0
 48
3.0
100
AcDbBlockEnd
  0
BLOCK
  5
1A79
330
1A78
100
AcDbEntity
  8
0
100
AcDbBlockBegin
  2
*D18
 70
     1
 10
0.0
 20
0.0
 30
0.0
  3
*D18
  1

  0
LINE
  5
1B06
330
1A78
100
AcDbEntity
  8
2寸法線
 62
     0
440
 16777216
370
    -2
100
AcDbLine
 10
157.9979601205505
 20
185.4124508777575
 30
0.0
 11
83.61985022643276
 21
185.4124508777575
 31
0.0
  0
LINE
  5
1B07
330
1A78
100
AcDbEntity
  8
2寸法線
 62
     0
440
 16777216
370
    -2
100
AcDbLine
 10
119.1976249988548
 20
94.41245087775758
 30
0.0
 11
83.61985022643272
 21
94.4124508777576
 31
0.0
  0
LINE
  5
1B08
330
1A78
100
AcDbEntity
  8
2寸法線
 62
     0
440
 16777216
370
    -2
100
AcDbLine
 10
84.61985022643276
 20
183.6124508777575
 30
0.0
 11
84.61985022643274
 21
96.2124508777576
 31
0.0
  0
INSERT
  5
1B09
330
1A78
100
AcDbEntity
  8
2寸法線
 62
     0
440
 16777216
370
    -2
100
AcDbBlockReference
  2
2
 10
84.61985022643276
 20
185.4124508777575
 30
0.0
 41
1.8
 42
1.8
 43
1.8
 50
90.0
  0
INSERT
  5
1B0A
330
1A78
100
AcDbEntity
  8
2寸法線
 62
     0
440
 16777216
370
    -2
100
AcDbBlockReference
  2
2
 10
84.61985022643274
 20
94.4124508777576
 30
0.0
 41
1.8
 42
1.8
 43
1.8
 50
270.0
  0
MTEXT
  5
1B0B
330
1A78
100
AcDbEntity
  8
2寸法線
 62
     0
440
 16777216
100
AcDbMText
 10
80.11985022643273
 20
139.9124508777576
 30
0.0
 40
8.0
 41
0.0
 46
0.0
 71
     5
 72
     1
  1
\A1;91
 11
0.0000000000000001
 21
1.0
 31
0.0
 73
     1
 44
1.0
  0
POINT
  5
1B0C
330
1A78
100
AcDbEntity
  8
DEFPOINTS
 62
     0
440
 16777216
100
AcDbPoint
 10
158.9979601205505
 20
185.4124508777575
 30
0.0
  0
POINT
  5
1B0D
330
1A78
100
AcDbEntity
  8
DEFPOINTS
 62
     0
440
 16777216
100
AcDbPoint
 10
120.1976249988548
 20
94.41245087775758
 30
0.0
  0
POINT
  5
1B0E
330
1A78
100
AcDbEntity
  8
DEFPOINTS
 62
     0
440
 16777216
100
AcDbPoint
 10
84.61985022643274
 20
94.4124508777576
 30
0.0
  0
ENDBLK
  5
1A7A
330
1A78
100
AcDbEntity
  8
0
100
AcDbBlockEnd
  0
BLOCK
  5
1A85
330
1A84
100
AcDbEntity
  8
0
100
AcDbBlockBegin
  2
*D19
 70
     1
 10
0.0
 20
0.0
 30
0.0
  3
*D19
  1

  0
LINE
  5
1B0F
330
1A84
100
AcDbEntity
  8
2寸法線
 62
     0
440
 16777216
370
    -2
100
AcDbLine
 10
159.9979601205508
 20
248.4124508777576
 30
0.0
 11
244.2601521996798
 21
248.4124508777575
 31
0.0
  0
LINE
  5
1B10
330
1A84
100
AcDbEntity
  8
2寸法線
 62
     0
440
 16777216
370
    -2
100
AcDbLine
 10
198.7982952422479
 20
94.41245087775758
 30
0.0
 11
244.2601521996798
 21
94.41245087775756
 31
0.0
  0
LINE
  5
1B11
330
1A84
100
AcDbEntity
  8
2寸法線
 62
     0
440
 16777216
370
    -2
100
AcDbLine
 10
243.2601521996798
 20
246.6124508777575
 30
0.0
 11
243.2601521996797
 21
96.21245087775756
 31
0.0
  0
INSERT
  5
1B12
330
1A84
100
AcDbEntity
  8
2寸法線
 62
     0
440
 16777216
370
    -2
100
AcDbBlockReference
  2
2
 10
243.2601521996798
 20
248.4124508777575
 30
0.0
 41
1.8
 42
1.8
 43
1.8
 50
90.0
  0
INSERT
  5
1B13
330
1A84
100
AcDbEntity
  8
2寸法線
 62
     0
440
 16777216
370
    -2
100
AcDbBlockReference
  2
2
 10
243.2601521996797
 20
94.41245087775756
 30
0.0
 41
1.8
 42
1.8
 43
1.8
 50
270.0
  0
MTEXT
  5
1B14
330
1A84
100
AcDbEntity
  8
2寸法線
 62
     0
440
 16777216
100
AcDbMText
 10
238.7601521996797
 20
171.4124508777575
 30
0.0
 40
8.0
 41
0.0
 46
0.0
 71
     5
 72
     1
  1
\A1;154
 11
0.0000000000000001
 21
1.0
 31
0.0
 73
     1
 44
1.0
  0
POINT
  5
1B15
330
1A84
100
AcDbEntity
  8
DEFPOINTS
 62
     0
440
 16777216
100
AcDbPoint
 10
158.9979601205508
 20
248.4124508777576
 30
0.0
  0
POINT
  5
1B16
330
1A84
100
AcDbEntity
  8
DEFPOINTS
 62
     0
440
 16777216
100
AcDbPoint
 10
197.7982952422479
 20
94.41245087775758
 30
0.0
  0
POINT
  5
1B17
330
1A84
100
AcDbEntity
  8
DEFPOINTS
 62
     0
440
 16777216
100
AcDbPoint
 10
243.2601521996797
 20
94.41245087775756
 30
0.0
  0
ENDBLK
  5
1A86
330
1A84
100
AcDbEntity
  8
0
100
AcDbBlockEnd
  0
BLOCK
  5
1A91
330
1A90
100
AcDbEntity
  8
0
100
AcDbBlockBegin
  2
*D20
 70
     1
 10
0.0
 20
0.0
 30
0.0
  3
*D20
  1

  0
LINE
  5
1B18
330
1A90
100
AcDbEntity
  8
2寸法線
 62
     0
440
 16777216
370
    -2
100
AcDbLine
 10
199.798295242246
 20
185.4124508777575
 30
0.0
 11
212.4620433379381
 21
185.4124508777575
 31
0.0
  0
LINE
  5
1B19
330
1A90
100
AcDbEntity
  8
2寸法線
 62
     0
440
 16777216
370
    -2
100
AcDbLine
 10
199.798295242246
 20
181.4124508777575
 30
0.0
 11
212.4620433379381
 21
181.4124508777575
 31
0.0
  0
LINE
  5
1B1A
330
1A90
100
AcDbEntity
  8
2寸法線
 62
     0
440
 16777216
370
    -2
100
AcDbLine
 10
211.4620433379381
 20
179.6124508777575
 30
0.0
 11
211.4620433379381
 21
177.8124508777575
 31
0.0
  0
LINE
  5
1B1B
330
1A90
100
AcDbEntity
  8
2寸法線
 62
     0
440
 16777216
370
    -2
100
AcDbLine
 10
211.4620433379381
 20
187.2124508777575
 30
0.0
 11
211.4620433379382
 21
196.2646748477479
 31
0.0
  0
LINE
  5
1B1C
330
1A90
100
AcDbEntity
  8
2寸法線
 62
     0
440
 16777216
370
    -2
100
AcDbLine
 10
211.4620433379381
 20
181.4124508777575
 30
0.0
 11
211.4620433379381
 21
185.4124508777575
 31
0.0
  0
INSERT
  5
1B1D
330
1A90
100
AcDbEntity
  8
2寸法線
 62
     0
440
 16777216
370
    -2
100
AcDbBlockReference
  2
2
 10
211.4620433379381
 20
181.4124508777575
 30
0.0
 41
1.8
 42
1.8
 43
1.8
 50
90.0
  0
INSERT
  5
1B1E
330
1A90
100
AcDbEntity
  8
2寸法線
 62
     0
440
 16777216
370
    -2
100
AcDbBlockReference
  2
2
 10
211.4620433379381
 20
185.4124508777575
 30
0.0
 41
1.8
 42
1.8
 43
1.8
 50
270.0
  0
MTEXT
  5
1B1F
330
1A90
100
AcDbEntity
  8
2寸法線
 62
     0
440
 16777216
100
AcDbMText
 10
206.9620433379381
 20
193.0980081810813
 30
0.0
 40
8.0
 41
0.0
 46
0.0
 71
     5
 72
     1
  1
\A1;4
 11
0.0000000000000001
 21
1.0
 31
0.0
 73
     1
 44
1.0
  0
POINT
  5
1B20
330
1A90
100
AcDbEntity
  8
DEFPOINTS
 62
     0
440
 16777216
100
AcDbPoint
 10
198.798295242246
 20
185.4124508777575
 30
0.0
  0
POINT
  5
1B21
330
1A90
100
AcDbEntity
  8
DEFPOINTS
 62
     0
440
 16777216
100
AcDbPoint
 10
198.798295242246
 20
181.4124508777575
 30
0.0
  0
POINT
  5
1B22
330
1A90
100
AcDbEntity
  8
DEFPOINTS
 62
     0
440
 16777216
100
AcDbPoint
 10
211.4620433379381
 20
181.4124508777575
 30
0.0
  0
ENDBLK
  5
1A92
330
1A90
100
AcDbEntity
  8
0
100
AcDbBlockEnd
  0
BLOCK
  5
1ACA
330
1AC9
100
AcDbEntity
  8
0
100
AcDbBlockBegin
  2
*D21
 70
     1
 10
0.0
 20
0.0
 30
0.0
  3
*D21
  1

  0
LINE
  5
1B8A
330
1AC9
100
AcDbEntity
  8
2寸法線
 62
     0
440
 16777216
370
    -2
100
AcDbLine
 10
1049.314504462143
 20
-548.2873445992472
 30
0.0
 11
968.2662867464209
 21
-548.2873445992472
 31
0.0
  0
LINE
  5
1B8B
330
1AC9
100
AcDbEntity
  8
2寸法線
 62
     0
440
 16777216
370
    -2
100
AcDbLine
 10
1050.314504462143
 20
-646.0873445992473
 30
0.0
 11
968.2662867464209
 21
-646.0873445992473
 31
0.0
  0
LINE
  5
1B8C
330
1AC9
100
AcDbEntity
  8
2寸法線
 62
     0
440
 16777216
370
    -2
100
AcDbLine
 10
969.2662867464209
 20
-550.0873445992472
 30
0.0
 11
969.2662867464209
 21
-644.2873445992473
 31
0.0
  0
INSERT
  5
1B8D
330
1AC9
100
AcDbEntity
  8
2寸法線
 62
     0
440
 16777216
370
    -2
100
AcDbBlockReference
  2
2
 10
969.2662867464209
 20
-548.2873445992472
 30
0.0
 41
1.8
 42
1.8
 43
1.8
 50
90.0
  0
INSERT
  5
1B8E
330
1AC9
100
AcDbEntity
  8
2寸法線
 62
     0
440
 16777216
370
    -2
100
AcDbBlockReference
  2
2
 10
969.2662867464209
 20
-646.0873445992473
 30
0.0
 41
1.8
 42
1.8
 43
1.8
 50
270.0
  0
MTEXT
  5
1B8F
330
1AC9
100
AcDbEntity
  8
2寸法線
 62
     0
440
 16777216
100
AcDbMText
 10
964.7662867464209
 20
-599.4111290514784
 30
0.0
 40
8.0
 41
0.0
 46
0.0
 71
     5
 72
     1
  1
\A1;97.8
 11
0.0000000000000001
 21
1.0
 31
0.0
 73
     1
 44
1.0
  0
POINT
  5
1B90
330
1AC9
100
AcDbEntity
  8
DEFPOINTS
 62
     0
440
 16777216
100
AcDbPoint
 10
1050.314504462143
 20
-548.2873445992472
 30
0.0
  0
POINT
  5
1B91
330
1AC9
100
AcDbEntity
  8
DEFPOINTS
 62
     0
440
 16777216
100
AcDbPoint
 10
1051.314504462143
 20
-646.0873445992473
 30
0.0
  0
POINT
  5
1B92
330
1AC9
100
AcDbEntity
  8
DEFPOINTS
 62
     0
440
 16777216
100
AcDbPoint
 10
969.2662867464209
 20
-646.0873445992473
 30
0.0
  0
ENDBLK
  5
1ACB
330
1AC9
100
AcDbEntity
  8
0
100
AcDbBlockEnd
  0
BLOCK
  5
1B76
330
1B75
100
AcDbEntity
  8
0
100
AcDbBlockBegin
  2
*D22
 70
     1
 10
0.0
 20
0.0
 30
0.0
  3
*D22
  1

  0
LINE
  5
1B81
330
1B75
100
AcDbEntity
  8
2寸法線
 62
     0
440
 16777216
370
    -2
100
AcDbLine
 10
666.0197760962034
 20
-548.2873443606766
 30
0.0
 11
583.9715583804808
 21
-548.2873443606766
 31
0.0
  0
LINE
  5
1B82
330
1B75
100
AcDbEntity
  8
2寸法線
 62
     0
440
 16777216
370
    -2
100
AcDbLine
 10
666.0197760962034
 20
-652.0873443606767
 30
0.0
 11
583.9715583804808
 21
-652.0873443606767
 31
0.0
  0
LINE
  5
1B83
330
1B75
100
AcDbEntity
  8
2寸法線
 62
     0
440
 16777216
370
    -2
100
AcDbLine
 10
584.9715583804807
 20
-550.0873443606765
 30
0.0
 11
584.9715583804807
 21
-650.2873443606768
 31
0.0
  0
INSERT
  5
1B84
330
1B75
100
AcDbEntity
  8
2寸法線
 62
     0
440
 16777216
370
    -2
100
AcDbBlockReference
  2
2
 10
584.9715583804807
 20
-548.2873443606766
 30
0.0
 41
1.8
 42
1.8
 43
1.8
 50
90.0
  0
INSERT
  5
1B85
330
1B75
100
AcDbEntity
  8
2寸法線
 62
     0
440
 16777216
370
    -2
100
AcDbBlockReference
  2
2
 10
584.9715583804807
 20
-652.0873443606767
 30
0.0
 41
1.8
 42
1.8
 43
1.8
 50
270.0
  0
MTEXT
  5
1B86
330
1B75
100
AcDbEntity
  8
2寸法線
 62
     0
440
 16777216
100
AcDbMText
 10
580.4715583804809
 20
-605.4111288129079
 30
0.0
 40
8.0
 41
0.0
 46
0.0
 71
     5
 72
     1
  1
\A1;103.8
 11
0.0000000000000001
 21
1.0
 31
0.0
 73
     1
 44
1.0
  0
POINT
  5
1B87
330
1B75
100
AcDbEntity
  8
DEFPOINTS
 62
     0
440
 16777216
100
AcDbPoint
 10
667.0197760962034
 20
-548.2873443606766
 30
0.0
  0
POINT
  5
1B88
330
1B75
100
AcDbEntity
  8
DEFPOINTS
 62
     0
440
 16777216
100
AcDbPoint
 10
667.0197760962034
 20
-652.0873443606767
 30
0.0
  0
POINT
  5
1B89
330
1B75
100
AcDbEntity
  8
DEFPOINTS
 62
     0
440
 16777216
100
AcDbPoint
 10
584.9715583804807
 20
-652.0873443606767
 30
0.0
  0
ENDBLK
  5
1B77
330
1B75
100
AcDbEntity
  8
0
100
AcDbBlockEnd
  0
ENDSEC
  0
SECTION
  2
ENTITIES
  0
LINE
  5
2063
330
2E0
100
AcDbEntity
  8
1外形線
 48
3.0
100
AcDbLine
 10
-258.4296064799255
 20
-703.0744911485551
 30
0.0
 11
509.6371860157232
 21
-703.0744911485551
 31
0.0
  0
LINE
  5
2064
330
2E0
100
AcDbEntity
  8
1外形線
 48
3.0
100
AcDbLine
 10
-258.4296064799255
 20
-413.0744911485551
 30
0.0
 11
509.6371860157232
 21
-413.0744911485551
 31
0.0
  0
LINE
  5
2065
330
2E0
100
AcDbEntity
  8
1外形線
 48
3.0
100
AcDbLine
 10
-258.4296064799255
 20
-158.8744911485553
 30
0.0
 11
509.6371860157232
 21
-158.8744911485553
 31
0.0
  0
LINE
  5
2066
330
2E0
100
AcDbEntity
  8
1外形線
 48
3.0
100
AcDbLine
 10
-258.4296064799255
 20
70.12550885144491
 30
0.0
 11
509.6371860157232
 21
70.12550885144491
 31
0.0
  0
LINE
  5
2067
330
2E0
100
AcDbEntity
  8
1外形線
 48
3.0
100
AcDbLine
 10
-258.4296064799255
 20
270.8255088514448
 30
0.0
 11
509.6371860157232
 21
270.8255088514448
 31
0.0
  0
LINE
  5
2068
330
2E0
100
AcDbEntity
  8
C4
100
AcDbLine
 10
76.11718601572329
 20
-480.6574063757318
 30
0.0
 11
-55.16281398427645
 21
-480.657406375732
 31
0.0
  0
LINE
  5
2069
330
2E0
100
AcDbEntity
  8
C4
100
AcDbLine
 10
45.33718601572331
 20
-464.9383800304455
 30
0.0
 11
-55.16281398427645
 21
-464.9383800304455
 31
0.0
  0
LINE
  5
206A
330
2E0
100
AcDbEntity
  8
C4
100
AcDbLine
 10
35.35890670564049
 20
-471.3150022625191
 30
0.0
 11
-55.16281398427645
 21
-471.3150022625191
 31
0.0
  0
LINE
  5
206B
330
2E0
100
AcDbEntity
  8
C4
100
AcDbLine
 10
-55.16281398427645
 20
-463.0733978910684
 30
0.0
 11
76.11718601572306
 21
-463.0733978910682
 31
0.0
  0
LINE
  5
206C
330
2E0
100
AcDbEntity
  8
C4
100
AcDbLine
 10
-104.8804278972832
 20
-652.3728803614544
 30
0.0
 11
39.1195721027168
 21
-652.3728803614544
 31
0.0
  0
LINE
  5
206D
330
2E0
100
AcDbEntity
  8
C4
100
AcDbLine
 10
-105.3804278972832
 20
-644.3728803614542
 30
0.0
 11
39.6195721027168
 21
-644.3728803614544
 31
0.0
  0
ARC
  5
206E
330
2E0
100
AcDbEntity
  8
C4
  6
ByBlock
 62
     3
 48
3.0
100
AcDbCircle
 10
2.302662236567357
 20
-316.0399673693987
 30
0.0
 40
2.0
100
AcDbArc
 50
314.9999999999908
 51
134.9999999999908
  0
ARC
  5
206F
330
2E0
100
AcDbEntity
  8
C4
  6
ByBlock
 62
     3
 48
3.0
100
AcDbCircle
 10
2.302662236567357
 20
-316.0399673693987
 30
0.0
 40
4.5
100
AcDbArc
 50
45.00000000000921
 51
134.9999999999908
  0
ARC
  5
2070
330
2E0
100
AcDbEntity
  8
C4
  6
ByBlock
 48
3.0
100
AcDbCircle
 10
25.6371860157235
 20
-339.3744911485546
 30
0.0
 40
41.47620560996003
100
AcDbArc
 50
90.0
 51
134.9999999999908
  0
LINE
  5
2071
330
2E0
100
AcDbEntity
  8
C4
  6
ByBlock
 48
3.0
100
AcDbLine
 10
37.63718601572282
 20
-226.8506967585147
 30
0.0
 11
-43.36281398427717
 21
-226.8506967585151
 31
0.0
  0
LINE
  5
2072
330
2E0
100
AcDbEntity
  8
C4
  6
ByBlock
 48
3.0
100
AcDbLine
 10
15.64519398464017
 20
-218.6428334536254
 30
0.0
 11
-43.36281398427717
 21
-218.6428334536258
 31
0.0
  0
LINE
  5
2073
330
2E0
100
AcDbEntity
  8
C4
  6
ByBlock
 48
3.0
100
AcDbLine
 10
15.63718601572282
 20
-211.9678040044944
 30
0.0
 11
-43.36281398427717
 21
-211.9678040044948
 31
0.0
  0
LINE
  5
2074
330
2E0
100
AcDbEntity
  8
C4
 62
     3
 48
5.0
100
AcDbLine
 10
-43.36281398427717
 20
-210.3744911485551
 30
0.0
 11
15.13718601572282
 21
-210.3744911485549
 31
0.0
  0
LINE
  5
2075
330
2E0
100
AcDbEntity
  8
C4
  6
ByBlock
 62
     3
 48
3.0
100
AcDbLine
 10
-0.8528682051730811
 20
-319.2483979583371
 30
0.0
 11
5.066272238104829
 21
-325.167538401615
 31
0.0
  0
ARC
  5
2076
330
2E0
100
AcDbEntity
  8
C4
 62
     3
 48
5.0
100
AcDbCircle
 10
25.6371860157235
 20
-339.3744911485546
 30
0.0
 40
25.0
100
AcDbArc
 50
134.9999999999908
 51
180.0
  0
LINE
  5
2077
330
2E0
100
AcDbEntity
  8
1外形線
 48
3.0
100
AcDbLine
 10
17.1371860157235
 20
3.950343706064131
 30
0.0
 11
-55.16281398427645
 21
3.950343706064131
 31
0.0
  0
LINE
  5
2078
330
2E0
100
AcDbEntity
  8
1外形線
 48
3.0
100
AcDbLine
 10
17.1371860157235
 20
12.9044281335365
 30
0.0
 11
-16.66281398427645
 21
12.9044281335365
 31
0.0
  0
LINE
  5
2079
330
2E0
100
AcDbEntity
  8
1外形線
 48
3.0
100
AcDbLine
 10
17.1371860157235
 20
18.8873560700996
 30
0.0
 11
-55.16281398427645
 21
18.8873560700996
 31
0.0
  0
LINE
  5
207A
330
2E0
100
AcDbEntity
  8
1外形線
 48
3.0
100
AcDbLine
 10
17.1371860157235
 20
-60.23633836720887
 30
0.0
 11
4.437186015723455
 21
-60.23633836720887
 31
0.0
  0
LINE
  5
207B
330
2E0
100
AcDbEntity
  8
1外形線
 48
3.0
100
AcDbLine
 10
17.1371860157235
 20
-54.253410430646
 30
0.0
 11
4.437186015723455
 21
-54.253410430646
 31
0.0
  0
LINE
  5
207C
330
2E0
100
AcDbEntity
  8
1外形線
 48
3.0
100
AcDbLine
 10
17.1371860157235
 20
-45.29932600317397
 30
0.0
 11
4.437186015723455
 21
-45.29932600317397
 31
0.0
  0
LINE
  5
207D
330
2E0
100
AcDbEntity
  8
C4
100
AcDbLine
 10
17.1371860157235
 20
-60.57449114855478
 30
0.0
 11
4.437186015723455
 21
-60.57449114855478
 31
0.0
  0
LINE
  5
207E
330
2E0
100
AcDbEntity
  8
C4
100
AcDbLine
 10
17.1371860157235
 20
19.22550885144494
 30
0.0
 11
-55.16281398427645
 21
19.22550885144494
 31
0.0
  0
LINE
  5
207F
330
2E0
100
AcDbEntity
  8
1外形線
 48
3.0
100
AcDbLine
 10
-258.4296064799255
 20
-703.0744911485551
 30
0.0
 11
-258.4296064799255
 21
270.8255088514448
 31
0.0
  0
ARC
  5
2080
330
2E0
100
AcDbEntity
  8
C4
 48
5.0
100
AcDbCircle
 10
-43.36281398427672
 20
-270.3744911485551
 30
0.0
 40
58.40668714406039
100
AcDbArc
 50
90.0
 51
134.9999999999908
  0
ARC
  5
2081
330
2E0
100
AcDbEntity
  8
C4
 62
     3
 48
5.0
100
AcDbCircle
 10
-43.36281398427672
 20
-270.3744911485551
 30
0.0
 40
60.0
100
AcDbArc
 50
90.0
 51
134.9999999999908
  0
ARC
  5
2082
330
2E0
100
AcDbEntity
  8
C4
 48
5.0
100
AcDbCircle
 10
-43.36281398427672
 20
-270.3744911485551
 30
0.0
 40
51.7316576949292
100
AcDbArc
 50
90.0
 51
134.9999999999908
  0
LINE
  5
2083
330
2E0
100
AcDbEntity
  8
C4
100
AcDbLine
 10
-103.297831844899
 20
-613.5733978910682
 30
0.0
 11
-103.297831844899
 21
-513.0733978910684
 31
0.0
  0
LINE
  5
2084
330
2E0
100
AcDbEntity
  8
C4
100
AcDbLine
 10
-96.92120961282558
 20
-603.5951185809854
 30
0.0
 11
-96.92120961282558
 21
-513.0733978910684
 31
0.0
  0
LINE
  5
2085
330
2E0
100
AcDbEntity
  8
C4
100
AcDbLine
 10
-87.59641941261952
 20
-644.3728803614544
 30
0.0
 11
-87.57880549961283
 21
-513.0733978910684
 31
0.0
  0
LINE
  5
2086
330
2E0
100
AcDbEntity
  8
C4
100
AcDbLine
 10
-105.1628139842764
 20
-513.0733978910684
 30
0.0
 11
-105.1804278972831
 21
-644.3728803614542
 31
0.0
  0
LINE
  5
2087
330
2E0
100
AcDbEntity
  8
C4
100
AcDbLine
 10
-96.93882352583228
 20
-644.3728803614542
 30
0.0
 11
-96.92120961282558
 21
-612.5516772011512
 31
0.0
  0
LINE
  5
2088
330
2E0
100
AcDbEntity
  8
C4
100
AcDbLine
 10
-103.3154457579057
 20
-644.3728803614542
 30
0.0
 11
-103.297831844899
 21
-613.5733978910682
 31
0.0
  0
ARC
  5
2089
330
2E0
100
AcDbEntity
  8
C4
100
AcDbCircle
 10
-104.8804278972832
 20
-651.3728803614545
 30
0.0
 40
1.0
100
AcDbArc
 50
180.0
 51
270.0
  0
LINE
  5
208A
330
2E0
100
AcDbEntity
  8
C4
100
AcDbLine
 10
-105.8804278972832
 20
-644.8728803614542
 30
0.0
 11
-105.8804278972832
 21
-651.3728803614545
 31
0.0
  0
ARC
  5
208B
330
2E0
100
AcDbEntity
  8
C4
100
AcDbCircle
 10
-105.3804278972832
 20
-644.8728803614542
 30
0.0
 40
0.5
100
AcDbArc
 50
90.0
 51
180.0
  0
ARC
  5
208C
330
2E0
100
AcDbEntity
  8
C4
100
AcDbCircle
 10
-97.36281398427582
 20
-608.0733978910682
 30
0.0
 40
4.5
100
AcDbArc
 50
270.0
 51
90.0
  0
LINE
  5
208D
330
2E0
100
AcDbEntity
  8
C4
100
AcDbLine
 10
-97.36281398427582
 20
-612.5733978910682
 30
0.0
 11
-103.297831844899
 21
-612.5733978910684
 31
0.0
  0
LINE
  5
208E
330
2E0
100
AcDbEntity
  8
C4
100
AcDbLine
 10
-97.36281398427582
 20
-603.5733978910682
 30
0.0
 11
-103.297831844899
 21
-603.5733978910682
 31
0.0
  0
CIRCLE
  5
208F
330
2E0
100
AcDbEntity
  8
C4
100
AcDbCircle
 10
-97.36281398427582
 20
-608.0733978910682
 30
0.0
 40
2.0
  0
TEXT
  5
2090
330
2E0
100
AcDbEntity
  8
1外形線
 48
3.0
100
AcDbText
 10
-216.7284666907428
 20
-433.0873133056375
 30
0.0
 40
10.0
  1
SK-140
  7
KANJI
100
AcDbText
  0
ARC
  5
2091
330
2E0
100
AcDbEntity
  8
C4
100
AcDbCircle
 10
-55.16281398427645
 20
-513.0733978910684
 30
0.0
 40
32.41599151533629
100
AcDbArc
 50
90.0
 51
134.9999999999908
  0
ARC
  5
2092
330
2E0
100
AcDbEntity
  8
C4
100
AcDbCircle
 10
-55.16281398427645
 20
-513.0733978910684
 30
0.0
 40
41.75839562854918
100
AcDbArc
 50
90.0
 51
134.9999999999908
  0
ARC
  5
2093
330
2E0
100
AcDbEntity
  8
C4
100
AcDbCircle
 10
-55.16281398427645
 20
-513.0733978910684
 30
0.0
 40
48.13501786062253
100
AcDbArc
 50
90.0
 51
134.9999999999908
  0
ARC
  5
2094
330
2E0
100
AcDbEntity
  8
C4
100
AcDbCircle
 10
-55.16281398427645
 20
-513.0733978910684
 30
0.0
 40
50.0
100
AcDbArc
 50
90.0
 51
134.9999999999908
  0
ARC
  5
2095
330
2E0
100
AcDbEntity
  8
C4
100
AcDbCircle
 10
-55.16281398427645
 20
-513.0733978910684
 30
0.0
 40
41.75839562854918
100
AcDbArc
 50
134.9999999999908
 51
180.0
  0
ARC
  5
2096
330
2E0
100
AcDbEntity
  8
C4
100
AcDbCircle
 10
-55.16281398427645
 20
-513.0733978910684
 30
0.0
 40
48.13501786062253
100
AcDbArc
 50
134.9999999999908
 51
180.0
  0
ARC
  5
2097
330
2E0
100
AcDbEntity
  8
C4
100
AcDbCircle
 10
-55.16281398427645
 20
-513.0733978910684
 30
0.0
 40
50.0
100
AcDbArc
 50
134.9999999999908
 51
180.0
  0
ARC
  5
2098
330
2E0
100
AcDbEntity
  8
C4
100
AcDbCircle
 10
-55.16281398427645
 20
-513.0733978910684
 30
0.0
 40
32.41599151533629
100
AcDbArc
 50
134.9999999999908
 51
180.0
  0
ARC
  5
2099
330
2E0
100
AcDbEntity
  8
C4
 48
5.0
100
AcDbCircle
 10
-43.36281398427672
 20
-270.3744911485551
 30
0.0
 40
43.52379439003995
100
AcDbArc
 50
90.0
 51
134.9999999999908
  0
LINE
  5
209A
330
2E0
100
AcDbEntity
  8
C4
 62
     3
 48
5.0
100
AcDbLine
 10
-103.3628139842765
 20
-360.3744911485546
 30
0.0
 11
-54.64583420868075
 21
-360.3744911485546
 31
0.0
  0
LINE
  5
209B
330
2E0
100
AcDbEntity
  8
C4
 62
     3
 48
5.0
100
AcDbLine
 10
-103.3628139842765
 20
-351.3744911485546
 30
0.0
 11
-54.64583420868075
 21
-351.3744911485546
 31
0.0
  0
LINE
  5
209C
330
2E0
100
AcDbEntity
  8
C4
 62
     3
 48
5.0
100
AcDbLine
 10
-103.3628139842765
 20
-270.3744911485546
 30
0.0
 11
-103.3628139842765
 21
-328.8744911485546
 31
0.0
  0
LINE
  5
209D
330
2E0
100
AcDbEntity
  8
C4
  6
ByBlock
 48
3.0
100
AcDbLine
 10
-101.7695011283367
 20
-329.3744911485546
 30
0.0
 11
-101.769501128337
 21
-270.3744911485546
 31
0.0
  0
LINE
  5
209E
330
2E0
100
AcDbEntity
  8
C4
  6
ByBlock
 48
3.0
100
AcDbLine
 10
-95.09447167920574
 20
-329.3824991174722
 30
0.0
 11
-95.09447167920574
 21
-270.3744911485546
 31
0.0
  0
LINE
  5
209F
330
2E0
100
AcDbEntity
  8
C4
  6
ByBlock
 48
3.0
100
AcDbLine
 10
-86.88660837431644
 20
-351.3744911485546
 30
0.0
 11
-86.88660837431644
 21
-270.3744911485546
 31
0.0
  0
LINE
  5
20A0
330
2E0
100
AcDbEntity
  8
C4
  6
ByBlock
 62
     3
 48
3.0
100
AcDbLine
 10
-103.3628139842765
 20
-328.8744911485546
 30
0.0
 11
-103.3628139842765
 21
-338.8744911485546
 31
0.0
  0
ARC
  5
20A1
330
2E0
100
AcDbEntity
  8
C4
  6
ByBlock
 62
     3
 48
3.0
100
AcDbCircle
 10
-95.3628139842765
 20
-333.8744911485546
 30
0.0
 40
4.5
100
AcDbArc
 50
270.0
 51
90.0
  0
LINE
  5
20A2
330
2E0
100
AcDbEntity
  8
C4
  6
ByBlock
 48
3.0
100
AcDbLine
 10
-95.09447167920574
 20
-351.3744911485546
 30
0.0
 11
-95.09447167920574
 21
-338.3664831796373
 31
0.0
  0
LINE
  5
20A3
330
2E0
100
AcDbEntity
  8
C4
  6
ByBlock
 48
3.0
100
AcDbLine
 10
-101.7695011283367
 20
-351.3744911485546
 30
0.0
 11
-101.7695011283367
 21
-338.3744911485546
 31
0.0
  0
LINE
  5
20A4
330
2E0
100
AcDbEntity
  8
C4
  6
ByBlock
 62
     3
 48
3.0
100
AcDbLine
 10
-103.3628139842765
 20
-351.3744911485546
 30
0.0
 11
-103.3628139842765
 21
-338.8744911485546
 31
0.0
  0
ARC
  5
20A5
330
2E0
100
AcDbEntity
  8
C4
  6
ByBlock
 62
     3
 48
3.0
100
AcDbCircle
 10
-103.3628139842765
 20
-352.3744911485546
 30
0.0
 40
1.0
100
AcDbArc
 50
90.0
 51
180.0
  0
ARC
  5
20A6
330
2E0
100
AcDbEntity
  8
C4
  6
ByBlock
 62
     3
 48
3.0
100
AcDbCircle
 10
-103.3628139842765
 20
-359.3744911485546
 30
0.0
 40
1.0
100
AcDbArc
 50
180.0
 51
270.0
  0
LINE
  5
20A7
330
2E0
100
AcDbEntity
  8
C4
  6
ByBlock
 62
     3
 48
3.0
100
AcDbLine
 10
-104.3628139842765
 20
-352.3744911485546
 30
0.0
 11
-104.3628139842765
 21
-359.3744911485546
 31
0.0
  0
LINE
  5
20A8
330
2E0
100
AcDbEntity
  8
C4
  6
ByBlock
 62
     3
 48
3.0
100
AcDbLine
 10
-95.3628139842765
 20
-338.3744911485546
 30
0.0
 11
-102.8628139842765
 21
-338.3744911485546
 31
0.0
  0
ARC
  5
20A9
330
2E0
100
AcDbEntity
  8
C4
  6
ByBlock
 62
     3
 48
3.0
100
AcDbCircle
 10
-102.8628139842765
 20
-338.8744911485546
 30
0.0
 40
0.5
100
AcDbArc
 50
90.0
 51
180.0
  0
POINT
  5
20AA
330
2E0
100
AcDbEntity
  8
SUNPOU
  6
ByBlock
 48
3.0
100
AcDbPoint
 10
-95.3628139842765
 20
-331.8744911485546
 30
0.0
  0
POINT
  5
20AB
330
2E0
100
AcDbEntity
  8
SUNPOU
  6
ByBlock
 48
3.0
100
AcDbPoint
 10
-95.3628139842765
 20
-335.8744911485546
 30
0.0
  0
CIRCLE
  5
20AC
330
2E0
100
AcDbEntity
  8
C4
  6
ByBlock
 62
     3
 48
3.0
100
AcDbCircle
 10
-95.3628139842765
 20
-333.8744911485546
 30
0.0
 40
2.0
  0
LINE
  5
20AD
330
2E0
100
AcDbEntity
  8
C4
  6
ByBlock
 62
     3
 48
3.0
100
AcDbLine
 10
-95.3628139842765
 20
-329.3744911485546
 30
0.0
 11
-102.8628139842765
 21
-329.3744911485546
 31
0.0
  0
ARC
  5
20AE
330
2E0
100
AcDbEntity
  8
C4
  6
ByBlock
 62
     3
 48
5.0
100
AcDbCircle
 10
-102.8628139842765
 20
-328.8744911485546
 30
0.0
 40
0.5
100
AcDbArc
 50
180.0
 51
270.0
  0
ARC
  5
20AF
330
2E0
100
AcDbEntity
  8
C4
 48
5.0
100
AcDbCircle
 10
-43.3628139842765
 20
-270.3744911485546
 30
0.0
 40
43.52379439003995
100
AcDbArc
 50
134.9999999999908
 51
180.0
  0
ARC
  5
20B0
330
2E0
100
AcDbEntity
  8
C4
 48
5.0
100
AcDbCircle
 10
-43.3628139842765
 20
-270.3744911485546
 30
0.0
 40
58.40668714406039
100
AcDbArc
 50
134.9999999999908
 51
180.0
  0
ARC
  5
20B1
330
2E0
100
AcDbEntity
  8
C4
 48
5.0
100
AcDbCircle
 10
-43.3628139842765
 20
-270.3744911485546
 30
0.0
 40
51.7316576949292
100
AcDbArc
 50
134.9999999999908
 51
180.0
  0
ARC
  5
20B2
330
2E0
100
AcDbEntity
  8
C4
 62
     3
 48
5.0
100
AcDbCircle
 10
-43.3628139842765
 20
-270.3744911485546
 30
0.0
 40
60.0
100
AcDbArc
 50
134.9999999999908
 51
180.0
  0
LINE
  5
20B3
330
2E0
100
AcDbEntity
  8
C4
 62
     3
 48
5.0
100
AcDbLine
 10
-56.14583420868076
 20
-351.3744911485546
 30
0.0
 11
0.6371860157232732
 21
-351.3744911485546
 31
0.0
  0
LINE
  5
20B4
330
2E0
100
AcDbEntity
  8
C4
 62
     3
 48
5.0
100
AcDbLine
 10
-56.14583420868076
 20
-360.3744911485546
 30
0.0
 11
0.6371860157232732
 21
-360.3744911485546
 31
0.0
  0
ARC
  5
20B5
330
2E0
100
AcDbEntity
  8
C4
  6
ByBlock
 48
3.0
100
AcDbCircle
 10
25.6371860157235
 20
-339.3744911485546
 30
0.0
 40
26.59331285593959
100
AcDbArc
 50
144.7422081129577
 51
180.0
  0
ARC
  5
20B6
330
2E0
100
AcDbEntity
  8
C4
  6
ByBlock
 48
3.0
100
AcDbCircle
 10
25.6371860157235
 20
-339.3744911485546
 30
0.0
 40
33.26834230507079
100
AcDbArc
 50
142.7738702643015
 51
180.0
  0
ARC
  5
20B7
330
2E0
100
AcDbEntity
  8
C4
  6
ByBlock
 48
3.0
100
AcDbCircle
 10
25.6371860157235
 20
-339.3744911485546
 30
0.0
 40
41.47620560996003
100
AcDbArc
 50
134.9999999999908
 51
180.0
  0
LINE
  5
20B8
330
2E0
100
AcDbEntity
  8
C4
  6
ByBlock
 48
3.0
100
AcDbLine
 10
-15.83901959423656
 20
-351.3744911485546
 30
0.0
 11
-15.83901959423656
 21
-339.3744911485546
 31
0.0
  0
LINE
  5
20B9
330
2E0
100
AcDbEntity
  8
C4
 62
     3
 48
5.0
100
AcDbLine
 10
0.6371860157232732
 20
-351.3744911485546
 30
0.0
 11
0.6371860157232732
 21
-339.3744911485546
 31
0.0
  0
LINE
  5
20BA
330
2E0
100
AcDbEntity
  8
C4
  6
ByBlock
 48
3.0
100
AcDbLine
 10
-0.9561268402162568
 20
-351.3744911485546
 30
0.0
 11
-0.9561268402160294
 21
-339.3744911485546
 31
0.0
  0
LINE
  5
20BB
330
2E0
100
AcDbEntity
  8
C4
  6
ByBlock
 48
3.0
100
AcDbLine
 10
-7.631156289347472
 20
-351.3744911485546
 30
0.0
 11
-7.631156289347472
 21
-339.3744911485546
 31
0.0
  0
ARC
  5
20BC
330
2E0
100
AcDbEntity
  8
C4
  6
ByBlock
 62
     3
 48
3.0
100
AcDbCircle
 10
0.6371860157232732
 20
-352.3744911485546
 30
0.0
 40
1.0
100
AcDbArc
 50
0.0
 51
90.0
  0
ARC
  5
20BD
330
2E0
100
AcDbEntity
  8
C4
  6
ByBlock
 62
     3
 48
5.0
100
AcDbCircle
 10
0.6371860157232732
 20
-359.3744911485546
 30
0.0
 40
1.0
100
AcDbArc
 50
270.0
 51
0.0
  0
LINE
  5
20BE
330
2E0
100
AcDbEntity
  8
C4
  6
ByBlock
 62
     3
 48
3.0
100
AcDbLine
 10
1.637186015723273
 20
-352.3744911485546
 30
0.0
 11
1.637186015723273
 21
-359.3744911485546
 31
0.0
  0
ARC
  5
20BF
330
2E0
100
AcDbEntity
  8
C4
  6
ByBlock
 62
     3
 48
3.0
100
AcDbCircle
 10
2.302662236567357
 20
-316.0399673693987
 30
0.0
 40
4.5
100
AcDbArc
 50
134.9999999999908
 51
225.0000000000092
  0
ARC
  5
20C0
330
2E0
100
AcDbEntity
  8
C4
  6
ByBlock
 62
     3
 48
3.0
100
AcDbCircle
 10
2.302662236567357
 20
-316.0399673693987
 30
0.0
 40
2.0
100
AcDbArc
 50
134.9999999999908
 51
314.9999999999908
  0
ARC
  5
20C1
330
2E0
100
AcDbEntity
  8
C4
100
AcDbCircle
 10
4.437186015723455
 20
-89.37449114855485
 30
0.0
 40
29.13815278134592
100
AcDbArc
 50
90.0
 51
135.1446938474719
  0
ARC
  5
20C2
330
2E0
100
AcDbEntity
  8
C4
100
AcDbCircle
 10
-20.92718027250567
 20
-64.11012486032598
 30
0.0
 40
2.0
100
AcDbArc
 50
314.9999999999908
 51
134.9999999999908
  0
LINE
  5
20C3
330
2E0
100
AcDbEntity
  8
C4
100
AcDbLine
 10
-17.74519975716612
 20
-60.92814434498632
 30
0.0
 11
-12.86672070399982
 21
-65.80662339815273
 31
0.0
  0
ARC
  5
20C4
330
2E0
100
AcDbEntity
  8
C4
100
AcDbCircle
 10
4.437186015723455
 20
-89.37449114855485
 30
0.0
 40
28.8
100
AcDbArc
 50
90.0
 51
135.1446938474719
  0
TEXT
  5
20C5
330
2E0
100
AcDbEntity
  8
1外形線
 48
3.0
100
AcDbText
 10
-216.7284666907428
 20
-178.8873133056377
 30
0.0
 40
10.0
  1
SK-100
  7
KANJI
100
AcDbText
  0
TEXT
  5
20C6
330
2E0
100
AcDbEntity
  8
1外形線
 48
3.0
100
AcDbText
 10
-216.7284666907428
 20
50.11268669436276
 30
0.0
 40
10.0
  1
SK-77
  7
KANJI
100
AcDbText
  0
ARC
  5
20C7
330
2E0
100
AcDbEntity
  8
C4
100
AcDbCircle
 10
-55.16281398427645
 20
-29.87449114855508
 30
0.0
 40
33.82483485461921
100
AcDbArc
 50
90.0
 51
134.9999999999908
  0
ARC
  5
20C8
330
2E0
100
AcDbEntity
  8
C4
100
AcDbCircle
 10
-55.16281398427645
 20
-29.87449114855508
 30
0.0
 40
42.77891928209146
100
AcDbArc
 50
90.0
 51
134.9999999999908
  0
ARC
  5
20C9
330
2E0
100
AcDbEntity
  8
C4
100
AcDbCircle
 10
-55.16281398427645
 20
-29.87449114855508
 30
0.0
 40
48.76184721865422
100
AcDbArc
 50
90.0
 51
134.9999999999908
  0
ARC
  5
20CA
330
2E0
100
AcDbEntity
  8
C4
100
AcDbCircle
 10
-55.16281398427645
 20
-29.87449114855508
 30
0.0
 40
49.1
100
AcDbArc
 50
90.0
 51
134.9999999999908
  0
ARC
  5
20CB
330
2E0
100
AcDbEntity
  8
C4
100
AcDbCircle
 10
-21.16281398427645
 20
12.32550885144496
 30
0.0
 40
4.5
100
AcDbArc
 50
180.0
 51
0.0
  0
CIRCLE
  5
20CC
330
2E0
100
AcDbEntity
  8
C4
100
AcDbCircle
 10
-21.16281398427645
 20
12.32550885144496
 30
0.0
 40
2.0
  0
ARC
  5
20CD
330
2E0
100
AcDbEntity
  8
C4
100
AcDbCircle
 10
4.437186015723455
 20
-89.37449114855485
 30
0.0
 40
44.07516514538094
100
AcDbArc
 50
90.0
 51
135.1446938474719
  0
ARC
  5
20CE
330
2E0
100
AcDbEntity
  8
C4
100
AcDbCircle
 10
4.437186015723455
 20
-89.37449114855485
 30
0.0
 40
35.12108071790868
100
AcDbArc
 50
90.0
 51
127.7548593193108
  0
ARC
  5
20CF
330
2E0
100
AcDbEntity
  8
C4
100
AcDbCircle
 10
-20.92718027250567
 20
-64.11012486032598
 30
0.0
 40
4.5
100
AcDbArc
 50
45.00000000000921
 51
134.9999999999908
  0
LINE
  5
20D0
330
2E0
100
AcDbEntity
  8
1外形線
 48
3.0
100
AcDbLine
 10
-25.66281398427646
 20
12.9044281335365
 30
0.0
 11
-55.16281398427645
 21
12.9044281335365
 31
0.0
  0
LINE
  5
20D1
330
2E0
100
AcDbEntity
  8
C4
100
AcDbLine
 10
-25.66281398427646
 20
12.32550885144496
 30
0.0
 11
-25.66281398427646
 21
18.78735607009957
 31
0.0
  0
LINE
  5
20D2
330
2E0
100
AcDbEntity
  8
C4
100
AcDbLine
 10
-16.66281398427645
 20
12.32550885144496
 30
0.0
 11
-16.66281398427645
 21
18.78735607009957
 31
0.0
  0
TEXT
  5
20D3
330
2E0
100
AcDbEntity
  8
1外形線
 48
3.0
100
AcDbText
 10
-216.7284666907428
 20
250.812686694363
 30
0.0
 40
10.0
  1
SK-66
  7
KANJI
100
AcDbText
  0
LINE
  5
20D4
330
2E0
100
AcDbEntity
  8
1外形線
 48
3.0
100
AcDbLine
 10
509.6371860157232
 20
-703.0744911485551
 30
0.0
 11
509.6371860157232
 21
270.8255088514448
 31
0.0
  0
ARC
  5
20D5
330
2E0
100
AcDbEntity
  8
C4
 62
     3
 48
5.0
100
AcDbCircle
 10
316.6371860157233
 20
-270.3744911485549
 30
0.0
 40
60.0
100
AcDbArc
 50
45.00000000000921
 51
90.0
  0
LWPOLYLINE
  5
20D6
330
2E0
100
AcDbEntity
  8
C4
  6
ByBlock
 62
     3
 48
3.0
100
AcDbPolyline
 90
        5
 70
     0
 43
0.0
 10
226.6371860157233
 20
-308.8744911485548
 10
226.6371860157233
 20
-210.3744911485549
 10
226.6371860157233
 20
-308.8744911485548
 10
226.6371860157233
 20
-312.3744911485549
 10
226.6371860157233
 20
-314.3744911485549
  0
LINE
  5
20D7
330
2E0
100
AcDbEntity
  8
C4
 62
     3
 48
5.0
100
AcDbLine
 10
235.6371860157233
 20
-210.3744911485549
 30
0.0
 11
235.6371860157233
 21
-232.878291149819
 31
0.0
  0
ARC
  5
20D8
330
2E0
100
AcDbEntity
  8
C4
 48
5.0
100
AcDbCircle
 10
316.6371860157233
 20
-270.3744911485549
 30
0.0
 40
58.40668714406053
100
AcDbArc
 50
45.00000000000921
 51
90.0
  0
ARC
  5
20D9
330
2E0
100
AcDbEntity
  8
C4
 48
5.0
100
AcDbCircle
 10
316.6371860157233
 20
-270.3744911485549
 30
0.0
 40
51.7316576949292
100
AcDbArc
 50
45.00000000000921
 51
90.0
  0
LINE
  5
20DA
330
2E0
100
AcDbEntity
  8
C4
  6
ByBlock
 62
     3
 48
3.0
100
AcDbLine
 10
122.6371860157232
 20
-214.379593720723
 30
0.0
 11
122.6371860157232
 21
-221.8744911485551
 31
0.0
  0
LINE
  5
20DB
330
2E0
100
AcDbEntity
  8
C4
  6
ByBlock
 62
     3
 48
3.0
100
AcDbLine
 10
127.6371860157232
 20
-212.6744911485549
 30
0.0
 11
127.6371860157232
 21
-221.3744911485551
 31
0.0
  0
ARC
  5
20DC
330
2E0
100
AcDbEntity
  8
C4
 62
     3
 48
5.0
100
AcDbCircle
 10
128.1371860157233
 20
-238.8744911485551
 30
0.0
 40
29.5
100
AcDbArc
 50
89.02883859101516
 51
180.0
  0
ARC
  5
20DD
330
2E0
100
AcDbEntity
  8
C4
 62
     3
 48
5.0
100
AcDbCircle
 10
127.1371860157233
 20
-238.8744911485551
 30
0.0
 40
25.0
100
AcDbArc
 50
88.85400800161251
 51
180.0
  0
ARC
  5
20DE
330
2E0
100
AcDbEntity
  8
C4
 62
     3
 48
5.0
100
AcDbCircle
 10
148.1371860157232
 20
-235.8744911485548
 30
0.0
 40
26.5
100
AcDbArc
 50
0.0
 51
90.0
1001
ACAD
1000
ASC_BOUNDS
1002
{
1070
    19
1002
}
  0
ARC
  5
20DF
330
2E0
100
AcDbEntity
  8
C4
 62
     3
 48
5.0
100
AcDbCircle
 10
150.1371860157233
 20
-235.8744911485548
 30
0.0
 40
22.0
100
AcDbArc
 50
0.0
 51
90.0
  0
CIRCLE
  5
20E0
330
2E0
100
AcDbEntity
  8
C4
  6
ByBlock
 62
     3
 48
3.0
100
AcDbCircle
 10
20.13718601572282
 20
-218.3744911485549
 30
0.0
 40
2.0
  0
ARC
  5
20E1
330
2E0
100
AcDbEntity
  8
C4
  6
ByBlock
 62
     3
 48
3.0
100
AcDbCircle
 10
20.13718601572282
 20
-218.3744911485549
 30
0.0
 40
4.5
100
AcDbArc
 50
180.0
 51
0.0
  0
LINE
  5
20E2
330
2E0
100
AcDbEntity
  8
C4
  6
ByBlock
 62
     3
 48
3.0
100
AcDbLine
 10
24.63718601572282
 20
-218.3744911485546
 30
0.0
 11
24.63718601572282
 21
-210.8744911485546
 31
0.0
  0
LINE
  5
20E3
330
2E0
100
AcDbEntity
  8
C4
  6
ByBlock
 62
     3
 48
3.0
100
AcDbLine
 10
15.63718601572282
 20
-218.3744911485549
 30
0.0
 11
15.63718601572282
 21
-210.8744911485546
 31
0.0
  0
LINE
  5
20E4
330
2E0
100
AcDbEntity
  8
C4
 62
     3
 48
5.0
100
AcDbLine
 10
37.63718601572282
 20
-210.3744911485546
 30
0.0
 11
37.63718601572327
 21
-259.0914709241505
 31
0.0
  0
LINE
  5
20E5
330
2E0
100
AcDbEntity
  8
C4
 62
     3
 48
5.0
100
AcDbLine
 10
46.63718601572282
 20
-210.3744911485546
 30
0.0
 11
46.63718601572305
 21
-257.5914709241504
 31
0.0
  0
LINE
  5
20E6
330
2E0
100
AcDbEntity
  8
C4
100
AcDbLine
 10
341.568232394342
 20
-644.3728803614544
 30
0.0
 11
314.1682323943419
 21
-644.3728803614544
 31
0.0
  0
LINE
  5
20E7
330
2E0
100
AcDbEntity
  8
C4
100
AcDbLine
 10
458.6682323943419
 20
-652.3728803614546
 30
0.0
 11
314.6682323943419
 21
-652.3728803614544
 31
0.0
  0
ARC
  5
20E8
330
2E0
100
AcDbEntity
  8
C4
100
AcDbCircle
 10
284.3371860157231
 20
-637.6744911485552
 30
0.0
 40
39.25867464667158
100
AcDbArc
 50
0.0
 51
45.00000000000921
  0
ARC
  5
20E9
330
2E0
100
AcDbEntity
  8
C4
100
AcDbCircle
 10
284.3371860157231
 20
-637.6744911485552
 30
0.0
 40
49.3906919228295
100
AcDbArc
 50
0.0
 51
45.00000000000921
  0
ARC
  5
20EA
330
2E0
100
AcDbEntity
  8
C4
100
AcDbCircle
 10
284.3371860157231
 20
-637.6744911485552
 30
0.0
 40
49.3906919228295
100
AcDbArc
 50
45.00000000000921
 51
90.0
  0
LINE
  5
20EB
330
2E0
100
AcDbEntity
  8
1外形線
 48
3.0
100
AcDbLine
 10
277.6371860157217
 20
-482.4651830713831
 30
0.0
 11
408.9371860157236
 21
-482.4651830713792
 31
0.0
  0
LINE
  5
20EC
330
2E0
100
AcDbEntity
  8
1外形線
 48
3.0
100
AcDbLine
 10
277.6371860157217
 20
-472.3331657952253
 30
0.0
 11
408.9371860157236
 21
-472.3331657952212
 31
0.0
  0
LINE
  5
20ED
330
2E0
100
AcDbEntity
  8
1外形線
 48
3.0
100
AcDbLine
 10
277.6371860157217
 20
-465.6230909917407
 30
0.0
 11
408.9371860157236
 21
-465.6230909917367
 31
0.0
  0
LINE
  5
20EE
330
2E0
100
AcDbEntity
  8
C4
100
AcDbLine
 10
408.9371860157234
 20
-463.0744911485553
 30
0.0
 11
277.6371860157217
 21
-463.0744911485549
 31
0.0
  0
ARC
  5
20EF
330
2E0
100
AcDbEntity
  8
C4
 48
5.0
100
AcDbCircle
 10
316.6371860157233
 20
-270.3744911485549
 30
0.0
 40
43.52379439004003
100
AcDbArc
 50
45.00000000000921
 51
90.0
  0
LWPOLYLINE
  5
20F0
330
2E0
100
AcDbEntity
  8
C4
  6
ByBlock
 62
     3
 48
3.0
100
AcDbPolyline
 90
        5
 70
     0
 43
0.0
 10
278.1371860157233
 20
-360.3744911485546
 10
376.6371860157233
 20
-360.3744911485549
 10
278.1371860157233
 20
-360.3744911485546
 10
274.6371860157233
 20
-360.3744911485546
 10
272.6371860157237
 20
-360.3744911485549
  0
LINE
  5
20F1
330
2E0
100
AcDbEntity
  8
C4
100
AcDbLine
 10
269.6371860157214
 20
-463.3744911485551
 30
0.0
 11
269.6371860157214
 21
-607.374491148555
 31
0.0
  0
LINE
  5
20F2
330
2E0
100
AcDbEntity
  8
C4
100
AcDbLine
 10
140.2371860157234
 20
-590.2701277203059
 30
0.0
 11
140.2371860157234
 21
-480.4756330026025
 31
0.0
  0
LINE
  5
20F3
330
2E0
100
AcDbEntity
  8
C4
100
AcDbLine
 10
137.7371860157234
 20
-579.372880361454
 30
0.0
 11
137.7371860157234
 21
-491.372880361454
 31
0.0
  0
LINE
  5
20F4
330
2E0
100
AcDbEntity
  8
C4
100
AcDbLine
 10
214.2371860157234
 20
-480.4756330026025
 30
0.0
 11
214.2371860157234
 21
-590.2701277203059
 31
0.0
  0
LINE
  5
20F5
330
2E0
100
AcDbEntity
  8
C4
100
AcDbLine
 10
216.7371860157234
 20
-491.3728803614542
 30
0.0
 11
216.7371860157234
 21
-579.372880361454
 31
0.0
  0
LINE
  5
20F6
330
2E0
100
AcDbEntity
  8
C4
100
AcDbLine
 10
218.9371860157235
 20
-490.272880361454
 30
0.0
 11
218.9371860157235
 21
-535.3728803614542
 31
0.0
  0
LINE
  5
20F7
330
2E0
100
AcDbEntity
  8
C4
100
AcDbLine
 10
134.8371860157235
 20
-535.372880361454
 30
0.0
 11
134.8371860157235
 21
-490.272880361454
 31
0.0
  0
LINE
  5
20F8
330
2E0
100
AcDbEntity
  8
C4
100
AcDbLine
 10
76.11718601572306
 20
-462.8733978910681
 30
0.0
 11
76.11718601572329
 21
-607.8733978910682
 31
0.0
  0
LINE
  5
20F9
330
2E0
100
AcDbEntity
  8
C4
100
AcDbLine
 10
84.1171860157233
 20
-463.3733978910681
 30
0.0
 11
84.1171860157233
 21
-607.3733978910682
 31
0.0
  0
LINE
  5
20FA
330
2E0
100
AcDbEntity
  8
C4
100
AcDbLine
 10
162.7371860157238
 20
-608.3728803614542
 30
0.0
 11
167.7371860157236
 21
-608.3728803614542
 31
0.0
  0
LINE
  5
20FB
330
2E0
100
AcDbEntity
  8
1外形線
 48
3.0
100
AcDbLine
 10
135.3371860157235
 20
-644.3728803614544
 30
0.0
 11
167.7371860157234
 21
-644.3728803614544
 31
0.0
  0
LINE
  5
20FC
330
2E0
100
AcDbEntity
  8
1外形線
 48
3.0
100
AcDbLine
 10
135.8371860157235
 20
-652.3728803614544
 30
0.0
 11
218.9371860157235
 21
-652.3728803614544
 31
0.0
  0
LINE
  5
20FD
330
2E0
100
AcDbEntity
  8
C4
100
AcDbLine
 10
202.6344333745754
 20
-601.872880361454
 30
0.0
 11
151.8399386568719
 21
-601.8728803614542
 31
0.0
  0
LINE
  5
20FE
330
2E0
100
AcDbEntity
  8
C4
100
AcDbLine
 10
202.6344333745754
 20
-601.872880361454
 30
0.0
 11
151.8399386568719
 21
-601.8728803614542
 31
0.0
  0
LINE
  5
20FF
330
2E0
100
AcDbEntity
  8
C4
100
AcDbLine
 10
191.7371860157234
 20
-604.3728803614542
 30
0.0
 11
162.7371860157234
 21
-604.3728803614542
 31
0.0
  0
ARC
  5
2100
330
2E0
100
AcDbEntity
  8
C4
100
AcDbCircle
 10
83.11718601572328
 20
-607.3733978910682
 30
0.0
 40
1.0
100
AcDbArc
 50
270.0
 51
0.0
  0
ARC
  5
2101
330
2E0
100
AcDbEntity
  8
C4
100
AcDbCircle
 10
69.43718601572368
 20
-637.6733978910683
 30
0.0
 40
47.47554636454403
100
AcDbArc
 50
90.0
 51
134.9999999999908
  0
ARC
  5
2102
330
2E0
100
AcDbEntity
  8
C4
100
AcDbCircle
 10
42.70854968687217
 20
-610.9447615622165
 30
0.0
 40
2.0
100
AcDbArc
 50
314.9999999999908
 51
134.9999999999908
  0
ARC
  5
2103
330
2E0
100
AcDbEntity
  8
C4
100
AcDbCircle
 10
42.70854968687217
 20
-610.9447615622165
 30
0.0
 40
4.5
100
AcDbArc
 50
45.00000000000921
 51
134.9999999999908
  0
ARC
  5
2104
330
2E0
100
AcDbEntity
  8
C4
100
AcDbCircle
 10
69.43718601572368
 20
-637.6733978910683
 30
0.0
 40
30.0
100
AcDbArc
 50
134.9999999999908
 51
180.0
  0
ARC
  5
2105
330
2E0
100
AcDbEntity
  8
C4
100
AcDbCircle
 10
69.43718601572368
 20
-637.6733978910683
 30
0.0
 40
31.86498213937747
100
AcDbArc
 50
134.9999999999908
 51
180.0
  0
ARC
  5
2106
330
2E0
100
AcDbEntity
  8
C4
100
AcDbCircle
 10
69.43718601572368
 20
-637.6733978910683
 30
0.0
 40
38.23570838257492
100
AcDbArc
 50
141.7539962769726
 51
180.0
  0
ARC
  5
2107
330
2E0
100
AcDbEntity
  8
C4
100
AcDbCircle
 10
69.43718601572368
 20
-637.6733978910683
 30
0.0
 40
47.47554636454403
100
AcDbArc
 50
134.9999999999908
 51
180.0
  0
LINE
  5
2108
330
2E0
100
AcDbEntity
  8
C4
100
AcDbLine
 10
21.83556361805313
 20
-644.3728803614544
 30
0.0
 11
21.85317753106005
 21
-637.6733978910683
 31
0.0
  0
LINE
  5
2109
330
2E0
100
AcDbEntity
  8
C4
100
AcDbLine
 10
31.18386372014197
 20
-644.3728803614544
 30
0.0
 11
31.20147763314867
 21
-637.6733978910683
 31
0.0
  0
LINE
  5
210A
330
2E0
100
AcDbEntity
  8
C4
100
AcDbLine
 10
37.55458996333937
 20
-644.3728803614544
 30
0.0
 11
37.57220387634607
 21
-637.6733978910683
 31
0.0
  0
LINE
  5
210B
330
2E0
100
AcDbEntity
  8
C4
100
AcDbLine
 10
39.41957210271699
 20
-644.3728803614544
 30
0.0
 11
39.43718601572368
 21
-637.6733978910683
 31
0.0
  0
ARC
  5
210C
330
2E0
100
AcDbEntity
  8
C4
100
AcDbCircle
 10
39.1195721027168
 20
-651.3728803614545
 30
0.0
 40
1.0
100
AcDbArc
 50
270.0
 51
0.0
  0
LINE
  5
210D
330
2E0
100
AcDbEntity
  8
C4
100
AcDbLine
 10
40.1195721027168
 20
-651.3728803614545
 30
0.0
 11
40.1195721027168
 21
-644.8728803614544
 31
0.0
  0
ARC
  5
210E
330
2E0
100
AcDbEntity
  8
C4
100
AcDbCircle
 10
39.6195721027168
 20
-644.8728803614544
 30
0.0
 40
0.5
100
AcDbArc
 50
0.0
 51
90.0
  0
LINE
  5
210F
330
2E0
100
AcDbEntity
  8
C4
100
AcDbLine
 10
39.5265691715324
 20
-614.1267420775561
 30
0.0
 11
43.94907308413098
 21
-618.5492459901545
 31
0.0
  0
ARC
  5
2110
330
2E0
100
AcDbEntity
  8
C4
100
AcDbCircle
 10
42.70854968687195
 20
-610.9447615622168
 30
0.0
 40
4.5
100
AcDbArc
 50
134.9999999999908
 51
225.0000000000092
  0
ARC
  5
2111
330
2E0
100
AcDbEntity
  8
C4
100
AcDbCircle
 10
42.70854968687195
 20
-610.9447615622168
 30
0.0
 40
2.0
100
AcDbArc
 50
134.9999999999908
 51
314.9999999999908
  0
ARC
  5
2112
330
2E0
100
AcDbEntity
  8
C4
100
AcDbCircle
 10
69.43718601572368
 20
-637.6733978910683
 30
0.0
 40
31.86498213937747
100
AcDbArc
 50
90.0
 51
134.9999999999908
  0
ARC
  5
2113
330
2E0
100
AcDbEntity
  8
C4
100
AcDbCircle
 10
69.43718601572368
 20
-637.6733978910683
 30
0.0
 40
30.0
100
AcDbArc
 50
90.0
 51
134.9999999999908
  0
ARC
  5
2114
330
2E0
100
AcDbEntity
  8
C4
100
AcDbCircle
 10
69.43718601572368
 20
-637.6733978910683
 30
0.0
 40
38.23570838257492
100
AcDbArc
 50
90.0
 51
128.2460037230273
  0
LINE
  5
2115
330
2E0
100
AcDbEntity
  8
C4
100
AcDbLine
 10
45.89053020221149
 20
-607.762781046877
 30
0.0
 11
50.31303411481008
 21
-612.1852849594756
 31
0.0
  0
LINE
  5
2116
330
2E0
100
AcDbEntity
  8
C4
100
AcDbLine
 10
76.11718601572329
 20
-607.6733978910684
 30
0.0
 11
69.43718601572368
 21
-607.6733978910684
 31
0.0
  0
LINE
  5
2117
330
2E0
100
AcDbEntity
  8
C4
100
AcDbLine
 10
76.11718601572329
 20
-605.8084157516907
 30
0.0
 11
69.43718601572368
 21
-605.8084157516907
 31
0.0
  0
LINE
  5
2118
330
2E0
100
AcDbEntity
  8
C4
100
AcDbLine
 10
76.11718601572329
 20
-599.4376895084933
 30
0.0
 11
69.43718601572368
 21
-599.4376895084933
 31
0.0
  0
ARC
  5
2119
330
2E0
100
AcDbEntity
  8
C4
100
AcDbCircle
 10
76.61718601572329
 20
-607.8733978910682
 30
0.0
 40
0.5
100
AcDbArc
 50
180.0
 51
270.0
  0
LINE
  5
211A
330
2E0
100
AcDbEntity
  8
C4
100
AcDbLine
 10
83.11718601572328
 20
-608.3733978910681
 30
0.0
 11
76.61718601572329
 21
-608.3733978910681
 31
0.0
  0
LINE
  5
211B
330
2E0
100
AcDbEntity
  8
C4
100
AcDbLine
 10
76.11718601572329
 20
-590.0893894064047
 30
0.0
 11
69.43718601572368
 21
-590.0893894064047
 31
0.0
  0
ARC
  5
211C
330
2E0
100
AcDbEntity
  8
C4
100
AcDbCircle
 10
162.7371860157236
 20
-580.4728803614546
 30
0.0
 40
27.9
100
AcDbArc
 50
180.0
 51
270.0
  0
LINE
  5
211D
330
2E0
100
AcDbEntity
  8
1外形線
 48
3.0
100
AcDbLine
 10
136.8664939651235
 20
-644.3728803614544
 30
0.0
 11
136.8664939651235
 21
-590.9188026674555
 31
0.0
  0
LINE
  5
211E
330
2E0
100
AcDbEntity
  8
1外形線
 48
3.0
100
AcDbLine
 10
135.5371860157236
 20
-644.3728803614544
 30
0.0
 11
135.5371860157236
 21
-586.6833553835435
 31
0.0
  0
ARC
  5
211F
330
2E0
100
AcDbEntity
  8
C4
100
AcDbCircle
 10
162.7371860157234
 20
-579.372880361454
 30
0.0
 40
25.0
100
AcDbArc
 50
180.0
 51
270.0
  0
LINE
  5
2120
330
2E0
100
AcDbEntity
  8
1外形線
 48
3.0
100
AcDbLine
 10
151.7874430962786
 20
-644.3728803614544
 30
0.0
 11
151.7874430962786
 21
-612.1982911493358
 31
0.0
  0
LINE
  5
2121
330
2E0
100
AcDbEntity
  8
1外形線
 48
3.0
100
AcDbLine
 10
142.6787903871743
 20
-644.3728803614544
 30
0.0
 11
142.6787903871743
 21
-611.1467389377903
 31
0.0
  0
ARC
  5
2122
330
2E0
100
AcDbEntity
  8
1外形線
 48
3.0
100
AcDbCircle
 10
135.3371860157235
 20
-644.8728803614544
 30
0.0
 40
0.5
100
AcDbArc
 50
90.0
 51
180.0
  0
ARC
  5
2123
330
2E0
100
AcDbEntity
  8
1外形線
 48
3.0
100
AcDbCircle
 10
135.8371860157235
 20
-651.3728803614545
 30
0.0
 40
1.0
100
AcDbArc
 50
180.0
 51
270.0
  0
LINE
  5
2124
330
2E0
100
AcDbEntity
  8
1外形線
 48
3.0
100
AcDbLine
 10
134.8371860157235
 20
-644.8728803614544
 30
0.0
 11
134.8371860157235
 21
-651.3728803614545
 31
0.0
  0
ELLIPSE
  5
2125
330
2E0
100
AcDbEntity
  8
C4
  6
ByBlock
 62
     3
 48
3.0
100
AcDbEllipse
 10
160.1807332588341
 20
-603.883581521369
 30
0.0
 11
-29.21346551041397
 21
1.115437848908382
 31
0.0
210
0.0
220
0.0
230
-1.0
 40
0.0988945646814936
 41
-1.304016221272605
 42
-0.8373811841523568
  0
ELLIPSE
  5
2126
330
2E0
100
AcDbEntity
  8
C4
  6
ByBlock
 62
     3
 48
3.0
100
AcDbEllipse
 10
160.1807332588341
 20
-609.6700700172789
 30
0.0
 11
-22.31419483656942
 21
0.4125013601660128
 31
0.0
210
0.0
220
0.0
230
-1.0
 40
0.1296154393711578
 41
-1.573192399927293
 42
-0.4291372957492161
  0
LINE
  5
2127
330
2E0
100
AcDbEntity
  8
1外形線
 48
3.0
100
AcDbLine
 10
142.6787903871743
 20
-605.5384056771336
 30
0.0
 11
142.6787903871743
 21
-599.86542441345
 31
0.0
  0
ELLIPSE
  5
2128
330
2E0
100
AcDbEntity
  8
C4
  6
ByBlock
 62
     3
 48
3.0
100
AcDbEllipse
 10
139.9976658127357
 20
-607.8638896348086
 30
0.0
 11
2.634514576854145
 21
-0.1300355420728617
 31
0.0
210
0.0
220
0.0
230
-1.0
 40
0.9999999999999886
 41
1.570796326794905
 42
4.871309180579117
  0
LINE
  5
2129
330
2E0
100
AcDbEntity
  8
1外形線
 48
3.0
100
AcDbLine
 10
151.7874430962786
 20
-606.3375060165963
 30
0.0
 11
151.7874430962786
 21
-606.1343910340174
 31
0.0
  0
LINE
  5
212A
330
2E0
100
AcDbEntity
  8
C4
  6
ByBlock
 62
     3
 48
3.0
100
AcDbLine
 10
160.1807332588341
 20
-608.255510713921
 30
0.0
 11
160.1807332588341
 21
-612.5633142652339
 31
0.0
  0
LINE
  5
212B
330
2E0
100
AcDbEntity
  8
C4
100
AcDbLine
 10
134.8371860157235
 20
-535.372880361454
 30
0.0
 11
134.8371860157165
 21
-580.4728803614539
 31
0.0
  0
ARC
  5
212C
330
2E0
100
AcDbEntity
  8
C4
100
AcDbCircle
 10
191.0371860157238
 20
-580.4728803614546
 30
0.0
 40
27.9
100
AcDbArc
 50
270.0
 51
0.0
  0
LINE
  5
212D
330
2E0
100
AcDbEntity
  8
1外形線
 48
3.0
100
AcDbLine
 10
217.6078780663234
 20
-588.9821884386247
 30
0.0
 11
217.6078780663234
 21
-644.3728803614544
 31
0.0
  0
LINE
  5
212E
330
2E0
100
AcDbEntity
  8
1外形線
 48
3.0
100
AcDbLine
 10
218.9371860157235
 20
-652.3728803614544
 30
0.0
 11
218.9371860157235
 21
-580.4728803614428
 31
0.0
  0
ARC
  5
212F
330
2E0
100
AcDbEntity
  8
C4
100
AcDbCircle
 10
191.7371860157234
 20
-579.372880361454
 30
0.0
 40
25.0
100
AcDbArc
 50
270.0
 51
0.0
  0
LINE
  5
2130
330
2E0
100
AcDbEntity
  8
1外形線
 48
3.0
100
AcDbLine
 10
173.7371860157234
 20
-644.3728803614544
 30
0.0
 11
218.9371860157235
 21
-644.3728803614544
 31
0.0
  0
LINE
  5
2131
330
2E0
100
AcDbEntity
  8
1外形線
 48
3.0
100
AcDbLine
 10
173.7371860157236
 20
-608.3728803614542
 30
0.0
 11
173.7371860157234
 21
-652.3728803614544
 31
0.0
  0
LINE
  5
2132
330
2E0
100
AcDbEntity
  8
1外形線
 48
3.0
100
AcDbLine
 10
167.7371860157236
 20
-608.3728803614542
 30
0.0
 11
167.7371860157234
 21
-652.3728803614544
 31
0.0
  0
LINE
  5
2133
330
2E0
100
AcDbEntity
  8
1外形線
 48
3.0
100
AcDbLine
 10
170.7371860157234
 20
-606.872880361454
 30
0.0
 11
170.7371860157234
 21
-652.3728803614544
 31
0.0
  0
LINE
  5
2134
330
2E0
100
AcDbEntity
  8
C4
100
AcDbLine
 10
173.7371860157236
 20
-608.3728803614542
 30
0.0
 11
191.0371860157238
 21
-608.3728803614542
 31
0.0
  0
LINE
  5
2135
330
2E0
100
AcDbEntity
  8
C4
100
AcDbLine
 10
170.7371860157236
 20
-606.8728803614542
 30
0.0
 11
173.7371860157236
 21
-607.6728803614546
 31
0.0
  0
LINE
  5
2136
330
2E0
100
AcDbEntity
  8
C4
100
AcDbLine
 10
167.7371860157236
 20
-607.6728803614546
 30
0.0
 11
167.7371860157236
 21
-608.3728803614542
 31
0.0
  0
LINE
  5
2137
330
2E0
100
AcDbEntity
  8
C4
100
AcDbLine
 10
167.7371860157236
 20
-607.6728803614546
 30
0.0
 11
170.7371860157236
 21
-606.8728803614542
 31
0.0
  0
LINE
  5
2138
330
2E0
100
AcDbEntity
  8
C4
100
AcDbLine
 10
165.7371860157234
 20
-604.3728803614542
 30
0.0
 11
165.7371860157234
 21
-605.572880361454
 31
0.0
  0
LINE
  5
2139
330
2E0
100
AcDbEntity
  8
C4
100
AcDbLine
 10
170.7371860157234
 20
-605.572880361454
 30
0.0
 11
170.7371860157234
 21
-606.872880361454
 31
0.0
  0
LINE
  5
213A
330
2E0
100
AcDbEntity
  8
C4
100
AcDbLine
 10
165.7371860157234
 20
-605.572880361454
 30
0.0
 11
170.7371860157234
 21
-605.572880361454
 31
0.0
  0
LINE
  5
213B
330
2E0
100
AcDbEntity
  8
C4
100
AcDbLine
 10
173.7371860157236
 20
-607.6728803614546
 30
0.0
 11
173.7371860157236
 21
-608.3728803614542
 31
0.0
  0
LINE
  5
213C
330
2E0
100
AcDbEntity
  8
1外形線
 48
3.0
100
AcDbLine
 10
211.7955816442727
 20
-599.1142057147826
 30
0.0
 11
211.7955816442727
 21
-644.3728803614544
 31
0.0
  0
LINE
  5
213D
330
2E0
100
AcDbEntity
  8
1外形線
 48
3.0
100
AcDbLine
 10
202.6869289351684
 20
-605.8242805182674
 30
0.0
 11
202.6869289351684
 21
-644.3728803614544
 31
0.0
  0
LINE
  5
213E
330
2E0
100
AcDbEntity
  8
C4
100
AcDbLine
 10
218.9371860157235
 20
-535.3728803614546
 30
0.0
 11
218.9371860157235
 21
-580.4728803614541
 31
0.0
  0
ARC
  5
213F
330
2E0
100
AcDbEntity
  8
C4
100
AcDbCircle
 10
284.3371860157231
 20
-637.6744911485552
 30
0.0
 40
39.25867464667158
100
AcDbArc
 50
45.00000000000921
 51
90.0
  0
LINE
  5
2140
330
2E0
100
AcDbEntity
  8
C4
100
AcDbLine
 10
277.6371860157214
 20
-580.4744911485549
 30
0.0
 11
277.6371860157214
 21
-607.874491148555
 31
0.0
  0
LINE
  5
2141
330
2E0
100
AcDbEntity
  8
1外形線
 48
3.0
100
AcDbLine
 10
277.6371860157217
 20
-598.4158165018834
 30
0.0
 11
284.3371860157231
 21
-598.4158165018836
 31
0.0
  0
LINE
  5
2142
330
2E0
100
AcDbEntity
  8
1外形線
 48
3.0
100
AcDbLine
 10
277.6371860157217
 20
-605.1258913053679
 30
0.0
 11
284.3371860157231
 21
-605.1258913053682
 31
0.0
  0
LINE
  5
2143
330
2E0
100
AcDbEntity
  8
C4
100
AcDbLine
 10
277.6371860157217
 20
-607.6744911485552
 30
0.0
 11
284.3371860157231
 21
-607.6744911485552
 31
0.0
  0
LINE
  5
2144
330
2E0
100
AcDbEntity
  8
C4
100
AcDbLine
 10
270.6371860157215
 20
-608.3744911485551
 30
0.0
 11
277.1371860157215
 21
-608.3744911485551
 31
0.0
  0
ARC
  5
2145
330
2E0
100
AcDbEntity
  8
C4
100
AcDbCircle
 10
270.6371860157215
 20
-607.374491148555
 30
0.0
 40
1.0
100
AcDbArc
 50
180.0
 51
270.0
  0
ARC
  5
2146
330
2E0
100
AcDbEntity
  8
C4
100
AcDbCircle
 10
277.1371860157215
 20
-607.874491148555
 30
0.0
 40
0.5
100
AcDbArc
 50
270.0
 51
0.0
  0
ARC
  5
2147
330
2E0
100
AcDbEntity
  8
C4
100
AcDbCircle
 10
284.3371860157231
 20
-637.6744911485552
 30
0.0
 40
30.0
100
AcDbArc
 50
0.0
 51
45.00000000000921
  0
ARC
  5
2148
330
2E0
100
AcDbEntity
  8
C4
100
AcDbCircle
 10
284.3371860157231
 20
-637.6744911485552
 30
0.0
 40
32.54859984318699
100
AcDbArc
 50
0.0
 51
45.00000000000921
  0
LINE
  5
2149
330
2E0
100
AcDbEntity
  8
C4
100
AcDbLine
 10
314.3371860157233
 20
-644.3728803614544
 30
0.0
 11
314.3371860157231
 21
-637.6744911485555
 31
0.0
  0
LINE
  5
214A
330
2E0
100
AcDbEntity
  8
1外形線
 48
3.0
100
AcDbLine
 10
316.8857858589102
 20
-644.3728803614544
 30
0.0
 11
316.8857858589102
 21
-637.6744911485555
 31
0.0
  0
ARC
  5
214B
330
2E0
100
AcDbEntity
  8
C4
100
AcDbCircle
 10
314.6682323943419
 20
-651.3728803614545
 30
0.0
 40
1.0
100
AcDbArc
 50
180.0
 51
270.0
  0
LINE
  5
214C
330
2E0
100
AcDbEntity
  8
C4
100
AcDbLine
 10
313.6682323943419
 20
-651.3728803614545
 30
0.0
 11
313.6682323943421
 21
-644.8728803614544
 31
0.0
  0
ARC
  5
214D
330
2E0
100
AcDbEntity
  8
C4
100
AcDbCircle
 10
314.1682323943419
 20
-644.8728803614544
 30
0.0
 40
0.5
100
AcDbArc
 50
90.0
 51
180.0
  0
ARC
  5
214E
330
2E0
100
AcDbEntity
  8
C4
100
AcDbCircle
 10
284.3371860157231
 20
-637.6744911485552
 30
0.0
 40
32.54859984318699
100
AcDbArc
 50
45.00000000000921
 51
90.0
  0
ARC
  5
214F
330
2E0
100
AcDbEntity
  8
C4
100
AcDbCircle
 10
284.3371860157231
 20
-637.6744911485552
 30
0.0
 40
30.0
100
AcDbArc
 50
45.00000000000921
 51
90.0
  0
LINE
  5
2150
330
2E0
100
AcDbEntity
  8
1外形線
 48
3.0
100
AcDbLine
 10
277.6371860157217
 20
-588.2837992257255
 30
0.0
 11
284.3371860157231
 21
-588.2837992257257
 31
0.0
  0
LINE
  5
2151
330
2E0
100
AcDbEntity
  8
C4
100
AcDbLine
 10
162.7371860157238
 20
-462.3728803614542
 30
0.0
 11
167.7371860157236
 21
-462.3728803614542
 31
0.0
  0
LINE
  5
2152
330
2E0
100
AcDbEntity
  8
C4
100
AcDbLine
 10
167.7371860157236
 20
-477.0944401128331
 30
0.0
 11
141.4392550078262
 21
-478.2809693174986
 31
0.0
  0
LINE
  5
2153
330
2E0
100
AcDbEntity
  8
C4
100
AcDbLine
 10
151.8399386568719
 20
-468.872880361454
 30
0.0
 11
202.6344333745751
 21
-468.8728803614542
 31
0.0
  0
LINE
  5
2154
330
2E0
100
AcDbEntity
  8
C4
100
AcDbLine
 10
162.7371860157234
 20
-466.3728803614542
 30
0.0
 11
191.7371860157234
 21
-466.3728803614542
 31
0.0
  0
ARC
  5
2155
330
2E0
100
AcDbEntity
  8
C4
 62
     3
 48
5.0
100
AcDbCircle
 10
148.1371860157232
 20
-288.8744911485551
 30
0.0
 40
26.5
100
AcDbArc
 50
270.0
 51
0.0
1001
ACAD
1000
ASC_BOUNDS
1002
{
1070
    19
1002
}
  0
LINE
  5
2156
330
2E0
100
AcDbEntity
  8
C4
 62
     3
 48
5.0
100
AcDbLine
 10
127.6371860157232
 20
-219.3744911485548
 30
0.0
 11
165.1888182265786
 21
-219.3744911485548
 31
0.0
  0
LINE
  5
2157
330
2E0
100
AcDbEntity
  8
C4
 62
     3
 48
5.0
100
AcDbLine
 10
99.63718601572328
 20
-360.3744911485549
 30
0.0
 11
174.6371860157232
 21
-360.3744911485549
 31
0.0
  0
ARC
  5
2158
330
2E0
100
AcDbEntity
  8
C4
 62
     3
 48
5.0
100
AcDbCircle
 10
150.6371860157232
 20
-288.8744911485551
 30
0.0
 40
22.0
100
AcDbArc
 50
270.0
 51
0.0
1001
ACAD
1000
ASC_BOUNDS
1002
{
1070
    19
1002
}
  0
LINE
  5
2159
330
2E0
100
AcDbEntity
  8
C4
 62
     3
 48
5.0
100
AcDbLine
 10
135.6371860157232
 20
-351.3744911485549
 30
0.0
 11
174.6371860157232
 21
-351.3744911485549
 31
0.0
  0
ARC
  5
215A
330
2E0
100
AcDbEntity
  8
C4
100
AcDbCircle
 10
83.11718601572328
 20
-463.3733978910681
 30
0.0
 40
1.0
100
AcDbArc
 50
0.0
 51
90.0
  0
LINE
  5
215B
330
2E0
100
AcDbEntity
  8
C4
100
AcDbLine
 10
76.11718601572306
 20
-471.3150022625191
 30
0.0
 11
44.31546532580637
 21
-471.3150022625191
 31
0.0
  0
LINE
  5
215C
330
2E0
100
AcDbEntity
  8
C4
100
AcDbLine
 10
35.33718601572332
 20
-470.8733978910689
 30
0.0
 11
35.33718601572332
 21
-464.9383800304455
 31
0.0
  0
CIRCLE
  5
215D
330
2E0
100
AcDbEntity
  8
C4
100
AcDbCircle
 10
39.83718601572332
 20
-470.8733978910689
 30
0.0
 40
2.0
  0
LINE
  5
215E
330
2E0
100
AcDbEntity
  8
C4
100
AcDbLine
 10
44.33718601572332
 20
-470.8733978910689
 30
0.0
 11
44.33718601572354
 21
-464.9383800304455
 31
0.0
  0
ARC
  5
215F
330
2E0
100
AcDbEntity
  8
C4
100
AcDbCircle
 10
39.83718601572332
 20
-470.8733978910689
 30
0.0
 40
4.5
100
AcDbArc
 50
180.0
 51
0.0
  0
LINE
  5
2160
330
2E0
100
AcDbEntity
  8
C4
100
AcDbLine
 10
76.11718601572306
 20
-464.9383800304455
 30
0.0
 11
45.33718601572331
 21
-464.9383800304455
 31
0.0
  0
ARC
  5
2161
330
2E0
100
AcDbEntity
  8
C4
100
AcDbCircle
 10
76.61718601572307
 20
-462.8733978910681
 30
0.0
 40
0.5
100
AcDbArc
 50
90.0
 51
180.0
  0
LINE
  5
2162
330
2E0
100
AcDbEntity
  8
C4
100
AcDbLine
 10
76.61718601572307
 20
-462.3733978910681
 30
0.0
 11
83.11718601572328
 21
-462.3733978910681
 31
0.0
  0
ARC
  5
2163
330
2E0
100
AcDbEntity
  8
C4
100
AcDbCircle
 10
162.7371860157236
 20
-490.272880361454
 30
0.0
 40
27.9
100
AcDbArc
 50
90.0
 51
180.0
  0
ARC
  5
2164
330
2E0
100
AcDbEntity
  8
C4
100
AcDbCircle
 10
162.7371860157234
 20
-491.372880361454
 30
0.0
 40
25.0
100
AcDbArc
 50
90.0
 51
180.0
  0
LINE
  5
2165
330
2E0
100
AcDbEntity
  8
C4
 62
     3
 48
5.0
100
AcDbLine
 10
46.63718601572305
 20
-256.0923168903537
 30
0.0
 11
46.63718601572327
 21
-314.375337114758
 31
0.0
  0
LINE
  5
2166
330
2E0
100
AcDbEntity
  8
C4
 62
     3
 48
5.0
100
AcDbLine
 10
37.63718601572282
 20
-256.0923168903539
 30
0.0
 11
37.63718601572327
 21
-314.3753371147582
 31
0.0
  0
LINE
  5
2167
330
2E0
100
AcDbEntity
  8
C4
  6
ByBlock
 62
     3
 48
3.0
100
AcDbLine
 10
38.63718637335114
 20
-315.3744913869734
 30
0.0
 11
45.63718637335114
 21
-315.3744913869732
 31
0.0
  0
ARC
  5
2168
330
2E0
100
AcDbEntity
  8
C4
  6
ByBlock
 48
3.0
100
AcDbCircle
 10
25.6371860157235
 20
-339.3744911485546
 30
0.0
 40
33.26834230507079
100
AcDbArc
 50
90.0
 51
127.2261297356985
  0
ARC
  5
2169
330
2E0
100
AcDbEntity
  8
C4
  6
ByBlock
 48
3.0
100
AcDbCircle
 10
25.6371860157235
 20
-339.3744911485546
 30
0.0
 40
26.59331285593959
100
AcDbArc
 50
90.0
 51
125.257791887024
  0
ARC
  5
216A
330
2E0
100
AcDbEntity
  8
C4
 62
     3
 48
5.0
100
AcDbCircle
 10
25.6371860157235
 20
-339.3744911485546
 30
0.0
 40
25.0
100
AcDbArc
 50
90.0
 51
134.9999999999908
  0
LINE
  5
216B
330
2E0
100
AcDbEntity
  8
C4
  6
ByBlock
 62
     3
 48
3.0
100
AcDbLine
 10
5.511092825505784
 20
-312.884436927658
 30
0.0
 11
11.43023326878369
 21
-318.8035773709362
 31
0.0
  0
LINE
  5
216C
330
2E0
100
AcDbEntity
  8
C4
  6
ByBlock
 48
3.0
100
AcDbLine
 10
37.63718601572327
 20
-312.7811782926151
 30
0.0
 11
25.63718601572328
 21
-312.7811782926151
 31
0.0
  0
LINE
  5
216D
330
2E0
100
AcDbEntity
  8
C4
 62
     3
 48
5.0
100
AcDbLine
 10
37.63718601572327
 20
-314.3744911485546
 30
0.0
 11
25.63718601572328
 21
-314.3744911485546
 31
0.0
  0
ARC
  5
216E
330
2E0
100
AcDbEntity
  8
C4
  6
ByBlock
 62
     3
 48
3.0
100
AcDbCircle
 10
38.63718637335114
 20
-314.3744913869732
 30
0.0
 40
1.0
100
AcDbArc
 50
180.0
 51
270.0
  0
LINE
  5
216F
330
2E0
100
AcDbEntity
  8
C4
  6
ByBlock
 48
3.0
100
AcDbLine
 10
37.63718601572327
 20
-306.1061488434839
 30
0.0
 11
25.63718601572328
 21
-306.1061488434839
 31
0.0
  0
LINE
  5
2170
330
2E0
100
AcDbEntity
  8
C4
  6
ByBlock
 48
3.0
100
AcDbLine
 10
37.63718601572327
 20
-297.8982855385948
 30
0.0
 11
25.63718601572328
 21
-297.8982855385948
 31
0.0
  0
ARC
  5
2171
330
2E0
100
AcDbEntity
  8
C4
  6
ByBlock
 62
     3
 48
5.0
100
AcDbCircle
 10
45.63718637335114
 20
-314.3744913869732
 30
0.0
 40
1.0
100
AcDbArc
 50
270.0
 51
0.0
  0
LINE
  5
2172
330
2E0
100
AcDbEntity
  8
C4
  6
ByBlock
 48
3.0
100
AcDbLine
 10
37.63718601572282
 20
-218.6428334536254
 30
0.0
 11
24.62917804680547
 21
-218.6428334536254
 31
0.0
  0
POINT
  5
2173
330
2E0
100
AcDbEntity
  8
SUNPOU
  6
ByBlock
 48
3.0
100
AcDbPoint
 10
22.13718601572282
 20
-218.3744911485549
 30
0.0
  0
POINT
  5
2174
330
2E0
100
AcDbEntity
  8
SUNPOU
  6
ByBlock
 48
3.0
100
AcDbPoint
 10
18.13718601572282
 20
-218.3744911485549
 30
0.0
  0
ARC
  5
2175
330
2E0
100
AcDbEntity
  8
C4
 62
     3
 48
5.0
100
AcDbCircle
 10
128.1371860157233
 20
-285.8744911485551
 30
0.0
 40
29.5
100
AcDbArc
 50
180.0
 51
270.9711614089849
  0
ARC
  5
2176
330
2E0
100
AcDbEntity
  8
C4
 62
     3
 48
5.0
100
AcDbCircle
 10
127.1371860157233
 20
-285.8744911485551
 30
0.0
 40
25.0
100
AcDbArc
 50
180.0
 51
270.0
1001
ACAD
1000
ASC_BOUNDS
1002
{
1070
    19
1005
0
1005
0
1005
0
1005
0
1005
0
1005
0
1002
}
  0
ELLIPSE
  5
2177
330
2E0
100
AcDbEntity
  8
C4
  6
ByBlock
 62
     3
 48
3.0
100
AcDbEllipse
 10
125.6371860157232
 20
-321.6968216188911
 30
0.0
 11
-22.3141948365694
 21
0.4125013601659885
 31
0.0
210
0.0
220
0.0
230
-1.0
 40
0.129615439371158
 41
4.709992907252293
 42
5.854048011430371
  0
ELLIPSE
  5
2178
330
2E0
100
AcDbEntity
  8
C4
  6
ByBlock
 62
     3
 48
3.0
100
AcDbEllipse
 10
125.6371860157232
 20
-315.9103331229815
 30
0.0
 11
-29.21346551041285
 21
1.115437848908279
 31
0.0
210
0.0
220
0.0
230
-1.0
 40
0.0988945646814974
 41
4.708612974550018
 42
5.445804123027261
  0
LINE
  5
2179
330
2E0
100
AcDbEntity
  8
C4
 62
     3
 48
5.0
100
AcDbLine
 10
99.63718601572328
 20
-351.3744911485549
 30
0.0
 11
129.6371860157232
 21
-351.3744911485549
 31
0.0
  0
LINE
  5
217A
330
2E0
100
AcDbEntity
  8
C4
  6
ByBlock
 62
     3
 48
3.0
100
AcDbLine
 10
117.220568493208
 20
-324.2233889350935
 30
0.0
 11
117.220568493208
 21
-351.3744911485549
 31
0.0
  0
LINE
  5
217B
330
2E0
100
AcDbEntity
  8
C4
  6
ByBlock
 62
     3
 48
3.0
100
AcDbLine
 10
102.2448783311943
 20
-300.0109122928784
 30
0.0
 11
102.2448783311943
 21
-351.3744911485551
 31
0.0
  0
LINE
  5
217C
330
2E0
100
AcDbEntity
  8
C4
  6
ByBlock
 62
     3
 48
3.0
100
AcDbLine
 10
108.3826400937434
 20
-323.2178164506124
 30
0.0
 11
108.3826400937434
 21
-351.3744911485549
 31
0.0
  0
LINE
  5
217D
330
2E0
100
AcDbEntity
  8
C4
  6
ByBlock
 62
     3
 48
3.0
100
AcDbLine
 10
100.1371860157233
 20
-295.1615789590583
 30
0.0
 11
100.1371860157233
 21
-343.5844933034241
 31
0.0
  0
LINE
  5
217E
330
2E0
100
AcDbEntity
  8
C4
  6
ByBlock
 62
     3
 48
3.0
100
AcDbLine
 10
100.1371860157233
 20
-343.5844933034241
 30
0.0
 11
100.1371860157233
 21
-351.3744911485551
 31
0.0
  0
LINE
  5
217F
330
2E0
100
AcDbEntity
  8
C4
  6
ByBlock
 62
     3
 48
3.0
100
AcDbLine
 10
98.63718601572328
 20
-352.3744911485551
 30
0.0
 11
98.63718601572328
 21
-359.3744911485551
 31
0.0
  0
ARC
  5
2180
330
2E0
100
AcDbEntity
  8
C4
  6
ByBlock
 62
     3
 48
5.0
100
AcDbCircle
 10
99.63718601572328
 20
-352.3744911485549
 30
0.0
 40
1.0
100
AcDbArc
 50
90.0
 51
180.0
  0
ARC
  5
2181
330
2E0
100
AcDbEntity
  8
C4
  6
ByBlock
 62
     3
 48
5.0
100
AcDbCircle
 10
99.63718601572328
 20
-359.3744911485548
 30
0.0
 40
1.0
100
AcDbArc
 50
180.0
 51
270.0
  0
ELLIPSE
  5
2182
330
2E0
100
AcDbEntity
  8
C4
  6
ByBlock
 62
     3
 48
3.0
100
AcDbEllipse
 10
105.4541185696248
 20
-319.8906412364209
 30
0.0
 11
1.865150972154745
 21
1.865150972154746
 31
0.0
210
0.0
220
0.0
230
-1.0
 40
0.9999999999999252
 41
2.405512910119864
 42
5.706025763904092
  0
LINE
  5
2183
330
2E0
100
AcDbEntity
  8
C4
  6
ByBlock
 62
     3
 48
3.0
100
AcDbLine
 10
108.3826400937434
 20
-307.7835740918547
 30
0.0
 11
108.3826400937434
 21
-317.5926435956428
 31
0.0
  0
LINE
  5
2184
330
2E0
100
AcDbEntity
  8
C4
  6
ByBlock
 62
     3
 48
3.0
100
AcDbLine
 10
117.2205684932082
 20
-313.2802836360404
 30
0.0
 11
117.220568493208
 21
-318.3626816232022
 31
0.0
  0
LINE
  5
2185
330
2E0
100
AcDbEntity
  8
C4
  6
ByBlock
 62
     3
 48
3.0
100
AcDbLine
 10
135.6371860157232
 20
-315.3744911485551
 30
0.0
 11
135.6371860157232
 21
-360.3744911485549
 31
0.0
  0
LINE
  5
2186
330
2E0
100
AcDbEntity
  8
C4
  6
ByBlock
 62
     3
 48
3.0
100
AcDbLine
 10
132.6371860157232
 20
-314.3744911485551
 30
0.0
 11
132.6371860157232
 21
-360.3744911485549
 31
0.0
  0
LINE
  5
2187
330
2E0
100
AcDbEntity
  8
C4
  6
ByBlock
 62
     3
 48
3.0
100
AcDbLine
 10
129.6371860157232
 20
-315.3744911485551
 30
0.0
 11
129.6371860157232
 21
-360.3744911485549
 31
0.0
  0
LINE
  5
2188
330
2E0
100
AcDbEntity
  8
C4
 48
2.0
100
AcDbLine
 10
159.2042718248506
 20
-312.952896654182
 30
0.0
 11
159.2042718248506
 21
-351.3744911485549
 31
0.0
  0
LINE
  5
2189
330
2E0
100
AcDbEntity
  8
C4
 62
     3
 48
5.0
100
AcDbLine
 10
135.6371860157232
 20
-315.3744911485551
 30
0.0
 11
148.1371860157232
 21
-315.3744911485551
 31
0.0
  0
LINE
  5
218A
330
2E0
100
AcDbEntity
  8
C4
 62
     3
 48
5.0
100
AcDbLine
 10
127.6371860157232
 20
-310.8744911485551
 30
0.0
 11
150.6371860157232
 21
-310.8744911485548
 31
0.0
1001
ACAD
1000
ASC_BOUNDS
1002
{
1070
    19
1002
}
  0
LINE
  5
218B
330
2E0
100
AcDbEntity
  8
C4
  6
ByBlock
 62
     3
 48
3.0
100
AcDbLine
 10
132.6371860157232
 20
-312.5744911485551
 30
0.0
 11
135.6371860157232
 21
-314.3744911485551
 31
0.0
  0
LINE
  5
218C
330
2E0
100
AcDbEntity
  8
C4
 62
     3
 48
3.0
100
AcDbLine
 10
135.6371860157232
 20
-314.3744911485551
 30
0.0
 11
132.6371860157232
 21
-312.5744911485551
 31
0.0
1001
ACAD
1000
ASC_BOUNDS
1002
{
1070
    19
1002
}
  0
LINE
  5
218D
330
2E0
100
AcDbEntity
  8
C4
 62
     3
 48
5.0
100
AcDbLine
 10
128.6371860157232
 20
-315.3702535560601
 30
0.0
 11
129.6371860157232
 21
-315.3744911485551
 31
0.0
  0
LINE
  5
218E
330
2E0
100
AcDbEntity
  8
C4
  6
ByBlock
 62
     3
 48
3.0
100
AcDbLine
 10
129.6371860157232
 20
-314.3744911485551
 30
0.0
 11
129.6371860157232
 21
-315.3702535560601
 31
0.0
  0
LINE
  5
218F
330
2E0
100
AcDbEntity
  8
C4
  6
ByBlock
 62
     3
 48
3.0
100
AcDbLine
 10
132.6371860157232
 20
-312.5744911485551
 30
0.0
 11
129.6371860157232
 21
-314.3744911485551
 31
0.0
  0
LINE
  5
2190
330
2E0
100
AcDbEntity
  8
C4
 62
     3
 48
3.0
100
AcDbLine
 10
127.6371860157232
 20
-310.8744911485551
 30
0.0
 11
127.6371860157232
 21
-312.0744911485551
 31
0.0
1001
ACAD
1000
ASC_BOUNDS
1002
{
1070
    19
1005
0
1005
0
1005
0
1005
0
1002
}
  0
LINE
  5
2191
330
2E0
100
AcDbEntity
  8
C4
 48
2.0
100
AcDbLine
 10
127.6371860157232
 20
-310.8744911485551
 30
0.0
 11
127.1371860157233
 21
-310.8744911485551
 31
0.0
  0
LINE
  5
2192
330
2E0
100
AcDbEntity
  8
C4
  6
ByBlock
 62
     3
 48
3.0
100
AcDbLine
 10
125.6371860157232
 20
-318.8035773709364
 30
0.0
 11
125.6371860157232
 21
-324.5900658668461
 31
0.0
  0
LINE
  5
2193
330
2E0
100
AcDbEntity
  8
C4
 62
     3
 48
3.0
100
AcDbLine
 10
132.6371860157232
 20
-312.0744911485551
 30
0.0
 11
132.6371860157232
 21
-314.3744911485551
 31
0.0
1001
ACAD
1000
ASC_BOUNDS
1002
{
1070
    19
1005
0
1005
0
1005
0
1005
0
1002
}
  0
LINE
  5
2194
330
2E0
100
AcDbEntity
  8
C4
 62
     3
 48
5.0
100
AcDbLine
 10
127.6371860157232
 20
-312.0744911485551
 30
0.0
 11
132.6371860157232
 21
-312.0744911485551
 31
0.0
1001
ACAD
1000
ASC_BOUNDS
1002
{
1070
    19
1005
0
1005
0
1005
0
1005
0
1002
}
  0
POINT
  5
2195
330
2E0
100
AcDbEntity
  8
SUNPOU
 48
3.0
100
AcDbPoint
 10
135.6371860157232
 20
-315.3744911485551
 30
0.0
  0
LINE
  5
2196
330
2E0
100
AcDbEntity
  8
C4
  6
ByBlock
 62
     3
 48
3.0
100
AcDbLine
 10
135.6371860157232
 20
-314.3744911485551
 30
0.0
 11
135.6371860157232
 21
-315.3744911485551
 31
0.0
  0
POINT
  5
2197
330
2E0
100
AcDbEntity
  8
SUNPOU
 48
3.0
100
AcDbPoint
 10
135.6371860157232
 20
-310.8744911485551
 30
0.0
  0
POINT
  5
2198
330
2E0
100
AcDbEntity
  8
SUNPOU
 48
3.0
100
AcDbPoint
 10
135.6371860157232
 20
-314.3744911485551
 30
0.0
  0
LINE
  5
2199
330
2E0
100
AcDbEntity
  8
C4
 62
     3
 48
5.0
100
AcDbLine
 10
122.6371860157232
 20
-221.8744911485551
 30
0.0
 11
127.1371860157233
 21
-221.8744911485551
 31
0.0
  0
LINE
  5
219A
330
2E0
100
AcDbEntity
  8
C4
 62
     3
 48
5.0
100
AcDbLine
 10
98.63718601572328
 20
-238.8744911485551
 30
0.0
 11
98.63718601572328
 21
-262.3744911485551
 31
0.0
  0
LINE
  5
219B
330
2E0
100
AcDbEntity
  8
C4
 62
     3
 48
5.0
100
AcDbLine
 10
102.1371860157233
 20
-238.8744911485551
 30
0.0
 11
102.1371860157233
 21
-280.3744911485548
 31
0.0
1001
ACAD
1000
ASC_BOUNDS
1002
{
1070
    19
1002
}
  0
LINE
  5
219C
330
2E0
100
AcDbEntity
  8
C4
  6
ByBlock
 62
     3
 48
3.0
100
AcDbLine
 10
102.1371860157233
 20
-261.6244911485548
 30
0.0
 11
107.3871860157233
 21
-261.6244911485548
 31
0.0
  0
LINE
  5
219D
330
2E0
100
AcDbEntity
  8
C4
  6
ByBlock
 62
     3
 48
3.0
100
AcDbLine
 10
107.3871860157233
 20
-263.1244911485551
 30
0.0
 11
102.1371860157233
 21
-263.1244911485551
 31
0.0
  0
LINE
  5
219E
330
2E0
100
AcDbEntity
  8
C4
 62
     3
 48
5.0
100
AcDbLine
 10
98.63718601572328
 20
-285.8744911485551
 30
0.0
 11
98.63718601572328
 21
-262.3744911485551
 31
0.0
  0
LINE
  5
219F
330
2E0
100
AcDbEntity
  8
C4
  6
ByBlock
 62
     3
 48
3.0
100
AcDbLine
 10
102.1371860157233
 20
-280.3744911485548
 30
0.0
 11
102.1371860157233
 21
-285.8744911485551
 31
0.0
1001
ACAD
1000
ASC_BOUNDS
1002
{
1070
    19
1002
}
  0
POINT
  5
21A0
330
2E0
100
AcDbEntity
  8
SUNPOU
  6
ByBlock
 48
3.0
100
AcDbPoint
 10
102.6371860157232
 20
-262.3744911485551
 30
0.0
  0
POINT
  5
21A1
330
2E0
100
AcDbEntity
  8
SUNPOU
 48
3.0
100
AcDbPoint
 10
102.6371860157232
 20
-262.3744911485551
 30
0.0
  0
POINT
  5
21A2
330
2E0
100
AcDbEntity
  8
SUNPOU
  6
ByBlock
 48
3.0
100
AcDbPoint
 10
108.1371860157233
 20
-262.3744911485551
 30
0.0
  0
ARC
  5
21A3
330
2E0
100
AcDbEntity
  8
C4
  6
ByBlock
 62
     3
 48
3.0
100
AcDbCircle
 10
107.3871860157233
 20
-262.3744911485551
 30
0.0
 40
0.75
100
AcDbArc
 50
270.0
 51
90.0
  0
LINE
  5
21A4
330
2E0
100
AcDbEntity
  8
C4
  6
ByBlock
 62
     3
 48
3.0
100
AcDbLine
 10
107.9278133034247
 20
-222.8744911485551
 30
0.0
 11
121.6371860157233
 21
-222.8744911485551
 31
0.0
  0
ARC
  5
21A5
330
2E0
100
AcDbEntity
  8
C4
  6
ByBlock
 62
     3
 48
3.0
100
AcDbCircle
 10
121.6371860157233
 20
-221.8744911485551
 30
0.0
 40
1.0
100
AcDbArc
 50
270.0
 51
0.0
  0
LINE
  5
21A6
330
2E0
100
AcDbEntity
  8
C4
  6
ByBlock
 62
     3
 48
3.0
100
AcDbLine
 10
127.6371860157232
 20
-221.3744911485551
 30
0.0
 11
127.6371860157232
 21
-219.3744911485548
 31
0.0
  0
ARC
  5
21A7
330
2E0
100
AcDbEntity
  8
C4
  6
ByBlock
 62
     3
 48
3.0
100
AcDbCircle
 10
127.1371860157233
 20
-221.3744911485551
 30
0.0
 40
0.5
100
AcDbArc
 50
270.0
 51
0.0
  0
ARC
  5
21A8
330
2E0
100
AcDbEntity
  8
C4
100
AcDbCircle
 10
191.0371860157238
 20
-490.272880361454
 30
0.0
 40
27.9
100
AcDbArc
 50
0.0
 51
90.0
  0
ARC
  5
21A9
330
2E0
100
AcDbEntity
  8
C4
100
AcDbCircle
 10
191.7371860157234
 20
-491.372880361454
 30
0.0
 40
25.0
100
AcDbArc
 50
0.0
 51
90.0
  0
LINE
  5
21AA
330
2E0
100
AcDbEntity
  8
C4
100
AcDbLine
 10
167.7371860157234
 20
-474.372880361454
 30
0.0
 11
210.0674887955467
 21
-474.372880361454
 31
0.0
  0
LINE
  5
21AB
330
2E0
100
AcDbEntity
  8
C4
100
AcDbLine
 10
173.7371860157236
 20
-462.3728803614542
 30
0.0
 11
191.0371860157238
 21
-462.3728803614542
 31
0.0
  0
LINE
  5
21AC
330
2E0
100
AcDbEntity
  8
C4
100
AcDbLine
 10
167.7371860157236
 20
-463.0728803614543
 30
0.0
 11
170.7371860157236
 21
-463.8728803614542
 31
0.0
  0
LINE
  5
21AD
330
2E0
100
AcDbEntity
  8
C4
100
AcDbLine
 10
170.7371860157236
 20
-463.8728803614542
 30
0.0
 11
173.7371860157236
 21
-463.0728803614543
 31
0.0
  0
LINE
  5
21AE
330
2E0
100
AcDbEntity
  8
C4
100
AcDbLine
 10
167.7371860157236
 20
-477.0944401128331
 30
0.0
 11
167.7371860157236
 21
-470.8728803614542
 31
0.0
  0
LINE
  5
21AF
330
2E0
100
AcDbEntity
  8
C4
100
AcDbLine
 10
167.7371860157236
 20
-470.8728803614542
 30
0.0
 11
165.7371860157236
 21
-470.8728803614542
 31
0.0
  0
LINE
  5
21B0
330
2E0
100
AcDbEntity
  8
C4
100
AcDbLine
 10
165.7371860157236
 20
-468.8728803614542
 30
0.0
 11
163.7371860157234
 21
-468.8728803614542
 31
0.0
  0
LINE
  5
21B1
330
2E0
100
AcDbEntity
  8
C4
100
AcDbLine
 10
165.7371860157234
 20
-468.8728803614542
 30
0.0
 11
163.7371860157234
 21
-468.8728803614542
 31
0.0
  0
LINE
  5
21B2
330
2E0
100
AcDbEntity
  8
C4
100
AcDbLine
 10
165.7371860157236
 20
-466.3728803614542
 30
0.0
 11
165.7371860157234
 21
-465.1728803614542
 31
0.0
  0
LINE
  5
21B3
330
2E0
100
AcDbEntity
  8
C4
100
AcDbLine
 10
170.7371860157234
 20
-465.1728803614542
 30
0.0
 11
170.7371860157236
 21
-463.8728803614542
 31
0.0
  0
LINE
  5
21B4
330
2E0
100
AcDbEntity
  8
C4
100
AcDbLine
 10
165.7371860157234
 20
-465.1728803614542
 30
0.0
 11
170.7371860157234
 21
-465.1728803614542
 31
0.0
  0
LINE
  5
21B5
330
2E0
100
AcDbEntity
  8
C4
100
AcDbLine
 10
165.7371860157236
 20
-468.872880361454
 30
0.0
 11
165.7371860157236
 21
-470.8728803614542
 31
0.0
  0
LINE
  5
21B6
330
2E0
100
AcDbEntity
  8
C4
100
AcDbLine
 10
167.7371860157236
 20
-463.0728803614543
 30
0.0
 11
167.7371860157236
 21
-462.3728803614542
 31
0.0
  0
LINE
  5
21B7
330
2E0
100
AcDbEntity
  8
C4
100
AcDbLine
 10
173.7371860157236
 20
-463.0728803614543
 30
0.0
 11
173.7371860157236
 21
-462.3728803614542
 31
0.0
  0
LINE
  5
21B8
330
2E0
100
AcDbEntity
  8
C4
100
AcDbLine
 10
277.6371860157217
 20
-462.8744911485551
 30
0.0
 11
277.6371860157217
 21
-490.2744911485547
 31
0.0
  0
LINE
  5
21B9
330
2E0
100
AcDbEntity
  8
C4
100
AcDbLine
 10
277.1371860157217
 20
-462.3744911485551
 30
0.0
 11
270.6371860157215
 21
-462.3744911485551
 31
0.0
  0
ARC
  5
21BA
330
2E0
100
AcDbEntity
  8
C4
100
AcDbCircle
 10
270.6371860157215
 20
-463.3744911485551
 30
0.0
 40
1.0
100
AcDbArc
 50
90.0
 51
180.0
  0
ARC
  5
21BB
330
2E0
100
AcDbEntity
  8
C4
100
AcDbCircle
 10
277.1371860157217
 20
-462.8744911485551
 30
0.0
 40
0.5
100
AcDbArc
 50
0.0
 51
90.0
  0
LINE
  5
21BC
330
2E0
100
AcDbEntity
  8
C4
  6
ByBlock
 48
3.0
100
AcDbLine
 10
235.6371860157233
 20
-218.6428334536256
 30
0.0
 11
318.1371860157233
 21
-218.6428334536256
 31
0.0
  0
LINE
  5
21BD
330
2E0
100
AcDbEntity
  8
C4
  6
ByBlock
 48
3.0
100
AcDbLine
 10
235.6371860157233
 20
-226.8506967585149
 30
0.0
 11
318.1371860157233
 21
-226.8506967585149
 31
0.0
  0
LINE
  5
21BE
330
2E0
100
AcDbEntity
  8
C4
  6
ByBlock
 48
3.0
100
AcDbLine
 10
247.6371860157233
 20
-297.8982855385948
 30
0.0
 11
235.6371860157233
 21
-297.8982855385948
 31
0.0
  0
LINE
  5
21BF
330
2E0
100
AcDbEntity
  8
C4
  6
ByBlock
 48
3.0
100
AcDbLine
 10
235.6371860157233
 20
-306.1061488434839
 30
0.0
 11
247.6371860157233
 21
-306.1061488434839
 31
0.0
  0
LINE
  5
21C0
330
2E0
100
AcDbEntity
  8
C4
  6
ByBlock
 48
3.0
100
AcDbLine
 10
235.6371860157233
 20
-312.7811782926153
 30
0.0
 11
247.6371860157233
 21
-312.7811782926153
 31
0.0
  0
LINE
  5
21C1
330
2E0
100
AcDbEntity
  8
C4
 62
     3
 48
5.0
100
AcDbLine
 10
235.6371860157233
 20
-314.3744911485549
 30
0.0
 11
247.6371860157233
 21
-314.3744911485549
 31
0.0
  0
LINE
  5
21C2
330
2E0
100
AcDbEntity
  8
C4
 62
     3
 48
5.0
100
AcDbLine
 10
170.6371860157233
 20
-227.8901314372195
 30
0.0
 11
170.6371860157233
 21
-298.0396425384668
 31
0.0
1001
ACAD
1000
ASC_BOUNDS
1002
{
1070
    19
1002
}
  0
LINE
  5
21C3
330
2E0
100
AcDbEntity
  8
C4
  6
ByBlock
 62
     3
 48
3.0
100
AcDbLine
 10
174.6371860157232
 20
-288.8744911485551
 30
0.0
 11
174.6371860157232
 21
-360.3744911485551
 31
0.0
  0
LINE
  5
21C4
330
2E0
100
AcDbEntity
  8
C4
 48
2.0
100
AcDbLine
 10
172.7341743285058
 20
-298.7354325813415
 30
0.0
 11
172.7341743285055
 21
-351.3744911485549
 31
0.0
  0
LINE
  5
21C5
330
2E0
100
AcDbEntity
  8
C4
 48
2.0
100
AcDbLine
 10
167.3148555453872
 20
-307.1629298848443
 30
0.0
 11
167.314855545387
 21
-351.3744911485549
 31
0.0
  0
LINE
  5
21C6
330
2E0
100
AcDbEntity
  8
C4
 62
     3
 48
5.0
100
AcDbLine
 10
235.6371860157233
 20
-291.8706911472905
 30
0.0
 11
235.6371860157233
 21
-314.3744911485549
 31
0.0
  0
LINE
  5
21C7
330
2E0
100
AcDbEntity
  8
C4
  6
ByBlock
 62
     3
 48
3.0
100
AcDbLine
 10
234.6371860157233
 20
-315.3744911485548
 30
0.0
 11
227.6371860157233
 21
-315.3744911485548
 31
0.0
  0
ARC
  5
21C8
330
2E0
100
AcDbEntity
  8
C4
  6
ByBlock
 62
     3
 48
5.0
100
AcDbCircle
 10
227.6371860157233
 20
-314.3744911485549
 30
0.0
 40
1.0
100
AcDbArc
 50
180.0
 51
270.0
  0
ARC
  5
21C9
330
2E0
100
AcDbEntity
  8
C4
  6
ByBlock
 62
     3
 48
3.0
100
AcDbCircle
 10
234.6371860157233
 20
-314.3744911485549
 30
0.0
 40
1.0
100
AcDbArc
 50
270.0
 51
0.0
  0
LINE
  5
21CA
330
2E0
100
AcDbEntity
  8
C4
 62
     3
 48
5.0
100
AcDbLine
 10
174.6371860157232
 20
-235.8744911485548
 30
0.0
 11
174.6371860157232
 21
-281.8744911485548
 31
0.0
1001
ACAD
1000
ASC_BOUNDS
1002
{
1070
    19
1002
}
  0
LINE
  5
21CB
330
2E0
100
AcDbEntity
  8
C4
 62
     3
 48
5.0
100
AcDbLine
 10
172.1371860157232
 20
-235.8744911485548
 30
0.0
 11
172.1371860157232
 21
-262.3744911485549
 31
0.0
1001
ACAD
1000
ASC_BOUNDS
1002
{
1070
    19
1002
}
  0
LINE
  5
21CC
330
2E0
100
AcDbEntity
  8
C4
 48
2.0
100
AcDbLine
 10
172.6371860157233
 20
-281.8862248198743
 30
0.0
 11
172.6371860157233
 21
-262.3744911485549
 31
0.0
  0
LINE
  5
21CD
330
2E0
100
AcDbEntity
  8
C4
  6
ByBlock
 62
     3
 48
3.0
100
AcDbLine
 10
172.6371860157233
 20
-281.8862248198743
 30
0.0
 11
172.6371860157233
 21
-288.8744911485549
 31
0.0
  0
LINE
  5
21CE
330
2E0
100
AcDbEntity
  8
C4
  6
ByBlock
 62
     3
 48
3.0
100
AcDbLine
 10
174.6371860157232
 20
-281.8744911485548
 30
0.0
 11
174.6371860157232
 21
-288.8744911485551
 31
0.0
  0
POINT
  5
21CF
330
2E0
100
AcDbEntity
  8
SUNPOU
 48
3.0
100
AcDbPoint
 10
174.6371860157232
 20
-271.1798143623378
 30
0.0
  0
ARC
  5
21D0
330
2E0
100
AcDbEntity
  8
C4
 48
5.0
100
AcDbCircle
 10
247.6371860157233
 20
-339.3744911485549
 30
0.0
 40
33.2683423050708
100
AcDbArc
 50
0.0
 51
45.00000000000921
  0
ARC
  5
21D1
330
2E0
100
AcDbEntity
  8
C4
 48
5.0
100
AcDbCircle
 10
247.6371860157233
 20
-339.3744911485549
 30
0.0
 40
41.47620560996005
100
AcDbArc
 50
0.0
 51
45.00000000000921
  0
LINE
  5
21D2
330
2E0
100
AcDbEntity
  8
C4
 62
     3
 48
5.0
100
AcDbLine
 10
295.1409860169876
 20
-351.3744911485549
 30
0.0
 11
272.6371860157233
 21
-351.3744911485549
 31
0.0
  0
ARC
  5
21D3
330
2E0
100
AcDbEntity
  8
C4
 48
5.0
100
AcDbCircle
 10
247.6371860157233
 20
-339.3744911485549
 30
0.0
 40
26.59331285593964
100
AcDbArc
 50
0.0
 51
45.00000000000921
  0
ARC
  5
21D4
330
2E0
100
AcDbEntity
  8
C4
 62
     3
 48
5.0
100
AcDbCircle
 10
247.6371860157233
 20
-339.3744911485549
 30
0.0
 40
25.0
100
AcDbArc
 50
0.0
 51
45.00000000000921
  0
LINE
  5
21D5
330
2E0
100
AcDbEntity
  8
C4
 62
     3
 48
5.0
100
AcDbLine
 10
272.6371860157233
 20
-351.3744911485549
 30
0.0
 11
272.6371860157233
 21
-339.3744911485549
 31
0.0
  0
LINE
  5
21D6
330
2E0
100
AcDbEntity
  8
C4
  6
ByBlock
 48
3.0
100
AcDbLine
 10
274.2304988716628
 20
-351.3744911485549
 30
0.0
 11
274.2304988716628
 21
-339.3744911485549
 31
0.0
  0
LINE
  5
21D7
330
2E0
100
AcDbEntity
  8
C4
  6
ByBlock
 48
3.0
100
AcDbLine
 10
280.905528320794
 20
-351.3744911485549
 30
0.0
 11
280.905528320794
 21
-339.3744911485549
 31
0.0
  0
ARC
  5
21D8
330
2E0
100
AcDbEntity
  8
C4
  6
ByBlock
 62
     3
 48
3.0
100
AcDbCircle
 10
272.6371860157233
 20
-352.3744911485549
 30
0.0
 40
1.0
100
AcDbArc
 50
90.0
 51
180.0
  0
ARC
  5
21D9
330
2E0
100
AcDbEntity
  8
C4
  6
ByBlock
 62
     3
 48
5.0
100
AcDbCircle
 10
272.6371860157233
 20
-359.3744911485548
 30
0.0
 40
1.0
100
AcDbArc
 50
180.0
 51
270.0
  0
LINE
  5
21DA
330
2E0
100
AcDbEntity
  8
C4
  6
ByBlock
 62
     3
 48
3.0
100
AcDbLine
 10
271.6371860157233
 20
-352.3744911485549
 30
0.0
 11
271.6371860157233
 21
-359.3744911485548
 31
0.0
  0
ARC
  5
21DB
330
2E0
100
AcDbEntity
  8
C4
 48
5.0
100
AcDbCircle
 10
247.6371860157233
 20
-339.3744911485549
 30
0.0
 40
26.59331285593964
100
AcDbArc
 50
45.00000000000921
 51
90.0
  0
ARC
  5
21DC
330
2E0
100
AcDbEntity
  8
C4
 62
     3
 48
5.0
100
AcDbCircle
 10
247.6371860157233
 20
-339.3744911485549
 30
0.0
 40
25.0
100
AcDbArc
 50
45.00000000000921
 51
90.0
  0
ARC
  5
21DD
330
2E0
100
AcDbEntity
  8
C4
 48
5.0
100
AcDbCircle
 10
247.6371860157233
 20
-339.3744911485549
 30
0.0
 40
41.47620560996005
100
AcDbArc
 50
45.00000000000921
 51
90.0
  0
ARC
  5
21DE
330
2E0
100
AcDbEntity
  8
C4
 48
5.0
100
AcDbCircle
 10
247.6371860157233
 20
-339.3744911485549
 30
0.0
 40
33.2683423050708
100
AcDbArc
 50
45.00000000000921
 51
90.0
  0
LINE
  5
21DF
330
2E0
100
AcDbEntity
  8
C4
  6
ByBlock
 48
3.0
100
AcDbLine
 10
289.1133916256836
 20
-339.3744911485549
 30
0.0
 11
289.1133916256836
 21
-351.3744911485549
 31
0.0
  0
CIRCLE
  5
21E0
330
2E0
100
AcDbEntity
  8
C4
  6
ByBlock
 62
     3
 48
3.0
100
AcDbCircle
 10
264.6371860157233
 20
-262.3744911485549
 30
0.0
 40
2.0
  0
ARC
  5
21E1
330
2E0
100
AcDbEntity
  8
C4
100
AcDbCircle
 10
403.2057285106475
 20
-518.8059486536315
 30
0.0
 40
2.0
100
AcDbArc
 50
225.0000000000092
 51
45.00000000000921
  0
LINE
  5
21E2
330
2E0
100
AcDbEntity
  8
C4
100
AcDbLine
 10
458.9371860157235
 20
-513.0744911485558
 30
0.0
 11
458.9371860157229
 21
-644.3728803614547
 31
0.0
  0
LINE
  5
21E3
330
2E0
100
AcDbEntity
  8
1外形線
 48
3.0
100
AcDbLine
 10
439.546494092895
 20
-644.3728803614544
 30
0.0
 11
439.5464940928993
 21
-513.0744911485556
 31
0.0
  0
LINE
  5
21E4
330
2E0
100
AcDbEntity
  8
1外形線
 48
3.0
100
AcDbLine
 10
449.6785113690529
 20
-644.3728803614547
 30
0.0
 11
449.678511369057
 21
-513.0744911485556
 31
0.0
  0
LINE
  5
21E5
330
2E0
100
AcDbEntity
  8
1外形線
 48
3.0
100
AcDbLine
 10
456.3885861725375
 20
-644.3728803614547
 30
0.0
 11
456.3885861725418
 21
-513.0744911485556
 31
0.0
  0
LINE
  5
21E6
330
2E0
100
AcDbEntity
  8
1外形線
 48
3.0
100
AcDbLine
 10
323.5958606623951
 20
-644.3728803614544
 30
0.0
 11
323.5958606623949
 21
-637.6744911485555
 31
0.0
  0
LINE
  5
21E7
330
2E0
100
AcDbEntity
  8
1外形線
 48
3.0
100
AcDbLine
 10
333.7278779385526
 20
-644.3728803614544
 30
0.0
 11
333.7278779385524
 21
-637.6744911485555
 31
0.0
  0
ARC
  5
21E8
330
2E0
100
AcDbEntity
  8
C4
100
AcDbCircle
 10
346.6371860157235
 20
-575.3744911485555
 30
0.0
 40
2.0
100
AcDbArc
 50
225.0000000000092
 51
45.00000000000921
  0
ARC
  5
21E9
330
2E0
100
AcDbEntity
  8
C4
100
AcDbCircle
 10
346.6371860157233
 20
-575.3744911485548
 30
0.0
 40
2.0
100
AcDbArc
 50
45.00000000000921
 51
225.0000000000092
  0
LINE
  5
21EA
330
2E0
100
AcDbEntity
  8
C4
100
AcDbLine
 10
459.1682323943419
 20
-644.3728803614547
 30
0.0
 11
431.7682323943422
 21
-644.3728803614544
 31
0.0
  0
ARC
  5
21EB
330
2E0
100
AcDbEntity
  8
C4
100
AcDbCircle
 10
458.6682323943419
 20
-651.3728803614546
 30
0.0
 40
1.0
100
AcDbArc
 50
270.0
 51
0.0
  0
LINE
  5
21EC
330
2E0
100
AcDbEntity
  8
C4
100
AcDbLine
 10
459.6682323943419
 20
-644.8728803614547
 30
0.0
 11
459.6682323943419
 21
-651.3728803614546
 31
0.0
  0
ARC
  5
21ED
330
2E0
100
AcDbEntity
  8
C4
100
AcDbCircle
 10
459.1682323943419
 20
-644.8728803614547
 30
0.0
 40
0.5
100
AcDbArc
 50
0.0
 51
90.0
  0
ARC
  5
21EE
330
2E0
100
AcDbEntity
  8
C4
100
AcDbCircle
 10
408.9371860157234
 20
-513.0744911485556
 30
0.0
 40
30.60930807717599
100
AcDbArc
 50
0.0
 51
45.00000000000921
  0
ARC
  5
21EF
330
2E0
100
AcDbEntity
  8
C4
100
AcDbCircle
 10
408.9371860157234
 20
-513.0744911485556
 30
0.0
 40
40.74132535333389
100
AcDbArc
 50
0.0
 51
45.00000000000921
  0
ARC
  5
21F0
330
2E0
100
AcDbEntity
  8
C4
100
AcDbCircle
 10
408.9371860157234
 20
-513.0744911485553
 30
0.0
 40
40.74132535333389
100
AcDbArc
 50
45.00000000000921
 51
90.0
  0
ARC
  5
21F1
330
2E0
100
AcDbEntity
  8
C4
100
AcDbCircle
 10
408.9371860157234
 20
-513.0744911485553
 30
0.0
 40
47.45140015681849
100
AcDbArc
 50
45.00000000000921
 51
90.0
  0
ARC
  5
21F2
330
2E0
100
AcDbEntity
  8
C4
100
AcDbCircle
 10
408.9371860157234
 20
-513.0744911485553
 30
0.0
 40
50.0
100
AcDbArc
 50
45.00000000000921
 51
90.0
  0
ARC
  5
21F3
330
2E0
100
AcDbEntity
  8
C4
100
AcDbCircle
 10
408.9371860157234
 20
-513.0744911485553
 30
0.0
 40
30.60930807717599
100
AcDbArc
 50
45.00000000000921
 51
90.0
  0
ARC
  5
21F4
330
2E0
100
AcDbEntity
  8
C4
100
AcDbCircle
 10
403.2057285106475
 20
-518.805948653631
 30
0.0
 40
2.0
100
AcDbArc
 50
45.00000000000921
 51
225.0000000000092
  0
ARC
  5
21F5
330
2E0
100
AcDbEntity
  8
C4
100
AcDbCircle
 10
408.9371860157234
 20
-513.0744911485556
 30
0.0
 40
50.0
100
AcDbArc
 50
0.0
 51
45.00000000000921
  0
ARC
  5
21F6
330
2E0
100
AcDbEntity
  8
C4
100
AcDbCircle
 10
408.9371860157234
 20
-513.0744911485556
 30
0.0
 40
47.45140015681849
100
AcDbArc
 50
0.0
 51
45.00000000000921
  0
LINE
  5
21F7
330
2E0
100
AcDbEntity
  8
C4
 62
     3
 48
5.0
100
AcDbLine
 10
376.6371860157233
 20
-268.8744911485549
 30
0.0
 11
376.6371860157233
 21
-351.3744911485549
 31
0.0
  0
LINE
  5
21F8
330
2E0
100
AcDbEntity
  8
C4
  6
ByBlock
 48
3.0
100
AcDbLine
 10
360.160980405763
 20
-351.3744911485549
 30
0.0
 11
360.1609804057634
 21
-269.3744911485548
 31
0.0
  0
LINE
  5
21F9
330
2E0
100
AcDbEntity
  8
C4
  6
ByBlock
 48
3.0
100
AcDbLine
 10
368.3688437106525
 20
-351.3744911485549
 30
0.0
 11
368.3688437106525
 21
-270.3744911485549
 31
0.0
  0
LINE
  5
21FA
330
2E0
100
AcDbEntity
  8
C4
  6
ByBlock
 48
3.0
100
AcDbLine
 10
375.0438731597837
 20
-351.3744911485549
 30
0.0
 11
375.0438731597837
 21
-270.3744911485549
 31
0.0
  0
LINE
  5
21FB
330
2E0
100
AcDbEntity
  8
C4
 62
     3
 48
5.0
100
AcDbLine
 10
376.6371860157233
 20
-351.3744911485549
 30
0.0
 11
354.1333860144591
 21
-351.3744911485549
 31
0.0
  0
CIRCLE
  5
21FC
330
2E0
100
AcDbEntity
  8
C4
  6
ByBlock
 62
     3
 48
3.0
100
AcDbCircle
 10
324.6371860157233
 20
-322.3744911485549
 30
0.0
 40
2.0
  0
ARC
  5
21FD
330
2E0
100
AcDbEntity
  8
C4
  6
ByBlock
 62
     3
 48
3.0
100
AcDbCircle
 10
376.6371860157233
 20
-352.3744911485546
 30
0.0
 40
1.0
100
AcDbArc
 50
0.0
 51
90.0
  0
ARC
  5
21FE
330
2E0
100
AcDbEntity
  8
C4
  6
ByBlock
 62
     3
 48
3.0
100
AcDbCircle
 10
376.6371860157233
 20
-359.3744911485548
 30
0.0
 40
1.0
100
AcDbArc
 50
270.0
 51
0.0
  0
LINE
  5
21FF
330
2E0
100
AcDbEntity
  8
C4
  6
ByBlock
 62
     3
 48
3.0
100
AcDbLine
 10
377.6371860157233
 20
-352.3744911485546
 30
0.0
 11
377.6371860157233
 21
-359.3744911485548
 31
0.0
  0
ARC
  5
2200
330
2E0
100
AcDbEntity
  8
C4
 48
5.0
100
AcDbCircle
 10
316.6371860157233
 20
-270.3744911485549
 30
0.0
 40
51.7316576949292
100
AcDbArc
 50
0.0
 51
45.00000000000921
  0
ARC
  5
2201
330
2E0
100
AcDbEntity
  8
C4
 48
5.0
100
AcDbCircle
 10
316.6371860157233
 20
-270.3744911485549
 30
0.0
 40
58.40668714406053
100
AcDbArc
 50
0.0
 51
45.00000000000921
  0
ARC
  5
2202
330
2E0
100
AcDbEntity
  8
C4
 48
5.0
100
AcDbCircle
 10
316.6371860157233
 20
-270.3744911485549
 30
0.0
 40
43.52379439004003
100
AcDbArc
 50
0.0
 51
45.00000000000921
  0
ARC
  5
2203
330
2E0
100
AcDbEntity
  8
C4
 62
     3
 48
5.0
100
AcDbCircle
 10
316.6371860157233
 20
-270.3744911485549
 30
0.0
 40
60.0
100
AcDbArc
 50
0.0
 51
45.00000000000921
  0
ARC
  5
2204
330
2E0
100
AcDbEntity
  8
1外形線
100
AcDbCircle
 10
114.7371860157234
 20
-36.97449114855499
 30
0.0
 40
24.19999999999999
100
AcDbArc
 50
270.0
 51
0.0
  0
ARC
  5
2205
330
2E0
100
AcDbEntity
  8
1外形線
100
AcDbCircle
 10
99.96863506088311
 20
-35.03633478145969
 30
0.0
 40
26.49010365426367
100
AcDbArc
 50
176.1864711060982
 51
260.8083703110963
  0
LINE
  5
2206
330
2E0
100
AcDbEntity
  8
1外形線
100
AcDbLine
 10
132.1320128329125
 20
-53.79887821019849
 30
0.0
 11
132.1320128329125
 21
-102.1744911485542
 31
0.0
  0
LINE
  5
2207
330
2E0
100
AcDbEntity
  8
1外形線
100
AcDbLine
 10
124.1511984519047
 20
-59.26835509923489
 30
0.0
 11
124.1511984519047
 21
-102.1744911485542
 31
0.0
  0
LINE
  5
2208
330
2E0
100
AcDbEntity
  8
1外形線
100
AcDbLine
 10
98.73718601572342
 20
-60.67449114855481
 30
0.0
 11
98.73718601572342
 21
-108.1744911485543
 31
0.0
  0
LINE
  5
2209
330
2E0
100
AcDbEntity
  8
1外形線
100
AcDbLine
 10
95.73718601572522
 20
-61.18629521339665
 30
0.0
 11
95.73718601572341
 21
-108.1744911485543
 31
0.0
  0
LINE
  5
220A
330
2E0
100
AcDbEntity
  8
1外形線
100
AcDbLine
 10
101.7371860157236
 20
-61.17449114855492
 30
0.0
 11
101.7371860157234
 21
-108.1744911485543
 31
0.0
  0
LINE
  5
220B
330
2E0
100
AcDbEntity
  8
1外形線
100
AcDbLine
 10
137.4646225155011
 20
-45.28735047303359
 30
0.0
 11
137.4646225155011
 21
-102.1744911485542
 31
0.0
  0
LINE
  5
220C
330
2E0
100
AcDbEntity
  8
1外形線
100
AcDbLine
 10
138.9371860157234
 20
-37.9744911485551
 30
0.0
 11
138.9371860157234
 21
-108.1744911485543
 31
0.0
  0
LINE
  5
220D
330
2E0
100
AcDbEntity
  8
1外形線
100
AcDbLine
 10
90.17118626891102
 20
-59.64803095995012
 30
0.0
 11
90.17118626891102
 21
-65.04588044467595
 31
0.0
  0
LINE
  5
220E
330
2E0
100
AcDbEntity
  8
1外形線
100
AcDbLine
 10
75.23417390487589
 20
-44.51958437933512
 30
0.0
 11
75.23417390487589
 21
-102.1744911485542
 31
0.0
  0
LINE
  5
220F
330
2E0
100
AcDbEntity
  8
1外形線
100
AcDbLine
 10
73.53718601572359
 20
-37.79817841435443
 30
0.0
 11
73.53718601572359
 21
-102.1744911485542
 31
0.0
  0
LWPOLYLINE
  5
2210
330
2E0
100
AcDbEntity
  8
1外形線
100
AcDbPolyline
 90
        6
 70
     1
 43
0.0
 10
80.75951653049742
 20
-60.22103756379999
 42
0.2160275008077852
 10
76.86038741175889
 20
-58.61012486032587
 42
0.4849283798884294
 10
75.73452816130998
 20
-60.14126091877449
 10
75.84000211072316
 20
-60.52384991734493
 42
0.3294155435964417
 10
91.73718601572181
 20
-72.99865295266727
 10
91.7371860157209
 20
-65.22047835961507
 42
-0.1833530852602947
  0
LINE
  5
2211
330
2E0
100
AcDbEntity
  8
1外形線
100
AcDbLine
 10
138.9371860157234
 20
-108.1744911485543
 30
0.0
 11
73.83718601572354
 21
-108.1744911485543
 31
0.0
  0
LINE
  5
2212
330
2E0
100
AcDbEntity
  8
1外形線
100
AcDbLine
 10
73.23718601572341
 20
-102.1744911485542
 30
0.0
 11
95.73718601572318
 21
-102.1744911485542
 31
0.0
  0
LINE
  5
2213
330
2E0
100
AcDbEntity
  8
C4
  6
ByBlock
 62
     3
 48
3.0
100
AcDbLine
 10
38.63718601572282
 20
-209.3744911485546
 30
0.0
 11
45.63718601572282
 21
-209.3744911485544
 31
0.0
  0
LINE
  5
2214
330
2E0
100
AcDbEntity
  8
C4
  6
ByBlock
 62
     3
 48
3.0
100
AcDbLine
 10
37.63718601572282
 20
-210.3744911485546
 30
0.0
 11
25.13718601572282
 21
-210.3744911485546
 31
0.0
  0
LINE
  5
2215
330
2E0
100
AcDbEntity
  8
C4
  6
ByBlock
 48
3.0
100
AcDbLine
 10
37.63718601572282
 20
-211.9678040044941
 30
0.0
 11
24.63718601572282
 21
-211.9678040044941
 31
0.0
  0
LINE
  5
2216
330
2E0
100
AcDbEntity
  8
C4
  6
ByBlock
 62
     3
 48
3.0
100
AcDbLine
 10
15.13718601572282
 20
-210.3744911485549
 30
0.0
 11
25.13718601572282
 21
-210.3744911485546
 31
0.0
  0
ARC
  5
2217
330
2E0
100
AcDbEntity
  8
C4
  6
ByBlock
 62
     3
 48
5.0
100
AcDbCircle
 10
15.13718601572282
 20
-210.8744911485546
 30
0.0
 40
0.5
100
AcDbArc
 50
0.0
 51
90.0
  0
ARC
  5
2218
330
2E0
100
AcDbEntity
  8
C4
  6
ByBlock
 62
     3
 48
3.0
100
AcDbCircle
 10
25.13718601572282
 20
-210.8744911485546
 30
0.0
 40
0.5
100
AcDbArc
 50
90.0
 51
180.0
  0
ARC
  5
2219
330
2E0
100
AcDbEntity
  8
C4
  6
ByBlock
 62
     3
 48
3.0
100
AcDbCircle
 10
38.63718601572282
 20
-210.3744911485546
 30
0.0
 40
1.0
100
AcDbArc
 50
90.0
 51
180.0
  0
ARC
  5
221A
330
2E0
100
AcDbEntity
  8
C4
  6
ByBlock
 62
     3
 48
3.0
100
AcDbCircle
 10
45.63718601572282
 20
-210.3744911485546
 30
0.0
 40
1.0
100
AcDbArc
 50
0.0
 51
90.0
  0
ARC
  5
221B
330
2E0
100
AcDbEntity
  8
1外形線
100
AcDbCircle
 10
73.23718601572341
 20
-102.5744911485541
 30
0.0
 40
0.4
100
AcDbArc
 50
90.0
 51
180.0
  0
ARC
  5
221C
330
2E0
100
AcDbEntity
  8
1外形線
100
AcDbCircle
 10
73.83718601572354
 20
-107.1744911485542
 30
0.0
 40
1.0
100
AcDbArc
 50
180.0
 51
270.0
  0
LINE
  5
221D
330
2E0
100
AcDbEntity
  8
1外形線
100
AcDbLine
 10
72.83718601572354
 20
-107.1744911485542
 30
0.0
 11
72.83718601572354
 21
-102.5744911485541
 31
0.0
  0
LINE
  5
221E
330
2E0
100
AcDbEntity
  8
1外形線
100
AcDbLine
 10
81.21710184143877
 20
-68.95745393596712
 30
0.0
 11
81.21710184143877
 21
-102.1744911485542
 31
0.0
  0
LINE
  5
221F
330
2E0
100
AcDbEntity
  8
C4
 62
     3
 48
5.0
100
AcDbLine
 10
135.6371860157232
 20
-209.3744911485548
 30
0.0
 11
148.1371860157232
 21
-209.3744911485548
 31
0.0
  0
LINE
  5
2220
330
2E0
100
AcDbEntity
  8
C4
 62
     3
 48
5.0
100
AcDbLine
 10
127.6371860157232
 20
-213.8744911485551
 30
0.0
 11
150.6371860157232
 21
-213.8744911485549
 31
0.0
  0
LINE
  5
2221
330
2E0
100
AcDbEntity
  8
C4
  6
ByBlock
 62
     3
 48
3.0
100
AcDbLine
 10
132.6371860157232
 20
-212.1744911485549
 30
0.0
 11
135.6371860157232
 21
-210.3744911485549
 31
0.0
  0
LINE
  5
2222
330
2E0
100
AcDbEntity
  8
C4
  6
ByBlock
 62
     3
 48
3.0
100
AcDbLine
 10
129.6371860157232
 20
-210.3744911485551
 30
0.0
 11
129.6371860157232
 21
-209.3787287410497
 31
0.0
  0
LINE
  5
2223
330
2E0
100
AcDbEntity
  8
C4
 62
     3
 48
5.0
100
AcDbLine
 10
128.6371860157232
 20
-209.3787287410497
 30
0.0
 11
129.6371860157232
 21
-209.3744911485551
 31
0.0
  0
POINT
  5
2224
330
2E0
100
AcDbEntity
  8
SUNPOU
 48
3.0
100
AcDbPoint
 10
127.6371860157232
 20
-213.8744911485551
 30
0.0
  0
LINE
  5
2225
330
2E0
100
AcDbEntity
  8
C4
  6
ByBlock
 62
     3
 48
3.0
100
AcDbLine
 10
132.6371860157232
 20
-212.6744911485549
 30
0.0
 11
132.6371860157232
 21
-212.1744911485549
 31
0.0
  0
LINE
  5
2226
330
2E0
100
AcDbEntity
  8
C4
  6
ByBlock
 62
     3
 48
3.0
100
AcDbLine
 10
132.6371860157232
 20
-212.1744911485549
 30
0.0
 11
129.6371860157232
 21
-210.3744911485551
 31
0.0
  0
LINE
  5
2227
330
2E0
100
AcDbEntity
  8
C4
 62
     3
 48
5.0
100
AcDbLine
 10
127.6371860157232
 20
-212.6744911485549
 30
0.0
 11
132.6371860157232
 21
-212.6744911485549
 31
0.0
  0
LINE
  5
2228
330
2E0
100
AcDbEntity
  8
C4
  6
ByBlock
 62
     3
 48
3.0
100
AcDbLine
 10
135.6371860157232
 20
-210.3744911485549
 30
0.0
 11
135.6371860157232
 21
-209.3744911485548
 31
0.0
  0
POINT
  5
2229
330
2E0
100
AcDbEntity
  8
SUNPOU
 48
3.0
100
AcDbPoint
 10
135.6371860157232
 20
-209.3744911485548
 30
0.0
  0
LINE
  5
222A
330
2E0
100
AcDbEntity
  8
1外形線
100
AcDbLine
 10
101.7371860157234
 20
-102.1744911485542
 30
0.0
 11
138.9371860157234
 21
-102.1744911485542
 31
0.0
  0
LINE
  5
222B
330
2E0
100
AcDbEntity
  8
1外形線
100
AcDbLine
 10
90.17118626891102
 20
-72.88079721133295
 30
0.0
 11
90.17118626891102
 21
-102.1744911485542
 31
0.0
  0
ARC
  5
222C
330
2E0
100
AcDbEntity
  8
1外形線
100
AcDbCircle
 10
100.7369857812502
 20
-7.174549549369999
 30
0.0
 40
25.0
100
AcDbArc
 50
106.2597266842994
 51
179.7706824249008
  0
ARC
  5
222D
330
2E0
100
AcDbEntity
  8
1外形線
100
AcDbCircle
 10
99.96863506088244
 20
-6.312647515649018
 30
0.0
 40
26.49010365426367
100
AcDbArc
 50
99.19162968890368
 51
183.8135288939147
  0
LINE
  5
222E
330
2E0
100
AcDbEntity
  8
1外形線
100
AcDbLine
 10
78.77102956744784
 20
4.762651446396375
 30
0.0
 11
100.7371860157234
 21
5.823179242068022
 31
0.0
  0
ARC
  5
222F
330
2E0
100
AcDbEntity
  8
1外形線
100
AcDbCircle
 10
100.7369857812502
 20
-34.17443274773996
 30
0.0
 40
25.0
100
AcDbArc
 50
180.2293175750861
 51
253.7402733157006
  0
LINE
  5
2230
330
2E0
100
AcDbEntity
  8
C4
100
AcDbLine
 10
17.1371860157235
 20
19.4255088514451
 30
0.0
 11
17.1371860157235
 21
-60.77449114855506
 31
0.0
  0
LINE
  5
2231
330
2E0
100
AcDbEntity
  8
C4
100
AcDbLine
 10
23.1371860157235
 20
18.82550885144496
 30
0.0
 11
23.1371860157235
 21
-60.17449114855503
 31
0.0
  0
ARC
  5
2232
330
2E0
100
AcDbEntity
  8
C4
100
AcDbCircle
 10
17.53718601572359
 20
-60.77449114855506
 30
0.0
 40
0.4
100
AcDbArc
 50
180.0
 51
270.0
  0
ARC
  5
2233
330
2E0
100
AcDbEntity
  8
C4
100
AcDbCircle
 10
22.1371860157235
 20
-60.17449114855503
 30
0.0
 40
1.0
100
AcDbArc
 50
270.0
 51
0.0
  0
LINE
  5
2234
330
2E0
100
AcDbEntity
  8
C4
100
AcDbLine
 10
22.1371860157235
 20
-61.17449114855503
 30
0.0
 11
17.53718601572359
 21
-61.17449114855503
 31
0.0
  0
LINE
  5
2235
330
2E0
100
AcDbEntity
  8
1外形線
100
AcDbLine
 10
77.7371860157234
 20
-21.67449114855504
 30
0.0
 11
77.7371860157234
 21
-43.97286174149553
 31
0.0
  0
LINE
  5
2236
330
2E0
100
AcDbEntity
  8
1外形線
100
AcDbLine
 10
75.73718601572341
 20
-20.67449114855504
 30
0.0
 11
75.73718601572341
 21
-34.27449114855472
 31
0.0
  0
LINE
  5
2237
330
2E0
100
AcDbEntity
  8
1外形線
100
AcDbLine
 10
73.53718601572359
 20
-20.67449114855504
 30
0.0
 11
73.53718601572359
 21
-37.79817841435443
 31
0.0
  0
LINE
  5
2238
330
2E0
100
AcDbEntity
  8
1外形線
100
AcDbLine
 10
81.21710184143877
 20
-53.74744360840281
 30
0.0
 11
81.21710184143877
 21
-60.66586222635897
 31
0.0
  0
LINE
  5
2239
330
2E0
100
AcDbEntity
  8
1外形線
100
AcDbLine
 10
77.73718601572364
 20
2.623879444386375
 30
0.0
 11
77.73718601572364
 21
-19.67449114855503
 31
0.0
  0
LINE
  5
223A
330
2E0
100
AcDbEntity
  8
1外形線
100
AcDbLine
 10
73.53718601572359
 20
-20.67449114855504
 30
0.0
 11
73.53718601572359
 21
-7.074491148554898
 31
0.0
  0
LINE
  5
223B
330
2E0
100
AcDbEntity
  8
1外形線
100
AcDbLine
 10
75.73718601572341
 20
-7.074491148557626
 30
0.0
 11
75.73718601572341
 21
-20.67449114855504
 31
0.0
  0
LINE
  5
223C
330
2E0
100
AcDbEntity
  8
1外形線
  6
Continuous
 48
2.0
100
AcDbLine
 10
75.73718601572341
 20
-19.67449114855503
 30
0.0
 11
78.73718601572341
 21
-19.67449114855503
 31
0.0
  0
LINE
  5
223D
330
2E0
100
AcDbEntity
  8
1外形線
  6
Continuous
 48
2.0
100
AcDbLine
 10
75.73718601572341
 20
-21.67449114855504
 30
0.0
 11
78.73718601572341
 21
-21.67449114855504
 31
0.0
  0
ARC
  5
223E
330
2E0
100
AcDbEntity
  8
1外形線
 48
2.0
100
AcDbCircle
 10
78.73718601572341
 20
-20.67449114855504
 30
0.0
 40
1.0
100
AcDbArc
 50
270.0
 51
90.0
  0
ARC
  5
223F
330
2E0
100
AcDbEntity
  8
C4
100
AcDbCircle
 10
17.53718601572336
 20
19.4255088514451
 30
0.0
 40
0.4
100
AcDbArc
 50
90.0
 51
180.0
  0
ARC
  5
2240
330
2E0
100
AcDbEntity
  8
C4
100
AcDbCircle
 10
22.1371860157235
 20
18.82550885144496
 30
0.0
 40
1.0
100
AcDbArc
 50
0.0
 51
90.0
  0
LINE
  5
2241
330
2E0
100
AcDbEntity
  8
C4
100
AcDbLine
 10
22.1371860157235
 20
19.82550885144496
 30
0.0
 11
17.53718601572336
 21
19.82550885144496
 31
0.0
  0
LINE
  5
2242
330
2E0
100
AcDbEntity
  8
1外形線
100
AcDbLine
 10
100.7371860157234
 20
12.32550885144496
 30
0.0
 11
100.7371860157234
 21
5.823179242068022
 31
0.0
  0
ARC
  5
2243
330
2E0
100
AcDbEntity
  8
1外形線
100
AcDbCircle
 10
114.7371860157234
 20
-5.174491148555034
 30
0.0
 40
22.0
100
AcDbArc
 50
0.0
 51
90.0
  0
ARC
  5
2244
330
2E0
100
AcDbEntity
  8
1外形線
100
AcDbCircle
 10
114.7371860157234
 20
-4.374491148554625
 30
0.0
 40
24.19999999999999
100
AcDbArc
 50
0.0
 51
90.0
  0
LINE
  5
2245
330
2E0
100
AcDbEntity
  8
1外形線
100
AcDbLine
 10
100.7371860157234
 20
8.825508851444965
 30
0.0
 11
131.7077487642007
 21
8.825508851444965
 31
0.0
  0
LINE
  5
2246
330
2E0
100
AcDbEntity
  8
1外形線
100
AcDbLine
 10
102.7371860157234
 20
-56.17449114855492
 30
0.0
 11
123.9023374056353
 21
-56.17449114855492
 31
0.0
  0
ARC
  5
2247
330
2E0
100
AcDbEntity
  8
1外形線
100
AcDbCircle
 10
114.7371860157234
 20
-36.17449114855503
 30
0.0
 40
22.0
100
AcDbArc
 50
270.0
 51
0.0
  0
LINE
  5
2248
330
2E0
100
AcDbEntity
  8
1外形線
100
AcDbLine
 10
101.7371860157234
 20
-61.17449114855503
 30
0.0
 11
114.7371860157234
 21
-61.17449114855503
 31
0.0
  0
LINE
  5
2249
330
2E0
100
AcDbEntity
  8
1外形線
100
AcDbLine
 10
93.7371860157234
 20
-58.17449114855481
 30
0.0
 11
114.7371860157234
 21
-58.17449114855481
 31
0.0
  0
LINE
  5
224A
330
2E0
100
AcDbEntity
  8
1外形線
100
AcDbLine
 10
88.8627518960377
 20
-56.17449114855492
 30
0.0
 11
98.33718601572355
 21
-56.17449114855492
 31
0.0
  0
LINE
  5
224B
330
2E0
100
AcDbEntity
  8
1外形線
100
AcDbLine
 10
93.7371860157234
 20
-59.37449114855462
 30
0.0
 11
98.73718601572342
 21
-59.37449114855462
 31
0.0
  0
LINE
  5
224C
330
2E0
100
AcDbEntity
  8
1外形線
100
AcDbLine
 10
93.7371860157234
 20
-58.17449114855481
 30
0.0
 11
93.7371860157234
 21
-59.37449114855462
 31
0.0
  0
LINE
  5
224D
330
2E0
100
AcDbEntity
  8
1外形線
100
AcDbLine
 10
98.73718601572342
 20
-59.67449114855503
 30
0.0
 11
101.7371860157234
 21
-60.4744911485551
 31
0.0
  0
LINE
  5
224E
330
2E0
100
AcDbEntity
  8
1外形線
100
AcDbLine
 10
101.7371860157234
 20
-60.4744911485551
 30
0.0
 11
101.7371860157234
 21
-61.17449114855503
 31
0.0
  0
LINE
  5
224F
330
2E0
100
AcDbEntity
  8
1外形線
100
AcDbLine
 10
95.73718601572522
 20
-60.47449114855385
 30
0.0
 11
95.73718601572522
 21
-61.18629521339653
 31
0.0
  0
LINE
  5
2250
330
2E0
100
AcDbEntity
  8
1外形線
100
AcDbLine
 10
95.73718601572522
 20
-60.47449114855453
 30
0.0
 11
98.73718601572523
 21
-59.67449114855401
 31
0.0
  0
LINE
  5
2251
330
2E0
100
AcDbEntity
  8
1外形線
100
AcDbLine
 10
101.7371860157234
 20
-57.1744911485548
 30
0.0
 11
101.7371860157234
 21
-58.17449114855481
 31
0.0
  0
LINE
  5
2252
330
2E0
100
AcDbEntity
  8
1外形線
100
AcDbLine
 10
98.73718601572342
 20
-59.37449114855462
 30
0.0
 11
98.73718601572342
 21
-60.67449114855481
 31
0.0
  0
LINE
  5
2253
330
2E0
100
AcDbEntity
  8
1外形線
100
AcDbLine
 10
98.50038252663035
 20
-56.93968547877886
 30
0.0
 11
95.73718601572341
 21
-58.17449114855481
 31
0.0
  0
ARC
  5
2254
330
2E0
100
AcDbEntity
  8
1外形線
100
AcDbCircle
 10
102.7371860157234
 20
-57.1744911485548
 30
0.0
 40
1.0
100
AcDbArc
 50
90.0
 51
180.0
  0
ARC
  5
2255
330
2E0
100
AcDbEntity
  8
1外形線
100
AcDbCircle
 10
98.33718601572355
 20
-56.57449114855456
 30
0.0
 40
0.4
100
AcDbArc
 50
294.0787122929465
 51
90.0
  0
LINE
  5
2256
330
2E0
100
AcDbEntity
  8
1外形線
100
AcDbLine
 10
134.7371860157234
 20
-45.33964253846647
 30
0.0
 11
134.7371860157234
 21
3.990660241356863
 31
0.0
  0
LINE
  5
2257
330
2E0
100
AcDbEntity
  8
1外形線
100
AcDbLine
 10
138.9371860157234
 20
-37.9744911485551
 30
0.0
 11
138.9371860157234
 21
-20.67449114855504
 31
0.0
  0
LINE
  5
2258
330
2E0
100
AcDbEntity
  8
1外形線
100
AcDbLine
 10
136.7371860157234
 20
-36.17449114855503
 30
0.0
 11
136.7371860157234
 21
-20.67449114855504
 31
0.0
  0
LINE
  5
2259
330
2E0
100
AcDbEntity
  8
1外形線
100
AcDbLine
 10
136.7371860157234
 20
-20.67449114855504
 30
0.0
 11
136.7371860157234
 21
-5.174491148555034
 31
0.0
  0
LINE
  5
225A
330
2E0
100
AcDbEntity
  8
1外形線
100
AcDbLine
 10
138.9371860157234
 20
-3.374491148554625
 30
0.0
 11
138.9371860157234
 21
-20.67449114855504
 31
0.0
  0
LINE
  5
225B
330
2E0
100
AcDbEntity
  8
1外形線
100
AcDbLine
 10
102.7371860157234
 20
14.82550885144496
 30
0.0
 11
123.9023374056353
 21
14.82550885144496
 31
0.0
  0
LINE
  5
225C
330
2E0
100
AcDbEntity
  8
1外形線
100
AcDbLine
 10
101.7371860157234
 20
19.82550885144496
 30
0.0
 11
114.7371860157234
 21
19.82550885144496
 31
0.0
  0
LINE
  5
225D
330
2E0
100
AcDbEntity
  8
1外形線
100
AcDbLine
 10
93.7371860157234
 20
16.82550885144496
 30
0.0
 11
114.7371860157234
 21
16.82550885144496
 31
0.0
  0
LINE
  5
225E
330
2E0
100
AcDbEntity
  8
1外形線
100
AcDbLine
 10
88.8627518960377
 20
14.82550885144496
 30
0.0
 11
98.33718601572355
 21
14.82550885144496
 31
0.0
  0
LINE
  5
225F
330
2E0
100
AcDbEntity
  8
1外形線
100
AcDbLine
 10
93.7371860157234
 20
18.0255088514449
 30
0.0
 11
98.73718601572342
 21
18.0255088514449
 31
0.0
  0
LINE
  5
2260
330
2E0
100
AcDbEntity
  8
1外形線
100
AcDbLine
 10
93.7371860157234
 20
16.82550885144496
 30
0.0
 11
98.73718601572342
 21
16.82550885144496
 31
0.0
  0
LINE
  5
2261
330
2E0
100
AcDbEntity
  8
1外形線
100
AcDbLine
 10
93.7371860157234
 20
16.82550885144496
 30
0.0
 11
93.7371860157234
 21
18.0255088514449
 31
0.0
  0
LINE
  5
2262
330
2E0
100
AcDbEntity
  8
1外形線
100
AcDbLine
 10
101.7371860157234
 20
19.12550885144492
 30
0.0
 11
101.7371860157234
 21
19.82550885144496
 31
0.0
  0
LINE
  5
2263
330
2E0
100
AcDbEntity
  8
1外形線
100
AcDbLine
 10
98.73718601572342
 20
18.32550885144496
 30
0.0
 11
101.7371860157234
 21
19.12550885144492
 31
0.0
  0
LINE
  5
2264
330
2E0
100
AcDbEntity
  8
1外形線
100
AcDbLine
 10
95.73718601572341
 20
19.12550885144492
 30
0.0
 11
95.73718601572341
 21
19.83731291628783
 31
0.0
  0
LINE
  5
2265
330
2E0
100
AcDbEntity
  8
1外形線
100
AcDbLine
 10
95.73718601572341
 20
19.12550885144571
 30
0.0
 11
98.73718601572342
 21
18.32550885144496
 31
0.0
  0
LINE
  5
2266
330
2E0
100
AcDbEntity
  8
1外形線
100
AcDbLine
 10
101.7371860157234
 20
15.82550885144496
 30
0.0
 11
101.7371860157234
 21
16.82550885144496
 31
0.0
  0
LINE
  5
2267
330
2E0
100
AcDbEntity
  8
1外形線
100
AcDbLine
 10
98.50038252663035
 20
15.59070318166891
 30
0.0
 11
95.73718601572341
 21
16.82550885144496
 31
0.0
  0
ARC
  5
2268
330
2E0
100
AcDbEntity
  8
1外形線
100
AcDbCircle
 10
98.33718601572355
 20
15.22550885144528
 30
0.0
 40
0.4
100
AcDbArc
 50
270.0
 51
65.92128770705349
  0
LINE
  5
2269
330
2E0
100
AcDbEntity
  8
1外形線
100
AcDbLine
 10
98.73718601572342
 20
18.0255088514449
 30
0.0
 11
98.73718601572342
 21
18.32550885144496
 31
0.0
  0
ARC
  5
226A
330
2E0
100
AcDbEntity
  8
1外形線
100
AcDbCircle
 10
102.7371860157234
 20
15.82550885144496
 30
0.0
 40
1.0
100
AcDbArc
 50
180.0
 51
270.0
  0
LINE
  5
226B
330
2E0
100
AcDbEntity
  8
1外形線
100
AcDbLine
 10
98.73718601572342
 20
12.32550885144496
 30
0.0
 11
100.7371860157234
 21
12.32550885144496
 31
0.0
  0
LINE
  5
226C
330
2E0
100
AcDbEntity
  8
1外形線
100
AcDbLine
 10
98.73718601572342
 20
16.82550885144496
 30
0.0
 11
98.73718601572342
 21
12.32550885144496
 31
0.0
  0
LINE
  5
226D
330
2E0
100
AcDbEntity
  8
C4
100
AcDbLine
 10
316.0371860157234
 20
-102.1744911485543
 30
0.0
 11
316.0371860157229
 21
-29.8744911485544
 31
0.0
  0
LINE
  5
226E
330
2E0
100
AcDbEntity
  8
1外形線
 48
3.0
100
AcDbLine
 10
301.0500453402017
 20
-29.87449114855463
 30
0.0
 11
301.0500453402019
 21
-102.1744911485547
 31
0.0
  0
LINE
  5
226F
330
2E0
100
AcDbEntity
  8
1外形線
 48
3.0
100
AcDbLine
 10
309.5615730773668
 20
-29.87449114855463
 30
0.0
 11
309.561573077367
 21
-102.1744911485547
 31
0.0
  0
LINE
  5
2270
330
2E0
100
AcDbEntity
  8
1外形線
 48
3.0
100
AcDbLine
 10
315.0310499664033
 20
-29.87449114855463
 30
0.0
 11
315.0310499664033
 21
-102.1744911485547
 31
0.0
  0
ARC
  5
2271
330
2E0
100
AcDbEntity
  8
C4
100
AcDbCircle
 10
207.4371860157234
 20
-89.47449114855499
 30
0.0
 40
35.27561293835645
100
AcDbArc
 50
0.0
 51
45.14469384747651
  0
ARC
  5
2272
330
2E0
100
AcDbEntity
  8
C4
100
AcDbCircle
 10
207.4371860157234
 20
-89.47449114855499
 30
0.0
 40
43.78714067552144
100
AcDbArc
 50
0.0
 51
45.14469384747651
  0
LINE
  5
2273
330
2E0
100
AcDbEntity
  8
C4
  6
ByBlock
 48
3.0
100
AcDbLine
 10
235.6371860157233
 20
-211.9678040044946
 30
0.0
 11
318.1371860157233
 21
-211.9678040044945
 31
0.0
  0
LINE
  5
2274
330
2E0
100
AcDbEntity
  8
C4
 62
     3
 48
5.0
100
AcDbLine
 10
318.1371860157233
 20
-210.3744911485549
 30
0.0
 11
235.6371860157233
 21
-210.3744911485549
 31
0.0
  0
LINE
  5
2275
330
2E0
100
AcDbEntity
  8
C4
100
AcDbLine
 10
259.5371860157231
 20
-102.1744911485547
 30
0.0
 11
236.0371860157231
 21
-102.1744911485547
 31
0.0
  0
LINE
  5
2276
330
2E0
100
AcDbEntity
  8
C4
100
AcDbLine
 10
315.6371860157233
 20
-108.1744911485543
 30
0.0
 11
236.6371860157233
 21
-108.1744911485544
 31
0.0
  0
LINE
  5
2277
330
2E0
100
AcDbEntity
  8
C4
  6
ByBlock
 62
     3
 48
3.0
100
AcDbLine
 10
234.6371860157233
 20
-209.3744911485548
 30
0.0
 11
227.6371860157233
 21
-209.3744911485548
 31
0.0
  0
ARC
  5
2278
330
2E0
100
AcDbEntity
  8
C4
  6
ByBlock
 62
     3
 48
3.0
100
AcDbCircle
 10
227.6371860157233
 20
-210.3744911485549
 30
0.0
 40
1.0
100
AcDbArc
 50
90.0
 51
180.0
  0
ARC
  5
2279
330
2E0
100
AcDbEntity
  8
C4
  6
ByBlock
 62
     3
 48
3.0
100
AcDbCircle
 10
234.6371860157233
 20
-210.3744911485549
 30
0.0
 40
1.0
100
AcDbArc
 50
0.0
 51
90.0
  0
ARC
  5
227A
330
2E0
100
AcDbEntity
  8
C4
100
AcDbCircle
 10
236.0371860157231
 20
-102.5744911485545
 30
0.0
 40
0.4
100
AcDbArc
 50
90.0
 51
180.0
  0
LINE
  5
227B
330
2E0
100
AcDbEntity
  8
C4
100
AcDbLine
 10
235.6371860157233
 20
-107.1744911485544
 30
0.0
 11
235.6371860157233
 21
-102.5744911485545
 31
0.0
  0
ARC
  5
227C
330
2E0
100
AcDbEntity
  8
C4
100
AcDbCircle
 10
236.6371860157233
 20
-107.1744911485544
 30
0.0
 40
1.0
100
AcDbArc
 50
180.0
 51
270.0
  0
ARC
  5
227D
330
2E0
100
AcDbEntity
  8
C4
100
AcDbCircle
 10
207.4371860157234
 20
-89.47449114855499
 30
0.0
 40
28.8
100
AcDbArc
 50
0.0
 51
45.14469384747651
  0
ARC
  5
227E
330
2E0
100
AcDbEntity
  8
C4
100
AcDbCircle
 10
207.4371860157234
 20
-89.47449114855499
 30
0.0
 40
29.8061360493201
100
AcDbArc
 50
0.0
 51
45.14469384747651
  0
LINE
  5
227F
330
2E0
100
AcDbEntity
  8
C4
100
AcDbLine
 10
236.2371860157234
 20
-102.1744911485547
 30
0.0
 11
236.2371860157234
 21
-89.47449114855499
 31
0.0
  0
LINE
  5
2280
330
2E0
100
AcDbEntity
  8
1外形線
 48
3.0
100
AcDbLine
 10
237.2433220650435
 20
-89.47449114855499
 30
0.0
 11
237.2433220650435
 21
-102.1744911485547
 31
0.0
  0
LINE
  5
2281
330
2E0
100
AcDbEntity
  8
1外形線
 48
3.0
100
AcDbLine
 10
251.2243266912449
 20
-89.47449114855499
 30
0.0
 11
251.2243266912449
 21
-102.1744911485547
 31
0.0
  0
LINE
  5
2282
330
2E0
100
AcDbEntity
  8
1外形線
 48
3.0
100
AcDbLine
 10
242.71279895408
 20
-89.47449114855499
 30
0.0
 11
242.71279895408
 21
-102.1744911485547
 31
0.0
  0
ARC
  5
2283
330
2E0
100
AcDbEntity
  8
C4
100
AcDbCircle
 10
316.2371860157232
 20
-102.5744911485543
 30
0.0
 40
0.4
100
AcDbArc
 50
0.0
 51
90.0
  0
ARC
  5
2284
330
2E0
100
AcDbEntity
  8
C4
100
AcDbCircle
 10
315.6371860157233
 20
-107.1744911485544
 30
0.0
 40
1.0
100
AcDbArc
 50
270.0
 51
0.0
  0
LINE
  5
2285
330
2E0
100
AcDbEntity
  8
C4
100
AcDbLine
 10
316.6371860157233
 20
-107.1744911485544
 30
0.0
 11
316.6371860157233
 21
-102.5744911485543
 31
0.0
  0
LINE
  5
2286
330
2E0
100
AcDbEntity
  8
C4
100
AcDbLine
 10
316.2371860157232
 20
-102.1744911485543
 30
0.0
 11
292.7371860157236
 21
-102.1744911485547
 31
0.0
  0
ARC
  5
2287
330
2E0
100
AcDbEntity
  8
1外形線
 48
3.0
100
AcDbCircle
 10
276.1371860157233
 20
-20.67449114855447
 30
0.0
 40
2.25
100
AcDbArc
 50
225.0000000000092
 51
45.00000000000921
  0
ARC
  5
2288
330
2E0
100
AcDbEntity
  8
1外形線
 48
3.0
100
AcDbCircle
 10
276.1371860157235
 20
-20.67449114855504
 30
0.0
 40
2.25
100
AcDbArc
 50
45.00000000000921
 51
225.0000000000092
  0
ARC
  5
2289
330
2E0
100
AcDbEntity
  8
C4
100
AcDbCircle
 10
266.937186015723
 20
-29.87449114855463
 30
0.0
 40
49.1
100
AcDbArc
 50
0.0
 51
45.00000000000921
  0
ARC
  5
228A
330
2E0
100
AcDbEntity
  8
C4
100
AcDbCircle
 10
266.937186015723
 20
-29.87449114855463
 30
0.0
 40
48.09386395067992
100
AcDbArc
 50
0.0
 51
45.00000000000921
  0
ARC
  5
228B
330
2E0
100
AcDbEntity
  8
C4
100
AcDbCircle
 10
266.937186015723
 20
-29.87449114855463
 30
0.0
 40
42.62438706164357
100
AcDbArc
 50
0.0
 51
45.00000000000921
  0
ARC
  5
228C
330
2E0
100
AcDbEntity
  8
C4
100
AcDbCircle
 10
266.937186015723
 20
-29.87449114855463
 30
0.0
 40
34.11285932447859
100
AcDbArc
 50
0.0
 51
45.00000000000921
  0
LINE
  5
228D
330
2E0
100
AcDbEntity
  8
1外形線
100
AcDbLine
 10
-211.7429881909093
 20
11.8498959130884
 30
0.0
 11
-211.7429881909088
 21
-102.1744911485541
 31
0.0
  0
LINE
  5
228E
330
2E0
100
AcDbEntity
  8
1外形線
100
AcDbLine
 10
-203.7621738099015
 20
17.31937280212491
 30
0.0
 11
-203.762173809901
 21
-102.1744911485541
 31
0.0
  0
LINE
  5
228F
330
2E0
100
AcDbEntity
  8
1外形線
100
AcDbLine
 10
-178.3481613737203
 20
17.72550885144483
 30
0.0
 11
-178.3481613737196
 21
-108.1744911485542
 31
0.0
  0
LINE
  5
2290
330
2E0
100
AcDbEntity
  8
1外形線
100
AcDbLine
 10
-175.3481613737253
 20
18.52550885144421
 30
0.0
 11
-175.3481613737197
 21
-108.1744911485542
 31
0.0
  0
LINE
  5
2291
330
2E0
100
AcDbEntity
  8
1外形線
100
AcDbLine
 10
-181.3481613737203
 20
18.52550885144467
 30
0.0
 11
-181.3481613737197
 21
-108.1744911485542
 31
0.0
  0
LINE
  5
2292
330
2E0
100
AcDbEntity
  8
1外形線
100
AcDbLine
 10
-217.0755978734978
 20
3.338368175923505
 30
0.0
 11
-217.0755978734974
 21
-102.1744911485543
 31
0.0
  0
LINE
  5
2293
330
2E0
100
AcDbEntity
  8
1外形線
100
AcDbLine
 10
-218.5481613737202
 20
-38.57449114855604
 30
0.0
 11
-218.5481613737197
 21
-108.1744911485543
 31
0.0
  0
LINE
  5
2294
330
2E0
100
AcDbEntity
  8
1外形線
100
AcDbLine
 10
-154.8451492628728
 20
2.570602082228219
 30
0.0
 11
-154.8451492628721
 21
-102.1744911485539
 31
0.0
  0
LINE
  5
2295
330
2E0
100
AcDbEntity
  8
1外形線
100
AcDbLine
 10
-153.1481613737203
 20
-38.39817841435502
 30
0.0
 11
-153.1481613737198
 21
-102.1744911485539
 31
0.0
  0
LINE
  5
2296
330
2E0
100
AcDbEntity
  8
1外形線
100
AcDbLine
 10
-218.5481613737197
 20
-108.1744911485543
 30
0.0
 11
-153.4481613737198
 21
-108.1744911485541
 31
0.0
  0
LINE
  5
2297
330
2E0
100
AcDbEntity
  8
1外形線
100
AcDbLine
 10
-152.8481613737199
 20
-102.1744911485539
 30
0.0
 11
-175.3481613737194
 21
-102.1744911485539
 31
0.0
  0
ARC
  5
2298
330
2E0
100
AcDbEntity
  8
1外形線
100
AcDbCircle
 10
-152.8481613737199
 20
-102.5744911485539
 30
0.0
 40
0.4
100
AcDbArc
 50
0.0
 51
90.0
  0
ARC
  5
2299
330
2E0
100
AcDbEntity
  8
1外形線
100
AcDbCircle
 10
-153.4481613737198
 20
-107.1744911485539
 30
0.0
 40
1.0
100
AcDbArc
 50
270.0
 51
0.0
  0
LINE
  5
229A
330
2E0
100
AcDbEntity
  8
1外形線
100
AcDbLine
 10
-152.4481613737198
 20
-107.1744911485539
 30
0.0
 11
-152.4481613737198
 21
-102.5744911485539
 31
0.0
  0
LINE
  5
229B
330
2E0
100
AcDbEntity
  8
1外形線
100
AcDbLine
 10
-160.8280771994357
 20
11.79846131129488
 30
0.0
 11
-160.8280771994352
 21
-59.37449114855496
 31
0.0
  0
LINE
  5
229C
330
2E0
100
AcDbEntity
  8
1外形線
100
AcDbLine
 10
-160.8280771994352
 20
-68.37449114855463
 30
0.0
 11
-160.828077199435
 21
-102.1744911485539
 31
0.0
  0
LINE
  5
229D
330
2E0
100
AcDbEntity
  8
1外形線
100
AcDbLine
 10
-181.3481613737199
 20
-102.1744911485539
 30
0.0
 11
-218.5481613737197
 21
-102.1744911485543
 31
0.0
  0
LINE
  5
229E
330
2E0
100
AcDbEntity
  8
1外形線
100
AcDbLine
 10
-169.7821616269077
 20
17.6990486628415
 30
0.0
 11
-169.7821616269075
 21
-59.37449114855496
 31
0.0
  0
LINE
  5
229F
330
2E0
100
AcDbEntity
  8
1外形線
100
AcDbLine
 10
-169.7821616269075
 20
-68.37449114855463
 30
0.0
 11
-169.7821616269073
 21
-102.1744911485539
 31
0.0
  0
ARC
  5
22A0
330
2E0
100
AcDbEntity
  8
1外形線
100
AcDbCircle
 10
-179.5796104188791
 20
-6.912647515649268
 30
0.0
 40
26.49010365426367
100
AcDbArc
 50
356.1864711060852
 51
80.80837031109631
  0
LINE
  5
22A1
330
2E0
100
AcDbEntity
  8
1外形線
100
AcDbLine
 10
-153.1481613737203
 20
-21.27449114855551
 30
0.0
 11
-153.1481613737203
 21
-38.39817841435502
 31
0.0
  0
LINE
  5
22A2
330
2E0
100
AcDbEntity
  8
1外形線
100
AcDbLine
 10
-153.1481613737203
 20
-21.27449114855551
 30
0.0
 11
-153.1481613737205
 21
-8.674491148554807
 31
0.0
  0
ARC
  5
22A3
330
2E0
100
AcDbEntity
  8
1外形線
100
AcDbCircle
 10
-194.3481613737201
 20
-4.974491148554875
 30
0.0
 40
24.19999999999999
100
AcDbArc
 50
90.0
 51
180.0
  0
LINE
  5
22A4
330
2E0
100
AcDbEntity
  8
1外形線
100
AcDbLine
 10
-218.5481613737202
 20
-38.57449114855604
 30
0.0
 11
-218.5481613737202
 21
-21.27449114855585
 31
0.0
  0
LINE
  5
22A5
330
2E0
100
AcDbEntity
  8
1外形線
100
AcDbLine
 10
-218.5481613737202
 20
-4.974491148554989
 30
0.0
 11
-218.5481613737202
 21
-21.27449114855585
 31
0.0
  0
LINE
  5
22A6
330
2E0
100
AcDbEntity
  8
1外形線
100
AcDbLine
 10
-181.3481613737203
 20
19.22550885144505
 30
0.0
 11
-194.3481613737203
 21
19.22550885144471
 31
0.0
  0
LINE
  5
22A7
330
2E0
100
AcDbEntity
  8
1外形線
100
AcDbLine
 10
-181.3481613737203
 20
18.5255088514449
 30
0.0
 11
-181.3481613737203
 21
19.22550885144505
 31
0.0
  0
LINE
  5
22A8
330
2E0
100
AcDbEntity
  8
1外形線
100
AcDbLine
 10
-178.3481613737203
 20
17.72550885144483
 30
0.0
 11
-181.3481613737203
 21
18.5255088514449
 31
0.0
  0
LINE
  5
22A9
330
2E0
100
AcDbEntity
  8
1外形線
100
AcDbLine
 10
-175.3481613737203
 20
18.5255088514449
 30
0.0
 11
-175.3481613737203
 21
19.23731291628769
 31
0.0
  0
LINE
  5
22AA
330
2E0
100
AcDbEntity
  8
1外形線
100
AcDbLine
 10
-175.3481613737203
 20
18.52550885144558
 30
0.0
 11
-178.3481613737203
 21
17.72550885144483
 31
0.0
  0
LINE
  5
22AB
330
2E0
100
AcDbEntity
  8
1外形線
100
AcDbLine
 10
-159.7981613737202
 20
-59.37449114855496
 30
0.0
 11
-173.3481613737219
 21
-59.37449114855508
 31
0.0
  0
LINE
  5
22AC
330
2E0
100
AcDbEntity
  8
1外形線
100
AcDbLine
 10
-159.7981613737202
 20
-68.37449114855463
 30
0.0
 11
-173.3481613737215
 21
-68.37449114855463
 31
0.0
  0
LINE
  5
22AD
330
2E0
100
AcDbEntity
  8
1外形線
100
AcDbLine
 10
-173.3481613737219
 20
-59.37449114855531
 30
0.0
 11
-173.3481613737215
 21
-68.37449114855463
 31
0.0
  0
ARC
  5
22AE
330
2E0
100
AcDbEntity
  8
C4
100
AcDbCircle
 10
-159.7981613737202
 20
-63.87449114855508
 30
0.0
 40
4.5
100
AcDbArc
 50
270.0
 51
90.0
  0
ARC
  5
22AF
330
2E0
100
AcDbEntity
  8
C4
 62
     3
 48
5.0
100
AcDbCircle
 10
-168.2050875038148
 20
-239.4744911485549
 30
0.0
 40
29.5
100
AcDbArc
 50
0.0
 51
90.97116140898483
  0
ARC
  5
22B0
330
2E0
100
AcDbEntity
  8
C4
 62
     3
 48
5.0
100
AcDbCircle
 10
-188.2050875038148
 20
-236.4744911485546
 30
0.0
 40
26.5
100
AcDbArc
 50
90.0
 51
180.0
1001
ACAD
1000
ASC_BOUNDS
1002
{
1070
    19
1002
}
  0
LINE
  5
22B1
330
2E0
100
AcDbEntity
  8
C4
 62
     3
 48
5.0
100
AcDbLine
 10
-139.7050875038148
 20
-360.3744911485546
 30
0.0
 11
-214.7050875038149
 21
-360.3744911485546
 31
0.0
  0
LINE
  5
22B2
330
2E0
100
AcDbEntity
  8
C4
 62
     3
 48
5.0
100
AcDbLine
 10
-175.7050875038148
 20
-351.3744911485546
 30
0.0
 11
-214.7050875038149
 21
-351.3744911485546
 31
0.0
  0
ARC
  5
22B3
330
2E0
100
AcDbEntity
  8
C4
 62
     3
 48
5.0
100
AcDbCircle
 10
-168.2050875038148
 20
-289.474491148555
 30
0.0
 40
29.5
100
AcDbArc
 50
341.6502614046175
 51
0.0
  0
LINE
  5
22B4
330
2E0
100
AcDbEntity
  8
C4
 62
     3
 48
5.0
100
AcDbLine
 10
-139.7050875038148
 20
-351.3744911485546
 30
0.0
 11
-169.7050875038148
 21
-351.3744911485546
 31
0.0
  0
LINE
  5
22B5
330
2E0
100
AcDbEntity
  8
C4
  6
ByBlock
 62
     3
 48
3.0
100
AcDbLine
 10
-157.2884699812996
 20
-338.3744911485546
 30
0.0
 11
-157.2884699812996
 21
-351.3744911485546
 31
0.0
  0
LINE
  5
22B6
330
2E0
100
AcDbEntity
  8
C4
  6
ByBlock
 62
     3
 48
3.0
100
AcDbLine
 10
-142.3127798192856
 20
-225.3380700042314
 30
0.0
 11
-142.3127798192856
 21
-351.3744911485546
 31
0.0
  0
LINE
  5
22B7
330
2E0
100
AcDbEntity
  8
C4
  6
ByBlock
 62
     3
 48
3.0
100
AcDbLine
 10
-148.4505415818348
 20
-338.3744911485546
 30
0.0
 11
-148.4505415818348
 21
-351.3744911485546
 31
0.0
  0
LINE
  5
22B8
330
2E0
100
AcDbEntity
  8
C4
  6
ByBlock
 62
     3
 48
3.0
100
AcDbLine
 10
-140.2050875038148
 20
-298.7615789590579
 30
0.0
 11
-140.2050875038148
 21
-345.1844933034238
 31
0.0
  0
LINE
  5
22B9
330
2E0
100
AcDbEntity
  8
C4
  6
ByBlock
 62
     3
 48
3.0
100
AcDbLine
 10
-140.2050875038148
 20
-345.1844933034238
 30
0.0
 11
-140.2050875038148
 21
-351.3744911485546
 31
0.0
  0
LINE
  5
22BA
330
2E0
100
AcDbEntity
  8
C4
  6
ByBlock
 62
     3
 48
3.0
100
AcDbLine
 10
-138.7050875038148
 20
-352.3744911485546
 30
0.0
 11
-138.7050875038148
 21
-359.3744911485546
 31
0.0
  0
ARC
  5
22BB
330
2E0
100
AcDbEntity
  8
C4
  6
ByBlock
 62
     3
 48
5.0
100
AcDbCircle
 10
-139.7050875038148
 20
-352.3744911485546
 30
0.0
 40
1.0
100
AcDbArc
 50
0.0
 51
90.0
  0
ARC
  5
22BC
330
2E0
100
AcDbEntity
  8
C4
  6
ByBlock
 62
     3
 48
5.0
100
AcDbCircle
 10
-139.7050875038148
 20
-359.3744911485546
 30
0.0
 40
1.0
100
AcDbArc
 50
270.0
 51
0.0
  0
LINE
  5
22BD
330
2E0
100
AcDbEntity
  8
C4
  6
ByBlock
 62
     3
 48
3.0
100
AcDbLine
 10
-148.4505415818348
 20
-217.5654082052549
 30
0.0
 11
-148.3835975265492
 21
-329.3744911485546
 31
0.0
  0
LINE
  5
22BE
330
2E0
100
AcDbEntity
  8
C4
  6
ByBlock
 62
     3
 48
3.0
100
AcDbLine
 10
-157.2884699813021
 20
-212.0686986610685
 30
0.0
 11
-157.2884699812994
 21
-329.3744911485546
 31
0.0
  0
LINE
  5
22BF
330
2E0
100
AcDbEntity
  8
C4
  6
ByBlock
 62
     3
 48
3.0
100
AcDbLine
 10
-175.7050875038148
 20
-210.9744911485545
 30
0.0
 11
-175.7050875038148
 21
-360.3744911485546
 31
0.0
  0
LINE
  5
22C0
330
2E0
100
AcDbEntity
  8
C4
  6
ByBlock
 62
     3
 48
3.0
100
AcDbLine
 10
-172.7050875038148
 20
-212.7744911485547
 30
0.0
 11
-172.7050875038148
 21
-360.3744911485546
 31
0.0
  0
LINE
  5
22C1
330
2E0
100
AcDbEntity
  8
C4
  6
ByBlock
 62
     3
 48
3.0
100
AcDbLine
 10
-169.7050875038148
 20
-210.9744911485547
 30
0.0
 11
-169.7050875038148
 21
-360.3744911485546
 31
0.0
  0
LINE
  5
22C2
330
2E0
100
AcDbEntity
  8
C4
 48
2.0
100
AcDbLine
 10
-199.2721733129421
 20
-212.3960856429276
 30
0.0
 11
-199.2721733129421
 21
-351.3744911485546
 31
0.0
  0
LINE
  5
22C3
330
2E0
100
AcDbEntity
  8
C4
 62
     3
 48
5.0
100
AcDbLine
 10
-138.7050875038148
 20
-239.4744911485549
 30
0.0
 11
-138.7050875038148
 21
-264.4744911485549
 31
0.0
  0
LINE
  5
22C4
330
2E0
100
AcDbEntity
  8
C4
 62
     3
 48
5.0
100
AcDbLine
 10
-138.7050875038148
 20
-289.474491148555
 30
0.0
 11
-138.7050875038148
 21
-264.4744911485549
 31
0.0
  0
POINT
  5
22C5
330
2E0
100
AcDbEntity
  8
SUNPOU
  6
ByBlock
 48
3.0
100
AcDbPoint
 10
-148.2050875038148
 20
-264.4744911485549
 30
0.0
 50
180.0
  0
LINE
  5
22C6
330
2E0
100
AcDbEntity
  8
C4
  6
ByBlock
 62
     3
 48
3.0
100
AcDbLine
 10
-214.7050875038149
 20
-292.4744911485547
 30
0.0
 11
-214.7050875038149
 21
-360.3744911485546
 31
0.0
  0
LINE
  5
22C7
330
2E0
100
AcDbEntity
  8
C4
 48
2.0
100
AcDbLine
 10
-212.8020758165974
 20
-226.6135497157686
 30
0.0
 11
-212.8020758165972
 21
-351.3744911485546
 31
0.0
  0
LINE
  5
22C8
330
2E0
100
AcDbEntity
  8
C4
 48
2.0
100
AcDbLine
 10
-207.3827570334788
 20
-218.1860524122655
 30
0.0
 11
-207.3827570334783
 21
-351.3744911485546
 31
0.0
  0
LINE
  5
22C9
330
2E0
100
AcDbEntity
  8
C4
 62
     3
 48
5.0
100
AcDbLine
 10
-214.7050875038149
 20
-236.4744911485546
 30
0.0
 11
-214.7050875038149
 21
-285.4744911485545
 31
0.0
1001
ACAD
1000
ASC_BOUNDS
1002
{
1070
    19
1002
}
  0
LINE
  5
22CA
330
2E0
100
AcDbEntity
  8
C4
  6
ByBlock
 62
     3
 48
3.0
100
AcDbLine
 10
-214.7050875038149
 20
-285.4744911485545
 30
0.0
 11
-214.7050875038149
 21
-292.4744911485547
 31
0.0
  0
POINT
  5
22CB
330
2E0
100
AcDbEntity
  8
SUNPOU
 48
3.0
100
AcDbPoint
 10
-214.7050875038149
 20
-273.2798143623374
 30
0.0
 50
180.0
  0
LINE
  5
22CC
330
2E0
100
AcDbEntity
  8
C4
 62
     3
 48
5.0
100
AcDbLine
 10
-175.7050875038148
 20
-209.9744911485545
 30
0.0
 11
-188.2050875038148
 21
-209.9744911485545
 31
0.0
  0
LINE
  5
22CD
330
2E0
100
AcDbEntity
  8
C4
  6
ByBlock
 62
     3
 48
3.0
100
AcDbLine
 10
-172.7050875038148
 20
-212.7744911485547
 30
0.0
 11
-175.7050875038148
 21
-210.9744911485545
 31
0.0
  0
LINE
  5
22CE
330
2E0
100
AcDbEntity
  8
C4
  6
ByBlock
 62
     3
 48
3.0
100
AcDbLine
 10
-169.7050875038148
 20
-210.9744911485547
 30
0.0
 11
-169.7050875038148
 21
-209.9787287410495
 31
0.0
  0
LINE
  5
22CF
330
2E0
100
AcDbEntity
  8
C4
 62
     3
 48
5.0
100
AcDbLine
 10
-168.7050875038148
 20
-209.9787287410495
 30
0.0
 11
-169.7050875038148
 21
-209.9744911485548
 31
0.0
  0
LINE
  5
22D0
330
2E0
100
AcDbEntity
  8
C4
  6
ByBlock
 62
     3
 48
3.0
100
AcDbLine
 10
-172.7050875038148
 20
-212.7744911485547
 30
0.0
 11
-169.7050875038148
 21
-210.9744911485547
 31
0.0
  0
LINE
  5
22D1
330
2E0
100
AcDbEntity
  8
C4
  6
ByBlock
 62
     3
 48
3.0
100
AcDbLine
 10
-175.7050875038148
 20
-210.9744911485545
 30
0.0
 11
-175.7050875038148
 21
-209.9744911485545
 31
0.0
  0
POINT
  5
22D2
330
2E0
100
AcDbEntity
  8
SUNPOU
 48
3.0
100
AcDbPoint
 10
-175.7050875038148
 20
-209.9744911485545
 30
0.0
 50
180.0
  0
LINE
  5
22D3
330
2E0
100
AcDbEntity
  8
1外形線
100
AcDbLine
 10
-147.3953328803623
 20
-329.3744911485546
 30
0.0
 11
-167.7053328803622
 21
-329.3744911485546
 31
0.0
  0
LINE
  5
22D4
330
2E0
100
AcDbEntity
  8
1外形線
100
AcDbLine
 10
-147.3953328803623
 20
-338.3744911485546
 30
0.0
 11
-167.7053328803622
 21
-338.3744911485546
 31
0.0
  0
LINE
  5
22D5
330
2E0
100
AcDbEntity
  8
1外形線
  6
ByBlock
 62
     3
 48
3.0
100
AcDbLine
 10
-167.7053328803622
 20
-329.3744911485549
 30
0.0
 11
-167.7053328803622
 21
-338.3744911485548
 31
0.0
  0
ARC
  5
22D6
330
2E0
100
AcDbEntity
  8
1外形線
  6
ByBlock
 62
     3
 48
3.0
100
AcDbCircle
 10
-147.3953328803623
 20
-333.8744911485546
 30
0.0
 40
4.5
100
AcDbArc
 50
270.0
 51
90.0
  0
LINE
  5
22D7
330
2E0
100
AcDbEntity
  8
C4
100
AcDbLine
 10
-221.3786184209348
 20
-490.872880361454
 30
0.0
 11
-221.3786184209348
 21
-535.9728803614541
 31
0.0
  0
LINE
  5
22D8
330
2E0
100
AcDbEntity
  8
C4
100
AcDbLine
 10
-137.2786184209349
 20
-535.9728803614538
 30
0.0
 11
-137.2786184209349
 21
-490.872880361454
 31
0.0
  0
LINE
  5
22D9
330
2E0
100
AcDbEntity
  8
1外形線
 48
3.0
100
AcDbLine
 10
-137.7786184209351
 20
-644.3728803614544
 30
0.0
 11
-170.178618420935
 21
-644.3728803614544
 31
0.0
  0
LINE
  5
22DA
330
2E0
100
AcDbEntity
  8
1外形線
 48
3.0
100
AcDbLine
 10
-138.2786184209349
 20
-652.3728803614544
 30
0.0
 11
-221.3786184209348
 21
-652.3728803614542
 31
0.0
  0
ARC
  5
22DB
330
2E0
100
AcDbEntity
  8
C4
100
AcDbCircle
 10
-165.1786184209352
 20
-581.0728803614543
 30
0.0
 40
27.9
100
AcDbArc
 50
347.138347321543
 51
0.0
  0
LINE
  5
22DC
330
2E0
100
AcDbEntity
  8
1外形線
 48
3.0
100
AcDbLine
 10
-139.3079263703348
 20
-644.3728803614544
 30
0.0
 11
-139.3079263703348
 21
-480.4269580554533
 31
0.0
  0
LINE
  5
22DD
330
2E0
100
AcDbEntity
  8
1外形線
 48
3.0
100
AcDbLine
 10
-137.9786184209349
 20
-644.3728803614544
 30
0.0
 11
-137.9786184209349
 21
-587.2833553835435
 31
0.0
  0
LINE
  5
22DE
330
2E0
100
AcDbEntity
  8
1外形線
 48
3.0
100
AcDbLine
 10
-154.2288755014899
 20
-644.3728803614544
 30
0.0
 11
-154.2288755014899
 21
-612.5951185809858
 31
0.0
  0
LINE
  5
22DF
330
2E0
100
AcDbEntity
  8
1外形線
 48
3.0
100
AcDbLine
 10
-154.2288755014899
 20
-603.5951185809854
 30
0.0
 11
-154.2288755014899
 21
-465.211369688891
 31
0.0
  0
LINE
  5
22E0
330
2E0
100
AcDbEntity
  8
1外形線
 48
3.0
100
AcDbLine
 10
-145.1202227923859
 20
-644.3728803614544
 30
0.0
 11
-145.1202227923859
 21
-612.5951185809858
 31
0.0
  0
LINE
  5
22E1
330
2E0
100
AcDbEntity
  8
1外形線
 48
3.0
100
AcDbLine
 10
-145.1202227923859
 20
-603.5951185809854
 30
0.0
 11
-145.1202227923859
 21
-471.4803363094583
 31
0.0
  0
ARC
  5
22E2
330
2E0
100
AcDbEntity
  8
1外形線
 48
3.0
100
AcDbCircle
 10
-137.7786184209351
 20
-644.8728803614544
 30
0.0
 40
0.5
100
AcDbArc
 50
0.0
 51
90.0
  0
ARC
  5
22E3
330
2E0
100
AcDbEntity
  8
1外形線
 48
3.0
100
AcDbCircle
 10
-138.2786184209349
 20
-651.3728803614545
 30
0.0
 40
1.0
100
AcDbArc
 50
270.0
 51
0.0
  0
LINE
  5
22E4
330
2E0
100
AcDbEntity
  8
1外形線
 48
3.0
100
AcDbLine
 10
-137.2786184209349
 20
-644.8728803614544
 30
0.0
 11
-137.2786184209349
 21
-651.3728803614545
 31
0.0
  0
LINE
  5
22E5
330
2E0
100
AcDbEntity
  8
C4
100
AcDbLine
 10
-137.2786184209349
 20
-535.9728803614538
 30
0.0
 11
-137.2786184209281
 21
-581.0728803614538
 31
0.0
  0
LINE
  5
22E6
330
2E0
100
AcDbEntity
  8
1外形線
 48
3.0
100
AcDbLine
 10
-220.0493104715347
 20
-482.3635722842834
 30
0.0
 11
-220.0493104715349
 21
-644.3728803614542
 31
0.0
  0
LINE
  5
22E7
330
2E0
100
AcDbEntity
  8
1外形線
 48
3.0
100
AcDbLine
 10
-221.3786184209348
 20
-652.3728803614542
 30
0.0
 11
-221.3786184209348
 21
-581.0728803614424
 31
0.0
  0
LINE
  5
22E8
330
2E0
100
AcDbEntity
  8
1外形線
 48
3.0
100
AcDbLine
 10
-176.178618420935
 20
-644.3728803614544
 30
0.0
 11
-221.3786184209348
 21
-644.3728803614542
 31
0.0
  0
LINE
  5
22E9
330
2E0
100
AcDbEntity
  8
1外形線
 48
3.0
100
AcDbLine
 10
-176.1786184209354
 20
-463.6728803614539
 30
0.0
 11
-176.178618420935
 21
-652.3728803614544
 31
0.0
  0
LINE
  5
22EA
330
2E0
100
AcDbEntity
  8
1外形線
 48
3.0
100
AcDbLine
 10
-170.1786184209354
 20
-463.6728803614541
 30
0.0
 11
-170.178618420935
 21
-652.3728803614544
 31
0.0
  0
LINE
  5
22EB
330
2E0
100
AcDbEntity
  8
1外形線
 48
3.0
100
AcDbLine
 10
-173.1786184209345
 20
-464.4728803614541
 30
0.0
 11
-173.178618420935
 21
-652.3728803614544
 31
0.0
  0
LINE
  5
22EC
330
2E0
100
AcDbEntity
  8
1外形線
 48
3.0
100
AcDbLine
 10
-214.2370140494841
 20
-472.2315550081255
 30
0.0
 11
-214.2370140494841
 21
-644.3728803614542
 31
0.0
  0
LINE
  5
22ED
330
2E0
100
AcDbEntity
  8
1外形線
 48
3.0
100
AcDbLine
 10
-205.1283613403798
 20
-465.5214802046412
 30
0.0
 11
-205.12836134038
 21
-644.3728803614544
 31
0.0
  0
LINE
  5
22EE
330
2E0
100
AcDbEntity
  8
C4
100
AcDbLine
 10
-221.3786184209348
 20
-535.9728803614543
 30
0.0
 11
-221.3786184209348
 21
-581.072880361454
 31
0.0
  0
LINE
  5
22EF
330
2E0
100
AcDbEntity
  8
C4
100
AcDbLine
 10
-165.1786184209352
 20
-462.9728803614541
 30
0.0
 11
-170.178618420935
 21
-462.9728803614541
 31
0.0
  0
ARC
  5
22F0
330
2E0
100
AcDbEntity
  8
C4
100
AcDbCircle
 10
-165.1786184209349
 20
-490.872880361454
 30
0.0
 40
27.9
100
AcDbArc
 50
0.0
 51
90.0
  0
ARC
  5
22F1
330
2E0
100
AcDbEntity
  8
C4
100
AcDbCircle
 10
-193.4786184209351
 20
-490.872880361454
 30
0.0
 40
27.9
100
AcDbArc
 50
90.0
 51
180.0
  0
LINE
  5
22F2
330
2E0
100
AcDbEntity
  8
C4
100
AcDbLine
 10
-176.178618420935
 20
-462.9728803614541
 30
0.0
 11
-193.4786184209351
 21
-462.9728803614541
 31
0.0
  0
LINE
  5
22F3
330
2E0
100
AcDbEntity
  8
C4
100
AcDbLine
 10
-170.178618420935
 20
-463.6728803614541
 30
0.0
 11
-173.178618420935
 21
-464.4728803614541
 31
0.0
  0
LINE
  5
22F4
330
2E0
100
AcDbEntity
  8
C4
100
AcDbLine
 10
-173.178618420935
 20
-464.4728803614541
 30
0.0
 11
-176.178618420935
 21
-463.6728803614541
 31
0.0
  0
LINE
  5
22F5
330
2E0
100
AcDbEntity
  8
C4
100
AcDbLine
 10
-170.178618420935
 20
-463.6728803614541
 30
0.0
 11
-170.178618420935
 21
-462.9728803614541
 31
0.0
  0
LINE
  5
22F6
330
2E0
100
AcDbEntity
  8
C4
100
AcDbLine
 10
-176.178618420935
 20
-463.6728803614541
 30
0.0
 11
-176.178618420935
 21
-462.9728803614541
 31
0.0
  0
LINE
  5
22F7
330
2E0
100
AcDbEntity
  8
1外形線
100
AcDbLine
 10
-144.3786059763047
 20
-612.5951185809858
 30
0.0
 11
-168.1786184209349
 21
-612.5951185809858
 31
0.0
  0
LINE
  5
22F8
330
2E0
100
AcDbEntity
  8
1外形線
 48
3.0
100
AcDbLine
 10
-168.1786184209349
 20
-603.5951185809854
 30
0.0
 11
-168.1786184209349
 21
-612.5951185809858
 31
0.0
  0
LINE
  5
22F9
330
2E0
100
AcDbEntity
  8
1外形線
100
AcDbLine
 10
-144.3786059763047
 20
-603.5951185809854
 30
0.0
 11
-168.1786184209349
 21
-603.5951185809854
 31
0.0
  0
ARC
  5
22FA
330
2E0
100
AcDbEntity
  8
C4
100
AcDbCircle
 10
-144.3786059763047
 20
-608.0951185809854
 30
0.0
 40
4.5
100
AcDbArc
 50
270.0
 51
90.0
  0
LINE
  5
22FB
330
2E0
100
AcDbEntity
  8
C4
100
AcDbLine
 10
194.6371860157239
 20
19.22550885144528
 30
0.0
 11
266.9371860157241
 21
19.2255088514446
 31
0.0
  0
LINE
  5
22FC
330
2E0
100
AcDbEntity
  8
1外形線
 48
3.0
100
AcDbLine
 10
266.9371860157239
 20
4.238368175923255
 30
0.0
 11
194.6371860157237
 21
4.238368175923824
 31
0.0
  0
LINE
  5
22FD
330
2E0
100
AcDbEntity
  8
1外形線
 48
3.0
100
AcDbLine
 10
266.9371860157239
 20
12.74989591308838
 30
0.0
 11
194.6371860157237
 21
12.74989591308883
 31
0.0
  0
LINE
  5
22FE
330
2E0
100
AcDbEntity
  8
1外形線
 48
3.0
100
AcDbLine
 10
266.9371860157239
 20
18.21937280212478
 30
0.0
 11
194.6371860157237
 21
18.21937280212512
 31
0.0
  0
ARC
  5
22FF
330
2E0
100
AcDbEntity
  8
C4
100
AcDbCircle
 10
207.3371860157233
 20
-89.37449114855485
 30
0.0
 40
35.27561293835645
100
AcDbArc
 50
44.85530615253729
 51
90.0
  0
ARC
  5
2300
330
2E0
100
AcDbEntity
  8
C4
100
AcDbCircle
 10
207.3371860157233
 20
-89.37449114855485
 30
0.0
 40
43.78714067552144
100
AcDbArc
 50
44.85530615253729
 51
90.0
  0
LINE
  5
2301
330
2E0
100
AcDbEntity
  8
C4
100
AcDbLine
 10
194.6371860157235
 20
-37.27449114855494
 30
0.0
 11
194.6371860157235
 21
-60.77449114855494
 31
0.0
  0
LINE
  5
2302
330
2E0
100
AcDbEntity
  8
C4
100
AcDbLine
 10
188.6371860157239
 20
18.82550885144519
 30
0.0
 11
188.6371860157237
 21
-60.17449114855503
 31
0.0
  0
ARC
  5
2303
330
2E0
100
AcDbEntity
  8
C4
100
AcDbCircle
 10
194.2371860157236
 20
-60.77449114855494
 30
0.0
 40
0.4
100
AcDbArc
 50
270.0
 51
0.0
  0
LINE
  5
2304
330
2E0
100
AcDbEntity
  8
C4
100
AcDbLine
 10
189.6371860157237
 20
-61.17449114855503
 30
0.0
 11
194.2371860157236
 21
-61.17449114855503
 31
0.0
  0
ARC
  5
2305
330
2E0
100
AcDbEntity
  8
C4
100
AcDbCircle
 10
189.6371860157237
 20
-60.17449114855503
 30
0.0
 40
1.0
100
AcDbArc
 50
180.0
 51
270.0
  0
ARC
  5
2306
330
2E0
100
AcDbEntity
  8
C4
100
AcDbCircle
 10
207.3371860157233
 20
-89.37449114855485
 30
0.0
 40
28.8
100
AcDbArc
 50
44.85530615253729
 51
90.0
  0
ARC
  5
2307
330
2E0
100
AcDbEntity
  8
C4
100
AcDbCircle
 10
207.3371860157233
 20
-89.37449114855485
 30
0.0
 40
29.8061360493201
100
AcDbArc
 50
44.85530615253729
 51
90.0
  0
LINE
  5
2308
330
2E0
100
AcDbEntity
  8
C4
100
AcDbLine
 10
194.6371860157235
 20
-60.57449114855478
 30
0.0
 11
207.3371860157233
 21
-60.5744911485549
 31
0.0
  0
LINE
  5
2309
330
2E0
100
AcDbEntity
  8
1外形線
 48
3.0
100
AcDbLine
 10
207.3371860157233
 20
-59.56835509923485
 30
0.0
 11
194.6371860157235
 21
-59.56835509923485
 31
0.0
  0
LINE
  5
230A
330
2E0
100
AcDbEntity
  8
1外形線
 48
3.0
100
AcDbLine
 10
207.3371860157235
 20
-45.58735047303343
 30
0.0
 11
194.6371860157235
 21
-45.58735047303332
 31
0.0
  0
LINE
  5
230B
330
2E0
100
AcDbEntity
  8
1外形線
 48
3.0
100
AcDbLine
 10
207.3371860157233
 20
-54.09887821019833
 30
0.0
 11
194.6371860157235
 21
-54.09887821019822
 31
0.0
  0
ARC
  5
230C
330
2E0
100
AcDbEntity
  8
C4
100
AcDbCircle
 10
194.2371860157241
 20
19.4255088514451
 30
0.0
 40
0.4
100
AcDbArc
 50
0.0
 51
90.0
  0
ARC
  5
230D
330
2E0
100
AcDbEntity
  8
C4
100
AcDbCircle
 10
189.6371860157239
 20
18.82550885144519
 30
0.0
 40
1.0
100
AcDbArc
 50
90.0
 51
180.0
  0
LINE
  5
230E
330
2E0
100
AcDbEntity
  8
C4
100
AcDbLine
 10
189.6371860157239
 20
19.82550885144519
 30
0.0
 11
194.2371860157241
 21
19.82550885144519
 31
0.0
  0
LINE
  5
230F
330
2E0
100
AcDbEntity
  8
C4
100
AcDbLine
 10
194.6371860157239
 20
19.4255088514451
 30
0.0
 11
194.6371860157237
 21
-4.074491148554443
 31
0.0
  0
ARC
  5
2310
330
2E0
100
AcDbEntity
  8
C4
100
AcDbCircle
 10
266.9371860157239
 20
-29.87449114855542
 30
0.0
 40
49.1
100
AcDbArc
 50
45.00000000000921
 51
90.0
  0
ARC
  5
2311
330
2E0
100
AcDbEntity
  8
C4
100
AcDbCircle
 10
266.9371860157239
 20
-29.87449114855542
 30
0.0
 40
48.09386395067992
100
AcDbArc
 50
45.00000000000921
 51
90.0
  0
ARC
  5
2312
330
2E0
100
AcDbEntity
  8
C4
100
AcDbCircle
 10
266.9371860157239
 20
-29.87449114855542
 30
0.0
 40
42.62438706164357
100
AcDbArc
 50
45.00000000000921
 51
90.0
  0
ARC
  5
2313
330
2E0
100
AcDbEntity
  8
C4
100
AcDbCircle
 10
266.9371860157239
 20
-29.87449114855542
 30
0.0
 40
34.11285932447859
100
AcDbArc
 50
45.00000000000921
 51
90.0
  0
LINE
  5
2314
330
2E0
100
AcDbEntity
  8
1外形線
 48
3.0
100
AcDbLine
 10
-88.98764883889567
 20
-102.1744911485542
 30
0.0
 11
-88.98764883889567
 21
-29.87449114855497
 31
0.0
  0
LINE
  5
2315
330
2E0
100
AcDbEntity
  8
1外形線
 48
3.0
100
AcDbLine
 10
-97.94173326636792
 20
-102.1744911485542
 30
0.0
 11
-97.94173326636792
 21
-68.37449114855497
 31
0.0
  0
LINE
  5
2316
330
2E0
100
AcDbEntity
  8
1外形線
 48
3.0
100
AcDbLine
 10
-103.924661202931
 20
-102.1744911485542
 30
0.0
 11
-103.924661202931
 21
-29.87449114855497
 31
0.0
  0
LINE
  5
2317
330
2E0
100
AcDbEntity
  8
1外形線
 48
3.0
100
AcDbLine
 10
-24.80096676562266
 20
-102.1744911485542
 30
0.0
 11
-24.80096676562266
 21
-89.47449114855487
 31
0.0
  0
LINE
  5
2318
330
2E0
100
AcDbEntity
  8
1外形線
 48
3.0
100
AcDbLine
 10
-30.78389470218553
 20
-102.1744911485542
 30
0.0
 11
-30.78389470218553
 21
-89.47449114855487
 31
0.0
  0
LINE
  5
2319
330
2E0
100
AcDbEntity
  8
1外形線
 48
3.0
100
AcDbLine
 10
-39.73797912965756
 20
-102.1744911485542
 30
0.0
 11
-39.73797912965756
 21
-89.47449114855487
 31
0.0
  0
LINE
  5
231A
330
2E0
100
AcDbEntity
  8
C4
100
AcDbLine
 10
-24.46281398427664
 20
-102.1744911485542
 30
0.0
 11
-24.46281398427664
 21
-89.47449114855487
 31
0.0
  0
LINE
  5
231B
330
2E0
100
AcDbEntity
  8
C4
100
AcDbLine
 10
-104.2628139842763
 20
-102.1744911485542
 30
0.0
 11
-104.2628139842763
 21
-29.87449114855497
 31
0.0
  0
ARC
  5
231C
330
2E0
100
AcDbEntity
  8
C4
100
AcDbCircle
 10
4.337186015723318
 20
-89.47449114855487
 30
0.0
 40
29.13815278134592
100
AcDbArc
 50
134.8553061525235
 51
180.0
  0
ARC
  5
231D
330
2E0
100
AcDbEntity
  8
C4
100
AcDbCircle
 10
-20.92718027250567
 20
-64.11012486032598
 30
0.0
 40
2.0
100
AcDbArc
 50
134.9999999999908
 51
314.9999999999908
  0
LINE
  5
231E
330
2E0
100
AcDbEntity
  8
C4
100
AcDbLine
 10
-24.10916078784521
 20
-67.29210537566553
 30
0.0
 11
-19.23068173467891
 21
-72.17058442883183
 31
0.0
  0
ARC
  5
231F
330
2E0
100
AcDbEntity
  8
C4
100
AcDbCircle
 10
4.337186015723318
 20
-89.47449114855487
 30
0.0
 40
28.8
100
AcDbArc
 50
134.8553061525235
 51
180.0
  0
ARC
  5
2320
330
2E0
100
AcDbEntity
  8
C4
100
AcDbCircle
 10
-55.16281398427645
 20
-29.87449114855497
 30
0.0
 40
33.82483485461921
100
AcDbArc
 50
134.9999999999908
 51
180.0
  0
ARC
  5
2321
330
2E0
100
AcDbEntity
  8
C4
100
AcDbCircle
 10
-55.16281398427645
 20
-29.87449114855497
 30
0.0
 40
42.77891928209146
100
AcDbArc
 50
134.9999999999908
 51
180.0
  0
ARC
  5
2322
330
2E0
100
AcDbEntity
  8
C4
100
AcDbCircle
 10
-55.16281398427645
 20
-29.87449114855497
 30
0.0
 40
48.76184721865422
100
AcDbArc
 50
134.9999999999908
 51
180.0
  0
ARC
  5
2323
330
2E0
100
AcDbEntity
  8
C4
100
AcDbCircle
 10
-55.16281398427645
 20
-29.87449114855497
 30
0.0
 40
49.1
100
AcDbArc
 50
134.9999999999908
 51
180.0
  0
ARC
  5
2324
330
2E0
100
AcDbEntity
  8
C4
100
AcDbCircle
 10
-97.36281398427649
 20
-63.87449114855496
 30
0.0
 40
4.5
100
AcDbArc
 50
270.0
 51
90.0
  0
CIRCLE
  5
2325
330
2E0
100
AcDbEntity
  8
C4
100
AcDbCircle
 10
-97.36281398427649
 20
-63.87449114855496
 30
0.0
 40
2.0
  0
ARC
  5
2326
330
2E0
100
AcDbEntity
  8
C4
100
AcDbCircle
 10
4.337186015723318
 20
-89.47449114855487
 30
0.0
 40
44.07516514538094
100
AcDbArc
 50
134.8553061525235
 51
180.0
  0
ARC
  5
2327
330
2E0
100
AcDbEntity
  8
C4
100
AcDbCircle
 10
4.337186015723318
 20
-89.47449114855487
 30
0.0
 40
35.12108071790868
100
AcDbArc
 50
142.2451406806891
 51
180.0
  0
ARC
  5
2328
330
2E0
100
AcDbEntity
  8
C4
100
AcDbCircle
 10
-20.92718027250567
 20
-64.11012486032598
 30
0.0
 40
4.5
100
AcDbArc
 50
134.9999999999908
 51
225.0000000000092
  0
LINE
  5
2329
330
2E0
100
AcDbEntity
  8
1外形線
 48
3.0
100
AcDbLine
 10
-97.94173326636792
 20
-59.37449114855496
 30
0.0
 11
-97.94173326636792
 21
-29.87449114855497
 31
0.0
  0
LINE
  5
232A
330
2E0
100
AcDbEntity
  8
C4
100
AcDbLine
 10
-97.36281398427649
 20
-59.37449114855496
 30
0.0
 11
-103.8246612029311
 21
-59.37449114855496
 31
0.0
  0
LINE
  5
232B
330
2E0
100
AcDbEntity
  8
C4
100
AcDbLine
 10
-97.36281398427649
 20
-68.37449114855497
 30
0.0
 11
-103.8246612029311
 21
-68.37449114855497
 31
0.0
  0
LINE
  5
232C
330
2E0
100
AcDbEntity
  8
C4
100
AcDbLine
 10
-104.4628139842766
 20
-102.1744911485542
 30
0.0
 11
-24.26281398427637
 21
-102.1744911485542
 31
0.0
  0
LINE
  5
232D
330
2E0
100
AcDbEntity
  8
C4
100
AcDbLine
 10
-103.8628139842765
 20
-108.1744911485543
 30
0.0
 11
-24.8628139842765
 21
-108.1744911485543
 31
0.0
  0
ARC
  5
232E
330
2E0
100
AcDbEntity
  8
C4
100
AcDbCircle
 10
-24.26281398427637
 20
-102.5744911485544
 30
0.0
 40
0.4
100
AcDbArc
 50
0.0
 51
90.0
  0
ARC
  5
232F
330
2E0
100
AcDbEntity
  8
C4
100
AcDbCircle
 10
-24.8628139842765
 20
-107.1744911485543
 30
0.0
 40
1.0
100
AcDbArc
 50
270.0
 51
0.0
  0
LINE
  5
2330
330
2E0
100
AcDbEntity
  8
C4
100
AcDbLine
 10
-23.8628139842765
 20
-107.1744911485543
 30
0.0
 11
-23.8628139842765
 21
-102.5744911485544
 31
0.0
  0
ARC
  5
2331
330
2E0
100
AcDbEntity
  8
C4
100
AcDbCircle
 10
-104.4628139842766
 20
-102.5744911485542
 30
0.0
 40
0.4
100
AcDbArc
 50
90.0
 51
180.0
  0
ARC
  5
2332
330
2E0
100
AcDbEntity
  8
C4
100
AcDbCircle
 10
-103.8628139842765
 20
-107.1744911485543
 30
0.0
 40
1.0
100
AcDbArc
 50
180.0
 51
270.0
  0
LINE
  5
2333
330
2E0
100
AcDbEntity
  8
C4
100
AcDbLine
 10
-104.8628139842765
 20
-107.1744911485543
 30
0.0
 11
-104.8628139842765
 21
-102.5744911485542
 31
0.0
  0
LINE
  5
2334
330
2E0
100
AcDbEntity
  8
C4
100
AcDbLine
 10
-104.4628139842766
 20
127.8355088514395
 30
0.0
 11
-70.86281398427672
 21
127.8355088514399
 31
0.0
  0
LINE
  5
2335
330
2E0
100
AcDbEntity
  8
C4
100
AcDbLine
 10
-103.8628139842765
 20
121.8355088514394
 30
0.0
 11
-70.8628139842765
 21
121.8355088514399
 31
0.0
  0
ARC
  5
2336
330
2E0
100
AcDbEntity
  8
C4
100
AcDbCircle
 10
-64.26281398427682
 20
181.2355088514398
 30
0.0
 40
24.96113906404022
100
AcDbArc
 50
90.0
 51
134.9999999999908
  0
ARC
  5
2337
330
2E0
100
AcDbEntity
  8
C4
100
AcDbCircle
 10
-64.26281398427682
 20
181.2355088514398
 30
0.0
 40
32.81218410551794
100
AcDbArc
 50
90.0
 51
134.9999999999908
  0
ARC
  5
2338
330
2E0
100
AcDbEntity
  8
C4
100
AcDbCircle
 10
-64.26281398427682
 20
181.2355088514398
 30
0.0
 40
39.32656337310247
100
AcDbArc
 50
90.0
 51
134.9999999999908
  0
ARC
  5
2339
330
2E0
100
AcDbEntity
  8
C4
100
AcDbCircle
 10
-64.26281398427682
 20
181.2355088514398
 30
0.0
 40
40.0
100
AcDbArc
 50
90.0
 51
134.9999999999908
  0
LINE
  5
233A
330
2E0
100
AcDbEntity
  8
1外形線
 48
3.0
100
AcDbLine
 10
-97.07499808979447
 20
161.0119383232043
 30
0.0
 11
-97.07499808979447
 21
181.2355088514398
 31
0.0
  0
LINE
  5
233B
330
2E0
100
AcDbEntity
  8
C4
100
AcDbLine
 10
-104.2628139842763
 20
127.8355088514395
 30
0.0
 11
-104.2628139842768
 21
181.2355088514397
 31
0.0
  0
LINE
  5
233C
330
2E0
100
AcDbEntity
  8
1外形線
 48
3.0
100
AcDbLine
 10
-89.22395304831661
 20
127.8355088514397
 30
0.0
 11
-89.22395304831708
 21
181.2355088514396
 31
0.0
  0
LINE
  5
233D
330
2E0
100
AcDbEntity
  8
1外形線
 48
3.0
100
AcDbLine
 10
-103.5893773573789
 20
127.8355088514393
 30
0.0
 11
-103.5893773573793
 21
181.2355088514397
 31
0.0
  0
LINE
  5
233E
330
2E0
100
AcDbEntity
  8
C4
100
AcDbLine
 10
-104.8628139842765
 20
122.8355088514397
 30
0.0
 11
-104.8628139842765
 21
127.4355088514398
 31
0.0
  0
ARC
  5
233F
330
2E0
100
AcDbEntity
  8
C4
100
AcDbCircle
 10
-103.8628139842765
 20
122.8355088514397
 30
0.0
 40
1.0
100
AcDbArc
 50
180.0
 51
270.0
  0
ARC
  5
2340
330
2E0
100
AcDbEntity
  8
C4
100
AcDbCircle
 10
-96.46281398427664
 20
156.5119383232038
 30
0.0
 40
4.5
100
AcDbArc
 50
270.0
 51
90.0
  0
LINE
  5
2341
330
2E0
100
AcDbEntity
  8
1外形線
 48
3.0
100
AcDbLine
 10
-97.07499808979447
 20
127.8355088514395
 30
0.0
 11
-97.07499808979447
 21
152.0119383232042
 31
0.0
  0
ARC
  5
2342
330
2E0
100
AcDbEntity
  8
C4
100
AcDbCircle
 10
-104.4628139842766
 20
127.4355088514398
 30
0.0
 40
0.4
100
AcDbArc
 50
90.0
 51
180.0
  0
LINE
  5
2343
330
2E0
100
AcDbEntity
  8
C4
100
AcDbLine
 10
-96.46281398427664
 20
152.0119383232041
 30
0.0
 11
-103.5893773573789
 21
152.0119383232041
 31
0.0
  0
LINE
  5
2344
330
2E0
100
AcDbEntity
  8
C4
100
AcDbLine
 10
-96.46281398427664
 20
161.0119383232038
 30
0.0
 11
-103.5893773573789
 21
161.0119383232038
 31
0.0
  0
CIRCLE
  5
2345
330
2E0
100
AcDbEntity
  8
C4
100
AcDbCircle
 10
-96.46281398427664
 20
156.5119383232038
 30
0.0
 40
2.0
  0
ARC
  5
2346
330
2E0
100
AcDbEntity
  8
C4
100
AcDbCircle
 10
-64.26281398427682
 20
181.2355088514398
 30
0.0
 40
40.0
100
AcDbArc
 50
134.9999999999908
 51
180.0
  0
ARC
  5
2347
330
2E0
100
AcDbEntity
  8
C4
100
AcDbCircle
 10
-64.26281398427682
 20
181.2355088514398
 30
0.0
 40
39.32656337310247
100
AcDbArc
 50
134.9999999999908
 51
180.0
  0
ARC
  5
2348
330
2E0
100
AcDbEntity
  8
C4
100
AcDbCircle
 10
-64.26281398427682
 20
181.2355088514398
 30
0.0
 40
32.81218410551794
100
AcDbArc
 50
134.9999999999908
 51
180.0
  0
ARC
  5
2349
330
2E0
100
AcDbEntity
  8
C4
100
AcDbCircle
 10
-64.26281398427682
 20
181.2355088514398
 30
0.0
 40
24.96113906404022
100
AcDbArc
 50
134.9999999999908
 51
180.0
  0
ARC
  5
234A
330
2E0
100
AcDbEntity
  8
C4
100
AcDbCircle
 10
-27.46281398427687
 20
144.43550885144
 30
0.0
 40
27.0388609359598
100
AcDbArc
 50
90.0
 51
134.9999999999908
  0
LINE
  5
234B
330
2E0
100
AcDbEntity
  8
C4
100
AcDbLine
 10
-10.86281398427695
 20
156.2355088514398
 30
0.0
 11
-10.86281398427695
 21
187.8355088514398
 31
0.0
  0
LINE
  5
234C
330
2E0
100
AcDbEntity
  8
C4
100
AcDbLine
 10
-4.862813984276954
 20
156.8355088514398
 30
0.0
 11
-4.862813984276954
 21
188.8355088514398
 31
0.0
  0
ARC
  5
234D
330
2E0
100
AcDbEntity
  8
C4
100
AcDbCircle
 10
-27.46281398427687
 20
144.43550885144
 30
0.0
 40
19.18781589448208
100
AcDbArc
 50
90.0
 51
121.4364443706518
  0
ARC
  5
234E
330
2E0
100
AcDbEntity
  8
C4
100
AcDbCircle
 10
-27.46281398427687
 20
144.43550885144
 30
0.0
 40
12.67343662689754
100
AcDbArc
 50
90.0
 51
134.9999999999908
  0
LINE
  5
234F
330
2E0
100
AcDbEntity
  8
C4
100
AcDbLine
 10
-38.28155439281636
 20
161.6182102906583
 30
0.0
 11
-32.65836281642374
 21
155.9950187142658
 31
0.0
  0
ARC
  5
2350
330
2E0
100
AcDbEntity
  8
C4
100
AcDbCircle
 10
-27.46281398427687
 20
144.43550885144
 30
0.0
 40
12.0
100
AcDbArc
 50
90.0
 51
134.9999999999908
  0
LINE
  5
2351
330
2E0
100
AcDbEntity
  8
C4
100
AcDbLine
 10
-38.8628139842765
 20
122.8355088514399
 30
0.0
 11
-38.86281398427673
 21
127.4355088514399
 31
0.0
  0
LINE
  5
2352
330
2E0
100
AcDbEntity
  8
C4
100
AcDbLine
 10
-39.8628139842765
 20
121.8355088514399
 30
0.0
 11
-72.8628139842765
 21
121.8355088514399
 31
0.0
  0
ARC
  5
2353
330
2E0
100
AcDbEntity
  8
C4
100
AcDbCircle
 10
-39.8628139842765
 20
122.8355088514399
 30
0.0
 40
1.0
100
AcDbArc
 50
270.0
 51
0.0
  0
LINE
  5
2354
330
2E0
100
AcDbEntity
  8
C4
100
AcDbLine
 10
-39.26281398427659
 20
127.8355088514402
 30
0.0
 11
-72.86281398427672
 21
127.8355088514399
 31
0.0
  0
ARC
  5
2355
330
2E0
100
AcDbEntity
  8
C4
100
AcDbCircle
 10
-27.46281398427687
 20
144.4355088514402
 30
0.0
 40
27.0388609359598
100
AcDbArc
 50
134.9999999999908
 51
180.0
  0
LINE
  5
2356
330
2E0
100
AcDbEntity
  8
1外形線
 48
3.0
100
AcDbLine
 10
-54.50167492023661
 20
127.83550885144
 30
0.0
 11
-54.50167492023661
 21
144.43550885144
 31
0.0
  0
ARC
  5
2357
330
2E0
100
AcDbEntity
  8
C4
100
AcDbCircle
 10
-27.46281398427687
 20
144.4355088514402
 30
0.0
 40
12.0
100
AcDbArc
 50
134.9999999999908
 51
180.0
  0
ARC
  5
2358
330
2E0
100
AcDbEntity
  8
C4
100
AcDbCircle
 10
-27.46281398427687
 20
144.4355088514402
 30
0.0
 40
12.67343662689754
100
AcDbArc
 50
134.9999999999908
 51
180.0
  0
ARC
  5
2359
330
2E0
100
AcDbEntity
  8
C4
100
AcDbCircle
 10
-27.46281398427687
 20
144.4355088514402
 30
0.0
 40
19.18781589448208
100
AcDbArc
 50
148.5635556293526
 51
180.0
  0
LINE
  5
235A
330
2E0
100
AcDbEntity
  8
1外形線
 48
3.0
100
AcDbLine
 10
-46.65062987875876
 20
127.8355088514402
 30
0.0
 11
-46.65062987875876
 21
144.43550885144
 31
0.0
  0
ARC
  5
235B
330
2E0
100
AcDbEntity
  8
C4
100
AcDbCircle
 10
-39.26281398427659
 20
127.4355088514399
 30
0.0
 40
0.4
100
AcDbArc
 50
0.0
 51
90.0
  0
LINE
  5
235C
330
2E0
100
AcDbEntity
  8
C4
100
AcDbLine
 10
-39.46281398427641
 20
127.8355088514403
 30
0.0
 11
-39.46281398427686
 21
144.43550885144
 31
0.0
  0
LINE
  5
235D
330
2E0
100
AcDbEntity
  8
1外形線
 48
3.0
100
AcDbLine
 10
-40.13625061117409
 20
127.8355088514403
 30
0.0
 11
-40.13625061117432
 21
144.43550885144
 31
0.0
  0
LINE
  5
235E
330
2E0
100
AcDbEntity
  8
C4
100
AcDbLine
 10
-44.64551542349522
 20
155.2542492599795
 30
0.0
 11
-39.0223238471026
 21
149.6310576835867
 31
0.0
  0
ARC
  5
235F
330
2E0
100
AcDbEntity
  8
C4
100
AcDbCircle
 10
-41.46353490815568
 20
158.4362297753188
 30
0.0
 40
4.5
100
AcDbArc
 50
45.00000000000921
 51
134.9999999999908
  0
ARC
  5
2360
330
2E0
100
AcDbEntity
  8
C4
100
AcDbCircle
 10
-41.46353490815568
 20
158.4362297753188
 30
0.0
 40
4.5
100
AcDbArc
 50
134.9999999999908
 51
225.0000000000092
  0
ARC
  5
2361
330
2E0
100
AcDbEntity
  8
C4
100
AcDbCircle
 10
-41.46353490815568
 20
158.4362297753188
 30
0.0
 40
2.0
100
AcDbArc
 50
134.9999999999908
 51
314.9999999999908
  0
ARC
  5
2362
330
2E0
100
AcDbEntity
  8
C4
100
AcDbCircle
 10
-41.46353490815568
 20
158.4362297753188
 30
0.0
 40
2.0
100
AcDbArc
 50
314.9999999999908
 51
134.9999999999908
  0
LINE
  5
2363
330
2E0
100
AcDbEntity
  8
1外形線
 48
3.0
100
AcDbLine
 10
-10.86281398427718
 20
163.6233247459218
 30
0.0
 11
-27.46281398427687
 21
163.623324745922
 31
0.0
  0
LINE
  5
2364
330
2E0
100
AcDbEntity
  8
1外形線
 48
3.0
100
AcDbLine
 10
-10.86281398427718
 20
157.1089454783374
 30
0.0
 11
-27.46281398427687
 21
157.1089454783374
 31
0.0
  0
LINE
  5
2365
330
2E0
100
AcDbEntity
  8
C4
100
AcDbLine
 10
-10.86281398427718
 20
156.4355088514398
 30
0.0
 11
-27.46281398427687
 21
156.43550885144
 31
0.0
  0
ARC
  5
2366
330
2E0
100
AcDbEntity
  8
C4
100
AcDbCircle
 10
-5.862813984276954
 20
156.8355088514398
 30
0.0
 40
1.0
100
AcDbArc
 50
270.0
 51
0.0
  0
ARC
  5
2367
330
2E0
100
AcDbEntity
  8
C4
100
AcDbCircle
 10
-10.46281398427686
 20
156.2355088514398
 30
0.0
 40
0.4
100
AcDbArc
 50
180.0
 51
270.0
  0
LINE
  5
2368
330
2E0
100
AcDbEntity
  8
C4
100
AcDbLine
 10
-5.862813984276954
 20
155.8355088514399
 30
0.0
 11
-10.46281398427686
 21
155.8355088514399
 31
0.0
  0
LINE
  5
2369
330
2E0
100
AcDbEntity
  8
1外形線
 48
3.0
100
AcDbLine
 10
-10.86281398427695
 20
206.1966479154802
 30
0.0
 11
-64.26281398427682
 21
206.1966479154803
 31
0.0
  0
LINE
  5
236A
330
2E0
100
AcDbEntity
  8
1外形線
 48
3.0
100
AcDbLine
 10
-10.86281398427695
 20
214.0476929569578
 30
0.0
 11
-34.73636870646124
 21
214.0476929569578
 31
0.0
  0
LINE
  5
236B
330
2E0
100
AcDbEntity
  8
1外形線
 48
3.0
100
AcDbLine
 10
-10.86281398427695
 20
220.5620722245425
 30
0.0
 11
-64.26281398427682
 21
220.5620722245426
 31
0.0
  0
LINE
  5
236C
330
2E0
100
AcDbEntity
  8
C4
100
AcDbLine
 10
-10.86281398427695
 20
221.2355088514398
 30
0.0
 11
-64.26281398427682
 21
221.2355088514398
 31
0.0
  0
LINE
  5
236D
330
2E0
100
AcDbEntity
  8
1外形線
 48
3.0
100
AcDbLine
 10
-43.73636870646123
 20
214.0476929569578
 30
0.0
 11
-64.26281398427682
 21
214.0476929569578
 31
0.0
  0
ARC
  5
236E
330
2E0
100
AcDbEntity
  8
C4
100
AcDbCircle
 10
-39.23636870646124
 20
213.4355088514399
 30
0.0
 40
4.5
100
AcDbArc
 50
180.0
 51
0.0
  0
LINE
  5
236F
330
2E0
100
AcDbEntity
  8
C4
100
AcDbLine
 10
-43.73636870646123
 20
213.4355088514399
 30
0.0
 11
-43.73636870646123
 21
220.5620722245425
 31
0.0
  0
LINE
  5
2370
330
2E0
100
AcDbEntity
  8
C4
100
AcDbLine
 10
-34.73636870646124
 20
213.4355088514399
 30
0.0
 11
-34.73636870646124
 21
220.5620722245425
 31
0.0
  0
CIRCLE
  5
2371
330
2E0
100
AcDbEntity
  8
C4
100
AcDbCircle
 10
-39.23636870646124
 20
213.4355088514399
 30
0.0
 40
2.0
  0
LINE
  5
2372
330
2E0
100
AcDbEntity
  8
C4
100
AcDbLine
 10
-10.86281398427695
 20
221.4355088514397
 30
0.0
 11
-10.86281398427695
 21
187.8355088514398
 31
0.0
  0
LINE
  5
2373
330
2E0
100
AcDbEntity
  8
C4
100
AcDbLine
 10
-4.862813984276954
 20
220.8355088514398
 30
0.0
 11
-4.862813984276954
 21
188.8355088514398
 31
0.0
  0
LINE
  5
2374
330
2E0
100
AcDbEntity
  8
1外形線
 48
3.0
100
AcDbLine
 10
-10.86281398427718
 20
171.4743697873997
 30
0.0
 11
-27.46281398427687
 21
171.4743697873998
 31
0.0
  0
ARC
  5
2375
330
2E0
100
AcDbEntity
  8
C4
100
AcDbCircle
 10
-5.862813984276954
 20
220.8355088514398
 30
0.0
 40
1.0
100
AcDbArc
 50
0.0
 51
90.0
  0
ARC
  5
2376
330
2E0
100
AcDbEntity
  8
C4
100
AcDbCircle
 10
-10.46281398427686
 20
221.4355088514397
 30
0.0
 40
0.4
100
AcDbArc
 50
90.0
 51
180.0
  0
LINE
  5
2377
330
2E0
100
AcDbEntity
  8
C4
100
AcDbLine
 10
-5.862813984276954
 20
221.8355088514398
 30
0.0
 11
-10.46281398427686
 21
221.8355088514398
 31
0.0
  0
LINE
  5
2378
330
2E0
100
AcDbEntity
  8
1外形線
 48
3.0
100
AcDbLine
 10
163.6371002668857
 20
208.1366181219928
 30
0.0
 11
217.0371860157234
 21
208.1234981214147
 31
0.0
  0
LINE
  5
2379
330
2E0
100
AcDbEntity
  8
1外形線
 48
3.0
100
AcDbLine
 10
163.6371002668857
 20
215.0143931170071
 30
0.0
 11
217.0371860157234
 21
215.0012731164291
 31
0.0
  0
LINE
  5
237A
330
2E0
100
AcDbEntity
  8
1外形線
 48
3.0
100
AcDbLine
 10
163.6371002668857
 20
220.7212047067951
 30
0.0
 11
217.0371860157234
 21
220.7080847062172
 31
0.0
  0
LINE
  5
237B
330
2E0
100
AcDbEntity
  8
1外形線
 48
3.0
100
AcDbLine
 10
163.6371002668857
 20
156.9497591499857
 30
0.0
 11
180.2371860157229
 21
156.9367421340116
 31
0.0
  0
LINE
  5
237C
330
2E0
100
AcDbEntity
  8
1外形線
 48
3.0
100
AcDbLine
 10
163.6371002668857
 20
162.6565707397741
 30
0.0
 11
180.2371860157229
 21
162.6435537237999
 31
0.0
  0
LINE
  5
237D
330
2E0
100
AcDbEntity
  8
1外形線
 48
3.0
100
AcDbLine
 10
163.6371002668857
 20
169.5343457347884
 30
0.0
 11
180.2371860157229
 21
169.5213287188143
 31
0.0
  0
LINE
  5
237E
330
2E0
100
AcDbEntity
  8
C4
100
AcDbLine
 10
163.6371002668857
 20
221.235533420695
 30
0.0
 11
217.0371860157234
 21
221.2224134201171
 31
0.0
  0
LINE
  5
237F
330
2E0
100
AcDbEntity
  8
C4
100
AcDbLine
 10
163.6371002668857
 20
156.4355088514398
 30
0.0
 11
180.3371860157231
 21
156.4224134201118
 31
0.0
  0
LINE
  5
2380
330
2E0
100
AcDbEntity
  8
C4
100
AcDbLine
 10
67.7371860157184
 20
159.8373129162859
 30
0.0
 11
85.73718601572318
 21
159.8373129162859
 31
0.0
  0
LINE
  5
2381
330
2E0
100
AcDbEntity
  8
C4
100
AcDbLine
 10
75.73718601572318
 20
155.8373129162859
 30
0.0
 11
85.73718601572341
 21
155.8373129162859
 31
0.0
  0
LINE
  5
2382
330
2E0
100
AcDbEntity
  8
C4
100
AcDbLine
 10
76.73718601572296
 20
161.8373129162859
 30
0.0
 11
94.22246738996159
 21
161.8373129162859
 31
0.0
  0
LINE
  5
2383
330
2E0
100
AcDbEntity
  8
C4
100
AcDbLine
 10
75.73718601572295
 20
221.8337047866005
 30
0.0
 11
85.73718601572318
 21
221.8337047866005
 31
0.0
  0
LINE
  5
2384
330
2E0
100
AcDbEntity
  8
C4
100
AcDbLine
 10
76.73718601572272
 20
215.8337047866006
 30
0.0
 11
94.22246738996136
 21
215.8337047866006
 31
0.0
  0
LINE
  5
2385
330
2E0
100
AcDbEntity
  8
C4
100
AcDbLine
 10
67.73718601571818
 20
217.8337047866006
 30
0.0
 11
85.73718601572295
 21
217.8337047866006
 31
0.0
  0
LINE
  5
2386
330
2E0
100
AcDbEntity
  8
C4
100
AcDbLine
 10
74.73718601572272
 20
209.8337047866006
 30
0.0
 11
101.2291194005524
 21
209.8337047866006
 31
0.0
  0
LINE
  5
2387
330
2E0
100
AcDbEntity
  8
C4
100
AcDbLine
 10
106.9371860157232
 20
121.8355088514423
 30
0.0
 11
45.83718601572331
 21
121.8355088514423
 31
0.0
  0
LINE
  5
2388
330
2E0
100
AcDbEntity
  8
C4
100
AcDbLine
 10
75.73718601572318
 20
127.8355088514424
 30
0.0
 11
106.9371860157232
 21
127.8355088514424
 31
0.0
  0
LINE
  5
2389
330
2E0
100
AcDbEntity
  8
1外形線
 48
3.0
100
AcDbLine
 10
47.47930132895044
 20
127.8355088514427
 30
0.0
 11
47.47930132895044
 21
169.6393805327491
 31
0.0
  0
ARC
  5
238A
330
2E0
100
AcDbEntity
  8
1外形線
 48
3.0
100
AcDbCircle
 10
69.73718601572295
 20
181.7462152164919
 30
0.0
 40
21.99999999999988
100
AcDbArc
 50
180.0
 51
264.7840914295376
  0
ARC
  5
238B
330
2E0
100
AcDbEntity
  8
1外形線
 48
3.0
100
AcDbCircle
 10
69.83718601572332
 20
180.8253088506431
 30
0.0
 40
25.0
100
AcDbArc
 50
180.0
 51
269.7708162707806
  0
LINE
  5
238C
330
2E0
100
AcDbEntity
  8
C4
100
AcDbLine
 10
45.53718601572358
 20
174.9507875935524
 30
0.0
 11
45.53718601572358
 21
127.8355088514424
 31
0.0
  0
ARC
  5
238D
330
2E0
100
AcDbEntity
  8
C4
100
AcDbCircle
 10
45.2371860157234
 20
127.4355088514428
 30
0.0
 40
0.4
100
AcDbArc
 50
90.0
 51
180.0
  0
ARC
  5
238E
330
2E0
100
AcDbEntity
  8
C4
100
AcDbCircle
 10
45.83718601572331
 20
122.8355088514426
 30
0.0
 40
1.0
100
AcDbArc
 50
180.0
 51
270.0
  0
LINE
  5
238F
330
2E0
100
AcDbEntity
  8
C4
100
AcDbLine
 10
44.83718601572332
 20
122.8355088514426
 30
0.0
 11
44.83718601572332
 21
127.4355088514428
 31
0.0
  0
LINE
  5
2390
330
2E0
100
AcDbEntity
  8
1外形線
 48
3.0
100
AcDbLine
 10
69.73718601572295
 20
155.8255088514433
 30
0.0
 11
69.73718601572295
 21
121.8355088514423
 31
0.0
  0
LINE
  5
2391
330
2E0
100
AcDbEntity
  8
1外形線
 48
3.0
100
AcDbLine
 10
75.73718601572318
 20
155.8373129162859
 30
0.0
 11
75.73718601572318
 21
121.8355088514423
 31
0.0
  0
LINE
  5
2392
330
2E0
100
AcDbEntity
  8
1外形線
 48
3.0
100
AcDbLine
 10
72.73718601572295
 20
157.3373129162859
 30
0.0
 11
72.73718601572295
 21
121.8355088514423
 31
0.0
  0
LINE
  5
2393
330
2E0
100
AcDbEntity
  8
C4
100
AcDbLine
 10
60.37579673843947
 20
161.8373129162859
 30
0.0
 11
72.33718601572332
 21
161.8373129162859
 31
0.0
  0
LINE
  5
2394
330
2E0
100
AcDbEntity
  8
C4
100
AcDbLine
 10
45.2371860157234
 20
127.8355088514427
 30
0.0
 11
69.73718601572295
 21
127.8355088514424
 31
0.0
  0
LINE
  5
2395
330
2E0
100
AcDbEntity
  8
1外形線
 48
3.0
100
AcDbLine
 10
64.59934735842239
 20
127.8355088514424
 30
0.0
 11
64.59934735842239
 21
156.3801652388716
 31
0.0
  0
LINE
  5
2396
330
2E0
100
AcDbEntity
  8
1外形線
 48
3.0
100
AcDbLine
 10
52.72520191100875
 20
127.8355088514427
 30
0.0
 11
52.72520191100875
 21
158.3991314576598
 31
0.0
  0
LWPOLYLINE
  5
2397
330
2E0
100
AcDbEntity
  8
C4
100
AcDbPolyline
 90
        4
 70
     0
 43
0.0
 10
49.96332235811428
 20
165.6585839794399
 42
0.2402941858990398
 10
49.74199541549319
 20
164.581376934358
 10
49.8474693649066
 20
164.1987879357875
 42
0.310806551834627
 10
64.59934735842239
 20
151.7958554870398
 42
0.310806551834627
  0
LINE
  5
2398
330
2E0
100
AcDbEntity
  8
C4
100
AcDbLine
 10
72.73718601572295
 20
157.3373129162859
 30
0.0
 11
75.73718601572318
 21
156.537312916286
 31
0.0
  0
LINE
  5
2399
330
2E0
100
AcDbEntity
  8
C4
100
AcDbLine
 10
72.73718601572295
 20
158.6373129162858
 30
0.0
 11
72.73718601572295
 21
157.3373129162859
 31
0.0
  0
LINE
  5
239A
330
2E0
100
AcDbEntity
  8
C4
100
AcDbLine
 10
67.73718601572295
 20
159.8373129162859
 30
0.0
 11
67.73718601572295
 21
158.6373129162858
 31
0.0
  0
LINE
  5
239B
330
2E0
100
AcDbEntity
  8
C4
100
AcDbLine
 10
69.73718601572295
 20
156.537312916286
 30
0.0
 11
69.73718601572295
 21
155.8255088514433
 31
0.0
  0
LINE
  5
239C
330
2E0
100
AcDbEntity
  8
C4
100
AcDbLine
 10
67.73718601572295
 20
158.6373129162858
 30
0.0
 11
72.73718601572295
 21
158.6373129162858
 31
0.0
  0
LINE
  5
239D
330
2E0
100
AcDbEntity
  8
C4
100
AcDbLine
 10
67.73718601572295
 20
159.8373129162859
 30
0.0
 11
72.73718601572295
 21
159.8373129162859
 31
0.0
  0
LINE
  5
239E
330
2E0
100
AcDbEntity
  8
C4
100
AcDbLine
 10
69.73718601572295
 20
156.5373129162855
 30
0.0
 11
72.73718601572295
 21
157.3373129162859
 31
0.0
  0
ARC
  5
239F
330
2E0
100
AcDbEntity
  8
C4
100
AcDbCircle
 10
72.33718601572332
 20
161.4373129162859
 30
0.0
 40
0.4
100
AcDbArc
 50
294.0787122929465
 51
90.0
  0
LINE
  5
23A0
330
2E0
100
AcDbEntity
  8
C4
100
AcDbLine
 10
72.50038252663012
 20
161.072118586062
 30
0.0
 11
69.73718601572295
 21
159.8373129162859
 31
0.0
  0
LINE
  5
23A1
330
2E0
100
AcDbEntity
  8
C4
100
AcDbLine
 10
75.73718601572318
 20
156.537312916286
 30
0.0
 11
75.73718601572318
 21
155.8373129162859
 31
0.0
  0
LINE
  5
23A2
330
2E0
100
AcDbEntity
  8
C4
100
AcDbLine
 10
75.73718601572295
 20
160.8373129162859
 30
0.0
 11
75.73718601572318
 21
159.8373129162859
 31
0.0
  0
ARC
  5
23A3
330
2E0
100
AcDbEntity
  8
C4
100
AcDbCircle
 10
76.73718601572296
 20
160.8373129162859
 30
0.0
 40
1.0
100
AcDbArc
 50
90.0
 51
180.0
  0
ARC
  5
23A4
330
2E0
100
AcDbEntity
  8
1外形線
 48
3.0
100
AcDbCircle
 10
69.83718601572309
 20
196.8457088522431
 30
0.0
 40
25.0
100
AcDbArc
 50
90.2291837292063
 51
180.0
  0
ARC
  5
23A5
330
2E0
100
AcDbEntity
  8
1外形線
 48
3.0
100
AcDbCircle
 10
69.73718601572272
 20
195.9248024863945
 30
0.0
 40
21.99999999999988
100
AcDbArc
 50
95.21590857044941
 51
180.0
  0
LINE
  5
23A6
330
2E0
100
AcDbEntity
  8
C4
100
AcDbLine
 10
44.83718601572308
 20
188.8355088514433
 30
0.0
 11
44.83718601572355
 21
180.8253088506427
 31
0.0
  0
LINE
  5
23A7
330
2E0
100
AcDbEntity
  8
C4
100
AcDbLine
 10
44.83718601572308
 20
188.8355088514433
 30
0.0
 11
44.83718601572332
 21
196.8457088522435
 31
0.0
  0
LINE
  5
23A8
330
2E0
100
AcDbEntity
  8
C4
100
AcDbLine
 10
49.73718601572318
 20
205.0899538763064
 30
0.0
 11
49.73718601572318
 21
189.8355088514433
 31
0.0
  0
LINE
  5
23A9
330
2E0
100
AcDbEntity
  8
C4
100
AcDbLine
 10
47.7371860157234
 20
181.7462152164914
 30
0.0
 11
47.73718601572272
 21
188.8355088514433
 31
0.0
  0
LINE
  5
23AA
330
2E0
100
AcDbEntity
  8
C4
100
AcDbLine
 10
49.73718601572341
 20
172.5810638265799
 30
0.0
 11
49.73718601572318
 21
187.8355088514434
 31
0.0
  0
LINE
  5
23AB
330
2E0
100
AcDbEntity
  8
C4
  6
Continuous
 48
2.0
100
AcDbLine
 10
47.73718601572272
 20
189.8355088514433
 30
0.0
 11
50.73718601572295
 21
189.8355088514433
 31
0.0
  0
LINE
  5
23AC
330
2E0
100
AcDbEntity
  8
C4
  6
Continuous
 48
2.0
100
AcDbLine
 10
47.73718601572318
 20
187.8355088514434
 30
0.0
 11
50.73718601572295
 21
187.8355088514434
 31
0.0
  0
ARC
  5
23AD
330
2E0
100
AcDbEntity
  8
C4
 48
2.0
100
AcDbCircle
 10
50.73718601572295
 20
188.8355088514433
 30
0.0
 40
1.0
100
AcDbArc
 50
270.0
 51
90.0
  0
LINE
  5
23AE
330
2E0
100
AcDbEntity
  8
C4
100
AcDbLine
 10
47.73718601572318
 20
195.9248024863948
 30
0.0
 11
47.73718601572272
 21
188.8355088514433
 31
0.0
  0
LINE
  5
23AF
330
2E0
100
AcDbEntity
  8
C4
100
AcDbLine
 10
60.37579673843925
 20
215.8337047866006
 30
0.0
 11
72.33718601572309
 21
215.8337047866005
 31
0.0
  0
LINE
  5
23B0
330
2E0
100
AcDbEntity
  8
C4
100
AcDbLine
 10
50.77102956744738
 20
205.7708473815517
 30
0.0
 11
74.73718601572272
 21
206.8313751772235
 31
0.0
  0
LINE
  5
23B1
330
2E0
100
AcDbEntity
  8
C4
100
AcDbLine
 10
75.73718601572295
 20
221.1337047866007
 30
0.0
 11
75.73718601572295
 21
221.8337047866005
 31
0.0
  0
LINE
  5
23B2
330
2E0
100
AcDbEntity
  8
C4
100
AcDbLine
 10
69.73718601572272
 20
221.1337047866007
 30
0.0
 11
69.73718601572272
 21
221.8455088514434
 31
0.0
  0
LINE
  5
23B3
330
2E0
100
AcDbEntity
  8
C4
100
AcDbLine
 10
72.73718601572273
 20
220.3337047866006
 30
0.0
 11
75.73718601572295
 21
221.1337047866007
 31
0.0
  0
LINE
  5
23B4
330
2E0
100
AcDbEntity
  8
C4
100
AcDbLine
 10
72.73718601572273
 20
213.3337047866006
 30
0.0
 11
74.73718601572272
 21
213.3337047866006
 31
0.0
  0
LINE
  5
23B5
330
2E0
100
AcDbEntity
  8
C4
100
AcDbLine
 10
72.73718601572273
 20
219.0337047866007
 30
0.0
 11
72.73718601572273
 21
220.3337047866006
 31
0.0
  0
LINE
  5
23B6
330
2E0
100
AcDbEntity
  8
C4
100
AcDbLine
 10
72.73718601572273
 20
217.8337047866006
 30
0.0
 11
72.73718601572273
 21
213.3337047866006
 31
0.0
  0
LINE
  5
23B7
330
2E0
100
AcDbEntity
  8
C4
100
AcDbLine
 10
67.73718601572273
 20
217.8337047866006
 30
0.0
 11
67.73718601572273
 21
219.0337047866007
 31
0.0
  0
LINE
  5
23B8
330
2E0
100
AcDbEntity
  8
C4
100
AcDbLine
 10
67.73718601572273
 20
219.0337047866007
 30
0.0
 11
72.73718601572273
 21
219.0337047866007
 31
0.0
  0
LINE
  5
23B9
330
2E0
100
AcDbEntity
  8
C4
100
AcDbLine
 10
67.73718601572273
 20
217.8337047866006
 30
0.0
 11
72.73718601572273
 21
217.8337047866006
 31
0.0
  0
LINE
  5
23BA
330
2E0
100
AcDbEntity
  8
C4
100
AcDbLine
 10
72.50038252662989
 20
216.5988991168247
 30
0.0
 11
69.73718601572272
 21
217.8337047866006
 31
0.0
  0
LINE
  5
23BB
330
2E0
100
AcDbEntity
  8
C4
100
AcDbLine
 10
69.73718601572272
 20
221.1337047866012
 30
0.0
 11
72.73718601572273
 21
220.3337047866006
 31
0.0
  0
ARC
  5
23BC
330
2E0
100
AcDbEntity
  8
C4
100
AcDbCircle
 10
72.33718601572309
 20
216.2337047866004
 30
0.0
 40
0.4
100
AcDbArc
 50
270.0
 51
65.92128770705349
  0
LINE
  5
23BD
330
2E0
100
AcDbEntity
  8
C4
100
AcDbLine
 10
75.73718601572273
 20
216.8337047866006
 30
0.0
 11
75.73718601572295
 21
217.8337047866006
 31
0.0
  0
ARC
  5
23BE
330
2E0
100
AcDbEntity
  8
C4
100
AcDbCircle
 10
76.73718601572272
 20
216.8337047866006
 30
0.0
 40
1.0
100
AcDbArc
 50
180.0
 51
270.0
  0
LINE
  5
23BF
330
2E0
100
AcDbEntity
  8
C4
100
AcDbLine
 10
74.73718601572272
 20
213.3337047866006
 30
0.0
 11
74.73718601572272
 21
206.8313751772235
 31
0.0
  0
LINE
  5
23C0
330
2E0
100
AcDbEntity
  8
C4
100
AcDbLine
 10
157.6371002668857
 20
156.8373129162859
 30
0.0
 11
157.6371002668857
 21
187.8486042827734
 31
0.0
  0
LINE
  5
23C1
330
2E0
100
AcDbEntity
  8
C4
100
AcDbLine
 10
163.6371002668857
 20
156.2373129162859
 30
0.0
 11
163.6371002668857
 21
176.0604083476161
 31
0.0
  0
LINE
  5
23C2
330
2E0
100
AcDbEntity
  8
1外形線
 48
3.0
100
AcDbLine
 10
105.3234321049624
 20
127.8355088514424
 30
0.0
 11
105.3234321049624
 21
168.9244241501494
 31
0.0
  0
ARC
  5
23C3
330
2E0
100
AcDbEntity
  8
C4
100
AcDbCircle
 10
85.73718601572318
 20
178.8373129162859
 30
0.0
 40
19.0
100
AcDbArc
 50
270.0
 51
0.0
  0
ARC
  5
23C4
330
2E0
100
AcDbEntity
  8
C4
100
AcDbCircle
 10
85.73718601572341
 20
177.0373129162859
 30
0.0
 40
21.2
100
AcDbArc
 50
270.0
 51
0.0
  0
LINE
  5
23C5
330
2E0
100
AcDbEntity
  8
C4
100
AcDbLine
 10
106.9371860157232
 20
177.0373129162859
 30
0.0
 11
106.937186015723
 21
121.8355088514423
 31
0.0
  0
LINE
  5
23C6
330
2E0
100
AcDbEntity
  8
1外形線
 48
3.0
100
AcDbLine
 10
100.7278497768782
 20
127.8355088514424
 30
0.0
 11
100.7278497768782
 21
162.0466491551343
 31
0.0
  0
LINE
  5
23C7
330
2E0
100
AcDbEntity
  8
1外形線
 48
3.0
100
AcDbLine
 10
90.32570583121014
 20
127.8355088514424
 30
0.0
 11
90.32570583121014
 21
156.3398375653441
 31
0.0
  0
ARC
  5
23C8
330
2E0
100
AcDbEntity
  8
C4
100
AcDbCircle
 10
158.6371002668857
 20
156.8373129162859
 30
0.0
 40
1.0
100
AcDbArc
 50
180.0
 51
270.0
  0
ARC
  5
23C9
330
2E0
100
AcDbEntity
  8
C4
100
AcDbCircle
 10
163.237100266886
 20
156.2373129162859
 30
0.0
 40
0.4
100
AcDbArc
 50
270.0
 51
0.0
  0
LINE
  5
23CA
330
2E0
100
AcDbEntity
  8
C4
100
AcDbLine
 10
158.6371002668857
 20
155.837312916286
 30
0.0
 11
163.237100266886
 21
155.837312916286
 31
0.0
  0
ARC
  5
23CB
330
2E0
100
AcDbEntity
  8
C4
100
AcDbCircle
 10
85.73718601572318
 20
200.6337047866006
 30
0.0
 40
21.2
100
AcDbArc
 50
0.0
 51
90.0
  0
ARC
  5
23CC
330
2E0
100
AcDbEntity
  8
C4
100
AcDbCircle
 10
85.73718601572295
 20
198.8337047866006
 30
0.0
 40
19.0
100
AcDbArc
 50
0.0
 51
90.0
  0
LINE
  5
23CD
330
2E0
100
AcDbEntity
  8
C4
100
AcDbLine
 10
102.7371860157227
 20
188.8355088514433
 30
0.0
 11
102.7371860157227
 21
207.3189861608391
 31
0.0
  0
LINE
  5
23CE
330
2E0
100
AcDbEntity
  8
C4
100
AcDbLine
 10
102.7371860157227
 20
188.8355088514433
 30
0.0
 11
102.7371860157229
 21
170.3520315420472
 31
0.0
  0
LINE
  5
23CF
330
2E0
100
AcDbEntity
  8
C4
100
AcDbLine
 10
104.7371860157229
 20
188.8355088514433
 30
0.0
 11
104.7371860157232
 21
178.8373129162859
 31
0.0
  0
LINE
  5
23D0
330
2E0
100
AcDbEntity
  8
C4
100
AcDbLine
 10
106.9371860157232
 20
177.0373129162859
 30
0.0
 11
106.937186015723
 21
188.8355088514433
 31
0.0
  0
LINE
  5
23D1
330
2E0
100
AcDbEntity
  8
C4
100
AcDbLine
 10
104.7371860157229
 20
188.8355088514433
 30
0.0
 11
104.7371860157229
 21
198.8337047866006
 31
0.0
  0
LINE
  5
23D2
330
2E0
100
AcDbEntity
  8
C4
100
AcDbLine
 10
106.937186015723
 20
200.6337047866006
 30
0.0
 11
106.937186015723
 21
188.8355088514433
 31
0.0
  0
LINE
  5
23D3
330
2E0
100
AcDbEntity
  8
C4
100
AcDbLine
 10
163.6371002668857
 20
221.4355088514451
 30
0.0
 11
163.6371002668857
 21
200.6368002179305
 31
0.0
  0
LINE
  5
23D4
330
2E0
100
AcDbEntity
  8
C4
100
AcDbLine
 10
157.6371002668857
 20
220.8355088514452
 30
0.0
 11
157.6371002668857
 21
187.8486042827734
 31
0.0
  0
ARC
  5
23D5
330
2E0
100
AcDbEntity
  8
C4
100
AcDbCircle
 10
158.6371002668857
 20
220.8355088514452
 30
0.0
 40
1.0
100
AcDbArc
 50
90.0
 51
180.0
  0
ARC
  5
23D6
330
2E0
100
AcDbEntity
  8
C4
100
AcDbCircle
 10
163.237100266886
 20
221.4355088514451
 30
0.0
 40
0.4
100
AcDbArc
 50
0.0
 51
90.0
  0
LINE
  5
23D7
330
2E0
100
AcDbEntity
  8
C4
100
AcDbLine
 10
158.6371002668857
 20
221.8355088514452
 30
0.0
 11
163.237100266886
 21
221.8355088514452
 31
0.0
  0
LINE
  5
23D8
330
2E0
100
AcDbEntity
  8
C4
100
AcDbLine
 10
257.2371860157239
 20
127.8355088514456
 30
0.0
 11
236.425381950881
 21
127.8355088514454
 31
0.0
  0
LINE
  5
23D9
330
2E0
100
AcDbEntity
  8
C4
100
AcDbLine
 10
256.6371860157239
 20
121.8355088514456
 30
0.0
 11
223.637186015724
 21
121.835508851445
 31
0.0
  0
ARC
  5
23DA
330
2E0
100
AcDbEntity
  8
C4
100
AcDbCircle
 10
217.0371860157238
 20
181.2224134201167
 30
0.0
 40
33.77885969631211
100
AcDbArc
 50
0.0
 51
45.00000000000921
  0
ARC
  5
23DB
330
2E0
100
AcDbEntity
  8
C4
100
AcDbCircle
 10
217.0371860157238
 20
181.2224134201167
 30
0.0
 40
26.90108470129755
100
AcDbArc
 50
0.0
 51
45.00000000000921
  0
ARC
  5
23DC
330
2E0
100
AcDbEntity
  8
C4
100
AcDbCircle
 10
217.0371860157234
 20
181.2224134201171
 30
0.0
 40
39.48567128610014
100
AcDbArc
 50
45.00000000000921
 51
90.0
  0
ARC
  5
23DD
330
2E0
100
AcDbEntity
  8
C4
100
AcDbCircle
 10
217.0371860157234
 20
181.2224134201171
 30
0.0
 40
40.0
100
AcDbArc
 50
45.00000000000921
 51
90.0
  0
ARC
  5
23DE
330
2E0
100
AcDbEntity
  8
C4
100
AcDbCircle
 10
180.2371860157229
 20
144.4224134201118
 30
0.0
 40
25.09891529870247
100
AcDbArc
 50
45.00000000000921
 51
90.0
  0
LINE
  5
23DF
330
2E0
100
AcDbEntity
  8
C4
100
AcDbLine
 10
192.0371860157238
 20
127.8355088514449
 30
0.0
 11
212.8489900805664
 21
127.8355088514452
 31
0.0
  0
ARC
  5
23E0
330
2E0
100
AcDbEntity
  8
C4
100
AcDbCircle
 10
180.2371860157238
 20
144.4224134201112
 30
0.0
 40
25.09891529870247
100
AcDbArc
 50
0.0
 51
45.00000000000921
  0
LINE
  5
23E1
330
2E0
100
AcDbEntity
  8
C4
100
AcDbLine
 10
192.6371860157239
 20
121.835508851445
 30
0.0
 11
223.637186015724
 21
121.835508851445
 31
0.0
  0
LINE
  5
23E2
330
2E0
100
AcDbEntity
  8
C4
100
AcDbLine
 10
191.6371860157239
 20
122.835508851445
 30
0.0
 11
191.6371860157237
 21
127.4355088514449
 31
0.0
  0
ARC
  5
23E3
330
2E0
100
AcDbEntity
  8
C4
100
AcDbCircle
 10
192.6371860157239
 20
122.835508851445
 30
0.0
 40
1.0
100
AcDbArc
 50
180.0
 51
270.0
  0
ARC
  5
23E4
330
2E0
100
AcDbEntity
  8
C4
100
AcDbCircle
 10
180.2371860157229
 20
144.4224134201118
 30
0.0
 40
18.22114030368791
100
AcDbArc
 50
45.00000000000921
 51
90.0
  0
ARC
  5
23E5
330
2E0
100
AcDbEntity
  8
C4
100
AcDbCircle
 10
180.2371860157229
 20
144.4224134201118
 30
0.0
 40
12.5143287138999
100
AcDbArc
 50
45.00000000000921
 51
90.0
  0
ARC
  5
23E6
330
2E0
100
AcDbEntity
  8
C4
100
AcDbCircle
 10
180.2371860157229
 20
144.4224134201118
 30
0.0
 40
12.0
100
AcDbArc
 50
45.00000000000921
 51
90.0
  0
ARC
  5
23E7
330
2E0
100
AcDbEntity
  8
C4
100
AcDbCircle
 10
180.2371860157238
 20
144.4224134201112
 30
0.0
 40
12.0
100
AcDbArc
 50
0.0
 51
45.00000000000921
  0
ARC
  5
23E8
330
2E0
100
AcDbEntity
  8
C4
100
AcDbCircle
 10
180.2371860157238
 20
144.4224134201112
 30
0.0
 40
12.5143287138999
100
AcDbArc
 50
0.0
 51
45.00000000000921
  0
ARC
  5
23E9
330
2E0
100
AcDbEntity
  8
C4
100
AcDbCircle
 10
180.2371860157238
 20
144.4224134201112
 30
0.0
 40
18.22114030368791
100
AcDbArc
 50
0.0
 51
45.00000000000921
  0
ARC
  5
23EA
330
2E0
100
AcDbEntity
  8
C4
100
AcDbCircle
 10
192.0371860157238
 20
127.4355088514449
 30
0.0
 40
0.4
100
AcDbArc
 50
90.0
 51
180.0
  0
LINE
  5
23EB
330
2E0
100
AcDbEntity
  8
C4
100
AcDbLine
 10
192.2371860157236
 20
127.8355088514451
 30
0.0
 11
192.2371860157238
 21
144.4224134201112
 31
0.0
  0
LINE
  5
23EC
330
2E0
100
AcDbEntity
  8
1外形線
 48
3.0
100
AcDbLine
 10
192.7515147296237
 20
127.8355088514451
 30
0.0
 11
192.7515147296237
 21
144.4224134201112
 31
0.0
  0
LINE
  5
23ED
330
2E0
100
AcDbEntity
  8
1外形線
 48
3.0
100
AcDbLine
 10
198.4583263194117
 20
127.8355088514451
 30
0.0
 11
198.4583263194117
 21
144.4224134201112
 31
0.0
  0
LINE
  5
23EE
330
2E0
100
AcDbEntity
  8
1外形線
 48
3.0
100
AcDbLine
 10
205.3361013144258
 20
127.8355088514452
 30
0.0
 11
205.3361013144261
 21
144.4224134201113
 31
0.0
  0
ARC
  5
23EF
330
2E0
100
AcDbEntity
  8
C4
100
AcDbCircle
 10
217.0371860157234
 20
181.2224134201171
 30
0.0
 40
26.90108470129755
100
AcDbArc
 50
45.00000000000921
 51
90.0
  0
ARC
  5
23F0
330
2E0
100
AcDbEntity
  8
1外形線
 48
3.0
100
AcDbCircle
 10
223.637124612558
 20
187.8198369374015
 30
0.0
 40
2.25
100
AcDbArc
 50
225.0000000000092
 51
45.00000000000921
  0
ARC
  5
23F1
330
2E0
100
AcDbEntity
  8
1外形線
 48
3.0
100
AcDbCircle
 10
223.6371246125575
 20
187.8198369374015
 30
0.0
 40
2.25
100
AcDbArc
 50
45.00000000000921
 51
225.0000000000092
  0
ARC
  5
23F2
330
2E0
100
AcDbEntity
  8
C4
100
AcDbCircle
 10
217.0371860157234
 20
181.2224134201171
 30
0.0
 40
33.77885969631211
100
AcDbArc
 50
45.00000000000921
 51
90.0
  0
LINE
  5
23F3
330
2E0
100
AcDbEntity
  8
C4
100
AcDbLine
 10
257.0371860157241
 20
127.8355088514456
 30
0.0
 11
257.0371860157238
 21
181.2224134201173
 31
0.0
  0
LINE
  5
23F4
330
2E0
100
AcDbEntity
  8
1外形線
 48
3.0
100
AcDbLine
 10
243.9382707170214
 20
127.8355088514454
 30
0.0
 11
243.9382707170214
 21
181.2224134201171
 31
0.0
  0
LINE
  5
23F5
330
2E0
100
AcDbEntity
  8
1外形線
 48
3.0
100
AcDbLine
 10
250.8160457120362
 20
127.8355088514455
 30
0.0
 11
250.8160457120359
 21
181.2224134201171
 31
0.0
  0
LINE
  5
23F6
330
2E0
100
AcDbEntity
  8
1外形線
 48
3.0
100
AcDbLine
 10
256.5228573018242
 20
127.8355088514456
 30
0.0
 11
256.5228573018239
 21
181.2224134201173
 31
0.0
  0
LINE
  5
23F7
330
2E0
100
AcDbEntity
  8
C4
100
AcDbLine
 10
257.637186015724
 20
122.8355088514456
 30
0.0
 11
257.637186015724
 21
127.4355088514456
 31
0.0
  0
ARC
  5
23F8
330
2E0
100
AcDbEntity
  8
C4
100
AcDbCircle
 10
256.6371860157239
 20
122.8355088514456
 30
0.0
 40
1.0
100
AcDbArc
 50
270.0
 51
0.0
  0
ARC
  5
23F9
330
2E0
100
AcDbEntity
  8
C4
100
AcDbCircle
 10
257.2371860157239
 20
127.4355088514456
 30
0.0
 40
0.4
100
AcDbArc
 50
0.0
 51
90.0
  0
ARC
  5
23FA
330
2E0
100
AcDbEntity
  8
C4
100
AcDbCircle
 10
217.0371860157238
 20
181.2224134201167
 30
0.0
 40
40.0
100
AcDbArc
 50
0.0
 51
45.00000000000921
  0
ARC
  5
23FB
330
2E0
100
AcDbEntity
  8
C4
100
AcDbCircle
 10
217.0371860157238
 20
181.2224134201167
 30
0.0
 40
39.48567128610014
100
AcDbArc
 50
0.0
 51
45.00000000000921
  0
LINE
  5
23FC
330
2E0
100
AcDbEntity
  8
C4
100
AcDbLine
 10
-184.1912192962343
 20
221.2337047865958
 30
0.0
 11
-194.1912192962343
 21
221.2337047865958
 31
0.0
  0
LINE
  5
23FD
330
2E0
100
AcDbEntity
  8
C4
100
AcDbLine
 10
-215.3912192962343
 20
121.8355088514377
 30
0.0
 11
-154.2912192962346
 21
121.8355088514377
 31
0.0
  0
LINE
  5
23FE
330
2E0
100
AcDbEntity
  8
1外形線
 48
3.0
100
AcDbLine
 10
-155.9333346094615
 20
127.8355088514382
 30
0.0
 11
-155.9333346094615
 21
207.4316371701278
 31
0.0
  0
LINE
  5
23FF
330
2E0
100
AcDbEntity
  8
C4
100
AcDbLine
 10
-153.9912192962349
 20
172.3707875935471
 30
0.0
 11
-153.9912192962344
 21
127.8355088514378
 31
0.0
  0
ARC
  5
2400
330
2E0
100
AcDbEntity
  8
C4
100
AcDbCircle
 10
-153.6912192962345
 20
127.4355088514381
 30
0.0
 40
0.4
100
AcDbArc
 50
0.0
 51
90.0
  0
ARC
  5
2401
330
2E0
100
AcDbEntity
  8
C4
100
AcDbCircle
 10
-154.2912192962346
 20
122.835508851438
 30
0.0
 40
1.0
100
AcDbArc
 50
270.0
 51
0.0
  0
LINE
  5
2402
330
2E0
100
AcDbEntity
  8
C4
100
AcDbLine
 10
-153.2912192962346
 20
122.835508851438
 30
0.0
 11
-153.2912192962346
 21
127.4355088514381
 31
0.0
  0
LINE
  5
2403
330
2E0
100
AcDbEntity
  8
1外形線
 48
3.0
100
AcDbLine
 10
-173.0533806389332
 20
127.8355088514382
 30
0.0
 11
-173.0533806389332
 21
152.0345867529472
 31
0.0
  0
LINE
  5
2404
330
2E0
100
AcDbEntity
  8
1外形線
 48
3.0
100
AcDbLine
 10
-173.0533806389332
 20
161.0345867529469
 30
0.0
 11
-173.0533806389332
 21
220.6908524640088
 31
0.0
  0
LINE
  5
2405
330
2E0
100
AcDbEntity
  8
1外形線
 48
3.0
100
AcDbLine
 10
-161.1792351915198
 20
127.8355088514382
 30
0.0
 11
-161.1792351915198
 21
151.947149307224
 31
0.0
  0
LINE
  5
2406
330
2E0
100
AcDbEntity
  8
1外形線
 48
3.0
100
AcDbLine
 10
-161.1792351915198
 20
160.7887736506128
 30
0.0
 11
-161.1792351915198
 21
214.4715147329121
 31
0.0
  0
ARC
  5
2407
330
2E0
100
AcDbEntity
  8
1外形線
 48
3.0
100
AcDbCircle
 10
-178.2912192962344
 20
196.2457088522384
 30
0.0
 40
25.0
100
AcDbArc
 50
0.0
 51
89.77081627078069
  0
LINE
  5
2408
330
2E0
100
AcDbEntity
  8
C4
100
AcDbLine
 10
-184.1912192962343
 20
220.533704786596
 30
0.0
 11
-184.1912192962343
 21
221.2337047865958
 31
0.0
  0
LINE
  5
2409
330
2E0
100
AcDbEntity
  8
C4
100
AcDbLine
 10
-178.191219296234
 20
220.533704786596
 30
0.0
 11
-178.191219296234
 21
221.2455088514387
 31
0.0
  0
LINE
  5
240A
330
2E0
100
AcDbEntity
  8
C4
100
AcDbLine
 10
-181.191219296234
 20
219.7337047865959
 30
0.0
 11
-184.1912192962343
 21
220.533704786596
 31
0.0
  0
LINE
  5
240B
330
2E0
100
AcDbEntity
  8
C4
100
AcDbLine
 10
-178.191219296234
 20
220.5337047865965
 30
0.0
 11
-181.191219296234
 21
219.7337047865959
 31
0.0
  0
LINE
  5
240C
330
2E0
100
AcDbEntity
  8
1外形線
 48
3.0
100
AcDbLine
 10
-213.7774653854735
 20
127.8355088514382
 30
0.0
 11
-213.7774653854735
 21
208.1465935527359
 31
0.0
  0
LINE
  5
240D
330
2E0
100
AcDbEntity
  8
C4
100
AcDbLine
 10
-215.3912192962341
 20
174.4573129162812
 30
0.0
 11
-215.3912192962341
 21
121.8355088514377
 31
0.0
  0
LINE
  5
240E
330
2E0
100
AcDbEntity
  8
1外形線
 48
3.0
100
AcDbLine
 10
-209.1818830573891
 20
127.8355088514382
 30
0.0
 11
-209.1818830573891
 21
215.0243685477505
 31
0.0
  0
LINE
  5
240F
330
2E0
100
AcDbEntity
  8
1外形線
 48
3.0
100
AcDbLine
 10
-198.7797391117212
 20
127.8355088514382
 30
0.0
 11
-198.7797391117212
 21
220.7311801375387
 31
0.0
  0
ARC
  5
2410
330
2E0
100
AcDbEntity
  8
C4
100
AcDbCircle
 10
-194.1912192962343
 20
200.0337047865959
 30
0.0
 40
21.2
100
AcDbArc
 50
90.0
 51
180.0
  0
LINE
  5
2411
330
2E0
100
AcDbEntity
  8
C4
100
AcDbLine
 10
-215.3912192962343
 20
174.4573129162812
 30
0.0
 11
-215.3912192962343
 21
187.2455088514387
 31
0.0
  0
LINE
  5
2412
330
2E0
100
AcDbEntity
  8
C4
100
AcDbLine
 10
-215.3912192962343
 20
200.0337047865959
 30
0.0
 11
-215.3912192962343
 21
187.2455088514387
 31
0.0
  0
LINE
  5
2413
330
2E0
100
AcDbEntity
  8
1外形線
100
AcDbLine
 10
-178.191219296234
 20
220.533704786596
 30
0.0
 11
-178.1912192962343
 21
121.8355088514377
 31
0.0
  0
LINE
  5
2414
330
2E0
100
AcDbEntity
  8
1外形線
100
AcDbLine
 10
-184.191219296234
 20
220.533704786596
 30
0.0
 11
-184.1912192962343
 21
121.8355088514377
 31
0.0
  0
LINE
  5
2415
330
2E0
100
AcDbEntity
  8
1外形線
100
AcDbLine
 10
-181.191219296234
 20
219.7337047865959
 30
0.0
 11
-181.1912192962343
 21
121.8355088514377
 31
0.0
  0
ARC
  5
2416
330
2E0
100
AcDbEntity
  8
1外形線
 48
3.0
100
AcDbCircle
 10
-178.2912192962344
 20
178.2453088506383
 30
0.0
 40
25.0
100
AcDbArc
 50
346.4095060331938
 51
0.0
  0
LINE
  5
2417
330
2E0
100
AcDbEntity
  8
C4
100
AcDbLine
 10
-153.2912192962342
 20
178.245308850639
 30
0.0
 11
-153.2912192962346
 21
196.2457088522388
 31
0.0
  0
LINE
  5
2418
330
2E0
100
AcDbEntity
  8
1外形線
100
AcDbLine
 10
-153.6912192962345
 20
127.8355088514382
 30
0.0
 11
-178.1912192962343
 21
127.8355088514382
 31
0.0
  0
LINE
  5
2419
330
2E0
100
AcDbEntity
  8
1外形線
100
AcDbLine
 10
-184.1912192962343
 20
127.835508851438
 30
0.0
 11
-215.3912192962341
 21
127.8355088514382
 31
0.0
  0
LINE
  5
241A
330
2E0
100
AcDbEntity
  8
1外形線
100
AcDbLine
 10
-162.6461686732182
 20
161.0345867529469
 30
0.0
 11
-176.1912192962343
 21
161.0345867529469
 31
0.0
  0
LINE
  5
241B
330
2E0
100
AcDbEntity
  8
1外形線
100
AcDbLine
 10
-162.6461686732182
 20
152.0345867529472
 30
0.0
 11
-176.1912192962343
 21
152.0345867529472
 31
0.0
  0
LINE
  5
241C
330
2E0
100
AcDbEntity
  8
1外形線
100
AcDbLine
 10
-176.1912192962343
 20
161.0345867529469
 30
0.0
 11
-176.1912192962343
 21
152.0345867529472
 31
0.0
  0
ARC
  5
241D
330
2E0
100
AcDbEntity
  8
1外形線
100
AcDbCircle
 10
-162.6461686732182
 20
156.5345867529469
 30
0.0
 40
4.5
100
AcDbArc
 50
270.0
 51
90.0
  0
ENDSEC
  0
SECTION
  2
OBJECTS
  0
DICTIONARY
  5
2CE
330
0
100
AcDbDictionary
281
     1
  3
ACAD_CIP_PREVIOUS_PRODUCT_INFO
350
CA2
  3
ACAD_COLOR
350
C8A
  3
ACAD_GROUP
350
2CF
  3
ACAD_LAYOUT
350
2DB
  3
ACAD_MATERIAL
350
C58
  3
ACAD_MLEADERSTYLE
350
C9F
  3
ACAD_MLINESTYLE
350
2D8
  3
ACAD_PLOTSETTINGS
350
2DA
  3
ACAD_PLOTSTYLENAME
350
2D0
  3
ACAD_SCALELIST
350
C8D
  3
ACAD_TABLESTYLE
350
C8B
  3
ACAD_VISUALSTYLE
350
C71
  3
ACDB_RECOMPOSE_DATA
350
241F
  3
AcDbVariableDictionary
350
4E7
  0
DICTIONARY
  5
17D6
330
2CA
100
AcDbDictionary
280
     1
281
     1
  0
DICTIONARY
  5
13CB
330
2C4
100
AcDbDictionary
280
     1
281
     1
  3
ACAD_LAYERSTATES
360
13CC
  0
DICTIONARY
  5
CA3
330
2D2
100
AcDbDictionary
280
     1
281
     1
  3
ADSK_XREC_LAYER_RECONCILED
360
CA4
  0
DICTIONARY
  5
CA5
330
2E4
100
AcDbDictionary
280
     1
281
     1
  3
ADSK_XREC_LAYER_RECONCILED
360
CA6
  0
DICTIONARY
  5
CA7
330
2EA
100
AcDbDictionary
280
     1
281
     1
  3
ADSK_XREC_LAYER_RECONCILED
360
CA8
  0
DICTIONARY
  5
CA9
330
2F0
100
AcDbDictionary
280
     1
281
     1
  3
ADSK_XREC_LAYER_RECONCILED
360
CAA
  0
DICTIONARY
  5
194F
330
194E
100
AcDbDictionary
280
     1
281
     1
  0
DICTIONARY
  5
1CA1
330
1CA0
100
AcDbDictionary
280
     1
281
     1
  0
DICTIONARY
  5
12DF
330
2E0
100
AcDbDictionary
280
     1
281
     1
  3
ACAD_SORTENTS
360
12E0
  0
XRECORD
  5
CA2
102
{ACAD_REACTORS
330
2CE
102
}
330
2CE
100
AcDbXrecord
280
     1
300
ACDLT
300
2012
300
ACDLT_F_S
  0
DICTIONARY
  5
C8A
102
{ACAD_REACTORS
330
2CE
102
}
330
2CE
100
AcDbDictionary
281
     1
  0
DICTIONARY
  5
2CF
102
{ACAD_REACTORS
330
2CE
102
}
330
2CE
100
AcDbDictionary
281
     1
  0
DICTIONARY
  5
2DB
102
{ACAD_REACTORS
330
2CE
102
}
330
2CE
100
AcDbDictionary
281
     1
  3
Model
350
2E3
  3
ﾚｲｱｳﾄ1
350
2DF
  0
DICTIONARY
  5
C58
102
{ACAD_REACTORS
330
2CE
102
}
330
2CE
100
AcDbDictionary
281
     1
  3
ByBlock
350
C61
  3
ByLayer
350
C59
  3
Global
350
C69
  0
DICTIONARY
  5
C9F
102
{ACAD_REACTORS
330
2CE
102
}
330
2CE
100
AcDbDictionary
281
     1
  3
Standard
350
CA0
  0
DICTIONARY
  5
2D8
102
{ACAD_REACTORS
330
2CE
102
}
330
2CE
100
AcDbDictionary
281
     1
  3
Standard
350
2D9
  0
DICTIONARY
  5
2DA
102
{ACAD_REACTORS
330
2CE
102
}
330
2CE
100
AcDbDictionary
281
     1
  0
ACDBDICTIONARYWDFLT
  5
2D0
102
{ACAD_REACTORS
330
2CE
102
}
330
2CE
100
AcDbDictionary
281
     1
  3
Normal
350
2D1
100
AcDbDictionaryWithDefault
340
2D1
  0
DICTIONARY
  5
C8D
102
{ACAD_REACTORS
330
2CE
102
}
330
2CE
100
AcDbDictionary
281
     1
  3
A0
350
C8E
  3
A1
350
C8F
  3
A2
350
C90
  3
A3
350
C91
  3
A4
350
C92
  3
A5
350
C93
  3
A6
350
C94
  3
A7
350
C95
  3
A8
350
C96
  3
A9
350
C97
  3
B0
350
C98
  3
B1
350
C99
  3
B2
350
C9A
  3
B3
350
C9B
  3
B4
350
C9C
  3
B5
350
C9D
  3
B6
350
C9E
  0
DICTIONARY
  5
C8B
102
{ACAD_REACTORS
330
2CE
102
}
330
2CE
100
AcDbDictionary
281
     1
  3
Standard
350
C8C
  0
DICTIONARY
  5
C71
102
{ACAD_REACTORS
330
2CE
102
}
330
2CE
100
AcDbDictionary
281
     1
  3
2dWireframe
350
C77
  3
Basic
350
C76
  3
Brighten
350
C7D
  3
ColorChange
350
C81
  3
Conceptual
350
C7A
  3
Dim
350
C7C
  3
EdgeColorOff
350
C89
  3
Facepattern
350
C80
  3
Flat
350
C72
  3
FlatWithEdges
350
C73
  3
Gouraud
350
C74
  3
GouraudWithEdges
350
C75
  3
Hidden
350
C79
  3
JitterOff
350
C87
  3
Linepattern
350
C7F
  3
OverhangOff
350
C88
  3
Realistic
350
C7B
  3
Shaded
350
C86
  3
Shaded with edges
350
C85
  3
Shades of Gray
350
C82
  3
Sketchy
350
C83
  3
Thicken
350
C7E
  3
Wireframe
350
C78
  3
X-Ray
350
C84
  0
XRECORD
  5
241F
102
{ACAD_REACTORS
330
2CE
102
}
330
2CE
100
AcDbXrecord
280
     1
 90
        1
330
C8C
  0
DICTIONARY
  5
4E7
102
{ACAD_REACTORS
330
2CE
102
}
330
2CE
100
AcDbDictionary
281
     1
  3
CANNOSCALE
350
CAF
  3
CMLEADERSTYLE
350
CAD
  3
CTABLESTYLE
350
CAC
  3
DIMASSOC
350
4E8
  3
INDEXCTL
350
1819
  3
LAYEREVAL
350
CB1
  3
LAYERNOTIFY
350
CB2
  3
LIGHTINGUNITS
350
CB0
  3
MSLTSCALE
350
CAE
  3
SORTENTS
350
1818
  0
DICTIONARY
  5
13CC
102
{ACAD_REACTORS
330
13CB
102
}
330
13CB
100
AcDbDictionary
281
     1
  0
XRECORD
  5
CA4
102
{ACAD_REACTORS
330
CA3
102
}
330
CA3
100
AcDbXrecord
280
     1
290
     1
  0
XRECORD
  5
CA6
102
{ACAD_REACTORS
330
CA5
102
}
330
CA5
100
AcDbXrecord
280
     1
290
     1
  0
XRECORD
  5
CA8
102
{ACAD_REACTORS
330
CA7
102
}
330
CA7
100
AcDbXrecord
280
     1
290
     1
  0
XRECORD
  5
CAA
102
{ACAD_REACTORS
330
CA9
102
}
330
CA9
100
AcDbXrecord
280
     1
290
     1
  0
SORTENTSTABLE
  5
12E0
102
{ACAD_REACTORS
330
12DF
102
}
330
12DF
100
AcDbSortentsTable
330
2E0
  0
LAYOUT
  5
2E3
102
{ACAD_XDICTIONARY
360
13D1
102
}
102
{ACAD_REACTORS
330
2DB
102
}
330
2DB
100
AcDbPlotSettings
  1

  2
RICOH IPSiO SP 6310 RPCS
  4
A4
  6

 40
5.873749732971191
 41
5.873748779296875
 42
5.873733520507812
 43
5.873748779296875
 44
209.9733276367187
 45
296.9259948730469
 46
0.0
 47
2.941516901982566
 48
490.9840648694898
 49
-870.3934561482833
140
1343.544294824796
141
330.8434730566378
142
1.0
143
4.30095395788558
 70
 11956
 72
     1
 73
     0
 74
     4
  7
INABA-CAD-Canon.ctb
 75
     0
147
0.2325065577990089
 76
     0
 77
     2
 78
   300
148
-490.9840648694898
149
870.3934561482833
100
AcDbLayout
  1
Model
 70
     1
 71
     0
 10
0.0
 20
0.0
 11
12.0
 21
9.0
 12
0.0
 22
0.0
 32
0.0
 14
0.0
 24
0.0
 34
0.0
 15
0.0
 25
0.0
 35
0.0
146
0.0
 13
0.0
 23
0.0
 33
0.0
 16
1.0
 26
0.0
 36
0.0
 17
0.0
 27
1.0
 37
0.0
 76
     0
330
2E0
331
C53
1001
ACAD_PSEXT
1000
RICOH IPSiO SP 6310 RPCS
1000
RICOH IPSiO SP 6310 RPCS
1000
IP_192.168.210.201
1000
RPCS Driver (Windows XP/2003/2008/Vista/7 64-bit)
1070
     0
  0
LAYOUT
  5
2DF
102
{ACAD_REACTORS
330
2DB
102
}
330
2DB
100
AcDbPlotSettings
  1

  2
Canon LASER SHOT LBP-1710
  4

  6

 40
0.0
 41
0.0
 42
0.0
 43
0.0
 44
0.0
 45
0.0
 46
0.0
 47
0.0
 48
0.0
 49
0.0
140
0.0
141
0.0
142
1.0
143
1.0
 70
   688
 72
     0
 73
     0
 74
     5
  7
INABA-CAD-Canon.ctb
 75
    16
147
1.0
 76
     0
 77
     2
 78
   300
148
0.0
149
0.0
100
AcDbLayout
  1
ﾚｲｱｳﾄ1
 70
     1
 71
     1
 10
0.0
 20
0.0
 11
420.0
 21
297.0
 12
0.0
 22
0.0
 32
0.0
 14
1.000000000000000E+20
 24
1.000000000000000E+20
 34
1.000000000000000E+20
 15
-1.000000000000000E+20
 25
-1.000000000000000E+20
 35
-1.000000000000000E+20
146
0.0
 13
0.0
 23
0.0
 33
0.0
 16
1.0
 26
0.0
 36
0.0
 17
0.0
 27
1.0
 37
0.0
 76
     0
330
2DC
  0
MATERIAL
  5
C61
102
{ACAD_XDICTIONARY
360
C62
102
}
102
{ACAD_REACTORS
330
C58
102
}
330
C58
100
AcDbMaterial
  1
ByBlock
 72
     0
 43
0.0208333333333333
 43
0.0
 43
0.0
 43
0.0
 43
0.0
 43
0.0208333333333333
 43
0.0
 43
0.0
 43
0.0
 43
0.0
 43
1.0
 43
0.0
 43
0.0
 43
0.0
 43
0.0
 43
1.0
 77
     0
 47
0.0208333333333333
 47
0.0
 47
0.0
 47
0.0
 47
0.0
 47
0.0208333333333333
 47
0.0
 47
0.0
 47
0.0
 47
0.0
 47
1.0
 47
0.0
 47
0.0
 47
0.0
 47
0.0
 47
1.0
171
     0
 49
0.0208333333333333
 49
0.0
 49
0.0
 49
0.0
 49
0.0
 49
0.0208333333333333
 49
0.0
 49
0.0
 49
0.0
 49
0.0
 49
1.0
 49
0.0
 49
0.0
 49
0.0
 49
0.0
 49
1.0
175
     0
142
0.0208333333333333
142
0.0
142
0.0
142
0.0
142
0.0
142
0.0208333333333333
142
0.0
142
0.0
142
0.0
142
0.0
142
1.0
142
0.0
142
0.0
142
0.0
142
0.0
142
1.0
179
     0
144
0.0208333333333333
144
0.0
144
0.0
144
0.0
144
0.0
144
0.0208333333333333
144
0.0
144
0.0
144
0.0
144
0.0
144
1.0
144
0.0
144
0.0
144
0.0
144
0.0
144
1.0
147
0.0208333333333333
147
0.0
147
0.0
147
0.0
147
0.0
147
0.0208333333333333
147
0.0
147
0.0
147
0.0
147
0.0
147
1.0
147
0.0
147
0.0
147
0.0
147
0.0
147
1.0
  0
MATERIAL
  5
C59
102
{ACAD_XDICTIONARY
360
C5A
102
}
102
{ACAD_REACTORS
330
C58
102
}
330
C58
100
AcDbMaterial
  1
ByLayer
 72
     0
 43
0.0208333333333333
 43
0.0
 43
0.0
 43
0.0
 43
0.0
 43
0.0208333333333333
 43
0.0
 43
0.0
 43
0.0
 43
0.0
 43
1.0
 43
0.0
 43
0.0
 43
0.0
 43
0.0
 43
1.0
 77
     0
 47
0.0208333333333333
 47
0.0
 47
0.0
 47
0.0
 47
0.0
 47
0.0208333333333333
 47
0.0
 47
0.0
 47
0.0
 47
0.0
 47
1.0
 47
0.0
 47
0.0
 47
0.0
 47
0.0
 47
1.0
171
     0
 49
0.0208333333333333
 49
0.0
 49
0.0
 49
0.0
 49
0.0
 49
0.0208333333333333
 49
0.0
 49
0.0
 49
0.0
 49
0.0
 49
1.0
 49
0.0
 49
0.0
 49
0.0
 49
0.0
 49
1.0
175
     0
142
0.0208333333333333
142
0.0
142
0.0
142
0.0
142
0.0
142
0.0208333333333333
142
0.0
142
0.0
142
0.0
142
0.0
142
1.0
142
0.0
142
0.0
142
0.0
142
0.0
142
1.0
179
     0
144
0.0208333333333333
144
0.0
144
0.0
144
0.0
144
0.0
144
0.0208333333333333
144
0.0
144
0.0
144
0.0
144
0.0
144
1.0
144
0.0
144
0.0
144
0.0
144
0.0
144
1.0
147
0.0208333333333333
147
0.0
147
0.0
147
0.0
147
0.0
147
0.0208333333333333
147
0.0
147
0.0
147
0.0
147
0.0
147
1.0
147
0.0
147
0.0
147
0.0
147
0.0
147
1.0
  0
MATERIAL
  5
C69
102
{ACAD_XDICTIONARY
360
C6A
102
}
102
{ACAD_REACTORS
330
C58
102
}
330
C58
100
AcDbMaterial
  1
Global
 72
     0
 43
0.0208333333333333
 43
0.0
 43
0.0
 43
0.0
 43
0.0
 43
0.0208333333333333
 43
0.0
 43
0.0
 43
0.0
 43
0.0
 43
1.0
 43
0.0
 43
0.0
 43
0.0
 43
0.0
 43
1.0
 77
     0
 47
0.0208333333333333
 47
0.0
 47
0.0
 47
0.0
 47
0.0
 47
0.0208333333333333
 47
0.0
 47
0.0
 47
0.0
 47
0.0
 47
1.0
 47
0.0
 47
0.0
 47
0.0
 47
0.0
 47
1.0
171
     0
 49
0.0208333333333333
 49
0.0
 49
0.0
 49
0.0
 49
0.0
 49
0.0208333333333333
 49
0.0
 49
0.0
 49
0.0
 49
0.0
 49
1.0
 49
0.0
 49
0.0
 49
0.0
 49
0.0
 49
1.0
175
     0
142
0.0208333333333333
142
0.0
142
0.0
142
0.0
142
0.0
142
0.0208333333333333
142
0.0
142
0.0
142
0.0
142
0.0
142
1.0
142
0.0
142
0.0
142
0.0
142
0.0
142
1.0
179
     0
144
0.0208333333333333
144
0.0
144
0.0
144
0.0
144
0.0
144
0.0208333333333333
144
0.0
144
0.0
144
0.0
144
0.0
144
1.0
144
0.0
144
0.0
144
0.0
144
0.0
144
1.0
147
0.0208333333333333
147
0.0
147
0.0
147
0.0
147
0.0
147
0.0208333333333333
147
0.0
147
0.0
147
0.0
147
0.0
147
1.0
147
0.0
147
0.0
147
0.0
147
0.0
147
1.0
  0
MLEADERSTYLE
  5
CA0
102
{ACAD_REACTORS
330
C9F
102
}
330
C9F
100
AcDbMLeaderStyle
179
     2
170
     2
171
     1
172
     0
 90
        2
 40
0.0
 41
0.0
173
     1
 91
-1056964608
340
2D5
 92
       -2
290
     1
 42
0.09
291
     1
 43
0.36
  3
Standard
 44
0.18
300

342
2D3
174
     1
178
     6
175
     1
176
     0
 93
-1056964608
 45
0.18
292
     0
297
     0
 46
0.18
 94
-1056964608
 47
1.0
 49
1.0
140
1.0
293
     1
141
0.0
294
     1
177
     0
142
1.0
295
     0
296
     0
143
0.125
271
     0
272
     9
273
     9
  0
MLINESTYLE
  5
2D9
102
{ACAD_REACTORS
330
2D8
102
}
330
2D8
100
AcDbMlineStyle
  2
STANDARD
 70
     0
  3

 62
   256
 51
90.0
 52
90.0
 71
     2
 49
0.5
 62
   256
  6
BYLAYER
 49
-0.5
 62
   256
  6
BYLAYER
  0
ACDBPLACEHOLDER
  5
2D1
102
{ACAD_REACTORS
330
2D0
102
}
330
2D0
  0
SCALE
  5
C8E
102
{ACAD_REACTORS
330
C8D
102
}
330
C8D
100
AcDbScale
 70
     0
300
1:1
140
1.0
141
1.0
290
     1
  0
SCALE
  5
C8F
102
{ACAD_REACTORS
330
C8D
102
}
330
C8D
100
AcDbScale
 70
     0
300
1/128" = 1'-0"
140
0.0078125
141
12.0
290
     0
  0
SCALE
  5
C90
102
{ACAD_REACTORS
330
C8D
102
}
330
C8D
100
AcDbScale
 70
     0
300
1/64" = 1'-0"
140
0.015625
141
12.0
290
     0
  0
SCALE
  5
C91
102
{ACAD_REACTORS
330
C8D
102
}
330
C8D
100
AcDbScale
 70
     0
300
1/32" = 1'-0"
140
0.03125
141
12.0
290
     0
  0
SCALE
  5
C92
102
{ACAD_REACTORS
330
C8D
102
}
330
C8D
100
AcDbScale
 70
     0
300
1/16" = 1'-0"
140
0.0625
141
12.0
290
     0
  0
SCALE
  5
C93
102
{ACAD_REACTORS
330
C8D
102
}
330
C8D
100
AcDbScale
 70
     0
300
3/32" = 1'-0"
140
0.09375
141
12.0
290
     0
  0
SCALE
  5
C94
102
{ACAD_REACTORS
330
C8D
102
}
330
C8D
100
AcDbScale
 70
     0
300
1/8" = 1'-0"
140
0.125
141
12.0
290
     0
  0
SCALE
  5
C95
102
{ACAD_REACTORS
330
C8D
102
}
330
C8D
100
AcDbScale
 70
     0
300
3/16" = 1'-0"
140
0.1875
141
12.0
290
     0
  0
SCALE
  5
C96
102
{ACAD_REACTORS
330
C8D
102
}
330
C8D
100
AcDbScale
 70
     0
300
1/4" = 1'-0"
140
0.25
141
12.0
290
     0
  0
SCALE
  5
C97
102
{ACAD_REACTORS
330
C8D
102
}
330
C8D
100
AcDbScale
 70
     0
300
3/8" = 1'-0"
140
0.375
141
12.0
290
     0
  0
SCALE
  5
C98
102
{ACAD_REACTORS
330
C8D
102
}
330
C8D
100
AcDbScale
 70
     0
300
1/2" = 1'-0"
140
0.5
141
12.0
290
     0
  0
SCALE
  5
C99
102
{ACAD_REACTORS
330
C8D
102
}
330
C8D
100
AcDbScale
 70
     0
300
3/4" = 1'-0"
140
0.75
141
12.0
290
     0
  0
SCALE
  5
C9A
102
{ACAD_REACTORS
330
C8D
102
}
330
C8D
100
AcDbScale
 70
     0
300
1" = 1'-0"
140
1.0
141
12.0
290
     0
  0
SCALE
  5
C9B
102
{ACAD_REACTORS
330
C8D
102
}
330
C8D
100
AcDbScale
 70
     0
300
1-1/2" = 1'-0"
140
1.5
141
12.0
290
     0
  0
SCALE
  5
C9C
102
{ACAD_REACTORS
330
C8D
102
}
330
C8D
100
AcDbScale
 70
     0
300
3" = 1'-0"
140
3.0
141
12.0
290
     0
  0
SCALE
  5
C9D
102
{ACAD_REACTORS
330
C8D
102
}
330
C8D
100
AcDbScale
 70
     0
300
6" = 1'-0"
140
6.0
141
12.0
290
     0
  0
SCALE
  5
C9E
102
{ACAD_REACTORS
330
C8D
102
}
330
C8D
100
AcDbScale
 70
     0
300
1'-0" = 1'-0"
140
12.0
141
12.0
290
     0
  0
TABLESTYLE
  5
C8C
102
{ACAD_XDICTIONARY
360
17D2
102
}
102
{ACAD_REACTORS
330
C8B
102
}
330
C8B
100
AcDbTableStyle
280
     0
  3
Standard
 70
     0
 71
     0
 40
0.06
 41
0.06
280
     0
281
     0
  7
STANDARD
140
0.18
170
     2
 62
     0
 63
     7
283
     0
 90
      512
 91
        0
  1

274
    -2
284
     1
 64
     0
275
    -2
285
     1
 65
     0
276
    -2
286
     1
 66
     0
277
    -2
287
     1
 67
     0
278
    -2
288
     1
 68
     0
279
    -2
289
     1
 69
     0
  7
STANDARD
140
0.25
170
     5
 62
     0
 63
     7
283
     0
 90
      512
 91
        0
  1

274
    -2
284
     1
 64
     0
275
    -2
285
     1
 65
     0
276
    -2
286
     1
 66
     0
277
    -2
287
     1
 67
     0
278
    -2
288
     1
 68
     0
279
    -2
289
     1
 69
     0
  7
STANDARD
140
0.18
170
     5
 62
     0
 63
     7
283
     0
 90
      512
 91
        0
  1

274
    -2
284
     1
 64
     0
275
    -2
285
     1
 65
     0
276
    -2
286
     1
 66
     0
277
    -2
287
     1
 67
     0
278
    -2
288
     1
 68
     0
279
    -2
289
     1
 69
     0
  0
VISUALSTYLE
  5
C77
102
{ACAD_REACTORS
330
C71
102
}
330
C71
100
AcDbVisualStyle
  2
2dWireframe
 70
     4
177
     2
291
     0
 71
     0
176
     1
 72
     2
176
     1
 73
     0
176
     1
 90
        0
176
     1
 40
0.6
176
     1
 41
30.0
176
     1
 63
     7
176
     1
 74
     1
176
     1
 91
        4
176
     1
 64
     7
176
     1
 65
   257
176
     1
 75
     1
176
     1
175
     1
176
     1
 42
1.0
176
     1
 92
        0
176
     1
 66
   257
176
     1
 43
1.0
176
     1
 76
     1
176
     1
 77
     6
176
     1
 78
     2
176
     1
 67
     7
176
     1
 79
     5
176
     1
170
     0
176
     1
171
     0
176
     1
290
     0
176
     1
 93
        1
176
     1
 44
0.0
176
     1
173
     0
176
     1
  0
VISUALSTYLE
  5
C76
102
{ACAD_REACTORS
330
C71
102
}
330
C71
100
AcDbVisualStyle
  2
Basic
 70
     7
177
     2
291
     1
 71
     1
176
     1
 72
     0
176
     1
 73
     1
176
     1
 90
        0
176
     1
 40
0.6
176
     1
 41
30.0
176
     1
 63
     7
176
     1
 74
     0
176
     1
 91
        4
176
     1
 64
     7
176
     1
 65
   257
176
     1
 75
     1
176
     1
175
     1
176
     1
 42
1.0
176
     1
 92
        8
176
     1
 66
     7
176
     1
 43
1.0
176
     1
 76
     1
176
     1
 77
     6
176
     1
 78
     2
176
     1
 67
     7
176
     1
 79
     5
176
     1
170
     0
176
     1
171
     0
176
     1
290
     0
176
     1
 93
        1
176
     1
 44
0.0
176
     1
173
     0
176
     1
  0
VISUALSTYLE
  5
C7D
102
{ACAD_REACTORS
330
C71
102
}
330
C71
100
AcDbVisualStyle
  2
Brighten
 70
    12
177
     2
291
     1
 71
     2
176
     1
 72
     2
176
     1
 73
     0
176
     1
 90
        0
176
     1
 40
0.6
176
     1
 41
30.0
176
     1
 63
     7
176
     1
 74
     1
176
     1
 91
        4
176
     1
 64
     7
176
     1
 65
   257
176
     1
 75
     1
176
     1
175
     1
176
     1
 42
1.0
176
     1
 92
        8
176
     1
 66
     7
176
     1
 43
1.0
176
     1
 76
     1
176
     1
 77
     6
176
     1
 78
     2
176
     1
 67
     7
176
     1
 79
     5
176
     1
170
     0
176
     1
171
     0
176
     1
290
     0
176
     1
 93
        1
176
     1
 44
50.0
176
     1
173
     0
176
     1
  0
VISUALSTYLE
  5
C81
102
{ACAD_REACTORS
330
C71
102
}
330
C71
100
AcDbVisualStyle
  2
ColorChange
 70
    16
177
     2
291
     1
 71
     2
176
     1
 72
     2
176
     1
 73
     3
176
     1
 90
        0
176
     1
 40
0.6
176
     1
 41
30.0
176
     1
 63
     8
176
     1
 74
     1
176
     1
 91
        4
176
     1
 64
     7
176
     1
 65
   257
176
     1
 75
     1
176
     1
175
     1
176
     1
 42
1.0
176
     1
 92
        8
176
     1
 66
     8
176
     1
 43
1.0
176
     1
 76
     1
176
     1
 77
     6
176
     1
 78
     2
176
     1
 67
     7
176
     1
 79
     5
176
     1
170
     0
176
     1
171
     0
176
     1
290
     0
176
     1
 93
        1
176
     1
 44
0.0
176
     1
173
     0
176
     1
  0
VISUALSTYLE
  5
C7A
102
{ACAD_REACTORS
330
C71
102
}
330
C71
100
AcDbVisualStyle
  2
Conceptual
 70
     9
177
     2
291
     0
 71
     3
176
     1
 72
     2
176
     1
 73
     0
176
     1
 90
        0
176
     1
 40
0.6
176
     1
 41
30.0
176
     1
 63
     7
176
     1
 74
     2
176
     1
 91
        2
176
     1
 64
     7
176
     1
 65
   257
176
     1
 75
     1
176
     1
175
     1
176
     1
 42
179.0
176
     1
 92
        8
176
     1
 66
     7
176
     1
 43
1.0
176
     1
 76
     1
176
     1
 77
     6
176
     1
 78
     2
176
     1
 67
     7
176
     1
 79
     3
176
     1
170
     0
176
     1
171
     0
176
     1
290
     0
176
     1
 93
        1
176
     1
 44
0.0
176
     1
173
     0
176
     1
  0
VISUALSTYLE
  5
C7C
102
{ACAD_REACTORS
330
C71
102
}
330
C71
100
AcDbVisualStyle
  2
Dim
 70
    11
177
     2
291
     1
 71
     2
176
     1
 72
     2
176
     1
 73
     0
176
     1
 90
        0
176
     1
 40
0.6
176
     1
 41
30.0
176
     1
 63
     7
176
     1
 74
     1
176
     1
 91
        4
176
     1
 64
     7
176
     1
 65
   257
176
     1
 75
     1
176
     1
175
     1
176
     1
 42
1.0
176
     1
 92
        8
176
     1
 66
     7
176
     1
 43
1.0
176
     1
 76
     1
176
     1
 77
     6
176
     1
 78
     2
176
     1
 67
     7
176
     1
 79
     5
176
     1
170
     0
176
     1
171
     0
176
     1
290
     0
176
     1
 93
        1
176
     1
 44
-50.0
176
     1
173
     0
176
     1
  0
VISUALSTYLE
  5
C89
102
{ACAD_REACTORS
330
C71
102
}
330
C71
100
AcDbVisualStyle
  2
EdgeColorOff
 70
    22
177
     2
291
     1
 71
     2
176
     0
 72
     2
176
     0
 73
     0
176
     0
 90
        0
176
     0
 40
0.6
176
     0
 41
30.0
176
     0
 63
     7
176
     0
 74
     1
176
     0
 91
        4
176
     0
 64
     7
176
     0
 65
   257
176
     0
 75
     1
176
     0
175
     1
176
     0
 42
1.0
176
     0
 92
        8
176
     2
 66
     7
176
     0
 43
1.0
176
     0
 76
     1
176
     0
 77
     6
176
     0
 78
     2
176
     0
 67
     7
176
     0
 79
     5
176
     0
170
     0
176
     0
171
     0
176
     0
290
     0
176
     0
 93
        1
176
     0
 44
0.0
176
     0
173
     0
176
     0
  0
VISUALSTYLE
  5
C80
102
{ACAD_REACTORS
330
C71
102
}
330
C71
100
AcDbVisualStyle
  2
Facepattern
 70
    15
177
     2
291
     1
 71
     2
176
     1
 72
     2
176
     1
 73
     0
176
     1
 90
        0
176
     1
 40
0.6
176
     1
 41
30.0
176
     1
 63
     7
176
     1
 74
     1
176
     1
 91
        4
176
     1
 64
     7
176
     1
 65
   257
176
     1
 75
     1
176
     1
175
     1
176
     1
 42
1.0
176
     1
 92
        8
176
     1
 66
     7
176
     1
 43
1.0
176
     1
 76
     1
176
     1
 77
     6
176
     1
 78
     2
176
     1
 67
     7
176
     1
 79
     5
176
     1
170
     0
176
     1
171
     0
176
     1
290
     0
176
     1
 93
        1
176
     1
 44
0.0
176
     1
173
     0
176
     1
  0
VISUALSTYLE
  5
C72
102
{ACAD_REACTORS
330
C71
102
}
330
C71
100
AcDbVisualStyle
  2
Flat
 70
     0
177
     2
291
     1
 71
     2
176
     1
 72
     1
176
     1
 73
     1
176
     1
 90
        2
176
     1
 40
0.6
176
     1
 41
30.0
176
     1
 63
     7
176
     1
 74
     0
176
     1
 91
        0
176
     1
 64
     7
176
     1
 65
   257
176
     1
 75
     1
176
     1
175
     1
176
     1
 42
1.0
176
     1
 92
        8
176
     1
 66
     7
176
     1
 43
1.0
176
     1
 76
     1
176
     1
 77
     6
176
     1
 78
     2
176
     1
 67
     7
176
     1
 79
     5
176
     1
170
     0
176
     1
171
     0
176
     1
290
     0
176
     1
 93
       13
176
     1
 44
0.0
176
     1
173
     0
176
     1
  0
VISUALSTYLE
  5
C73
102
{ACAD_REACTORS
330
C71
102
}
330
C71
100
AcDbVisualStyle
  2
FlatWithEdges
 70
     1
177
     2
291
     1
 71
     2
176
     1
 72
     1
176
     1
 73
     1
176
     1
 90
        2
176
     1
 40
0.6
176
     1
 41
30.0
176
     1
 63
     7
176
     1
 74
     1
176
     1
 91
        0
176
     1
 64
     7
176
     1
 65
   257
176
     1
 75
     1
176
     1
175
     1
176
     1
 42
1.0
176
     1
 92
        0
176
     1
 66
   257
176
     1
 43
1.0
176
     1
 76
     1
176
     1
 77
     6
176
     1
 78
     2
176
     1
 67
     7
176
     1
 79
     5
176
     1
170
     0
176
     1
171
     0
176
     1
290
     0
176
     1
 93
       13
176
     1
 44
0.0
176
     1
173
     0
176
     1
  0
VISUALSTYLE
  5
C74
102
{ACAD_REACTORS
330
C71
102
}
330
C71
100
AcDbVisualStyle
  2
Gouraud
 70
     2
177
     2
291
     1
 71
     2
176
     1
 72
     2
176
     1
 73
     1
176
     1
 90
        2
176
     1
 40
0.6
176
     1
 41
30.0
176
     1
 63
     7
176
     1
 74
     0
176
     1
 91
        0
176
     1
 64
     7
176
     1
 65
   257
176
     1
 75
     1
176
     1
175
     1
176
     1
 42
1.0
176
     1
 92
        0
176
     1
 66
     7
176
     1
 43
1.0
176
     1
 76
     1
176
     1
 77
     6
176
     1
 78
     2
176
     1
 67
     7
176
     1
 79
     5
176
     1
170
     0
176
     1
171
     0
176
     1
290
     0
176
     1
 93
       13
176
     1
 44
0.0
176
     1
173
     0
176
     1
  0
VISUALSTYLE
  5
C75
102
{ACAD_REACTORS
330
C71
102
}
330
C71
100
AcDbVisualStyle
  2
GouraudWithEdges
 70
     3
177
     2
291
     1
 71
     2
176
     1
 72
     2
176
     1
 73
     1
176
     1
 90
        2
176
     1
 40
0.6
176
     1
 41
30.0
176
     1
 63
     7
176
     1
 74
     1
176
     1
 91
        0
176
     1
 64
     7
176
     1
 65
   257
176
     1
 75
     1
176
     1
175
     1
176
     1
 42
1.0
176
     1
 92
        0
176
     1
 66
   257
176
     1
 43
1.0
176
     1
 76
     1
176
     1
 77
     6
176
     1
 78
     2
176
     1
 67
     7
176
     1
 79
     5
176
     1
170
     0
176
     1
171
     0
176
     1
290
     0
176
     1
 93
       13
176
     1
 44
0.0
176
     1
173
     0
176
     1
  0
VISUALSTYLE
  5
C79
102
{ACAD_REACTORS
330
C71
102
}
330
C71
100
AcDbVisualStyle
  2
Hidden
 70
     6
177
     2
291
     0
 71
     1
176
     1
 72
     2
176
     1
 73
     2
176
     1
 90
        0
176
     1
 40
0.6
176
     1
 41
30.0
176
     1
 63
     7
176
     1
 74
     2
176
     1
 91
        2
176
     1
 64
     7
176
     1
 65
   257
176
     1
 75
     2
176
     1
175
     1
176
     1
 42
40.0
176
     1
 92
        0
176
     1
 66
   257
176
     1
 43
1.0
176
     1
 76
     1
176
     1
 77
     6
176
     1
 78
     2
176
     1
 67
     7
176
     1
 79
     3
176
     1
170
     0
176
     1
171
     0
176
     1
290
     0
176
     1
 93
        1
176
     1
 44
0.0
176
     1
173
     0
176
     1
  0
VISUALSTYLE
  5
C87
102
{ACAD_REACTORS
330
C71
102
}
330
C71
100
AcDbVisualStyle
  2
JitterOff
 70
    20
177
     2
291
     1
 71
     2
176
     0
 72
     2
176
     0
 73
     0
176
     0
 90
        0
176
     0
 40
0.6
176
     0
 41
30.0
176
     0
 63
     7
176
     0
 74
     1
176
     0
 91
        4
176
     0
 64
     7
176
     0
 65
   257
176
     0
 75
     1
176
     0
175
     1
176
     0
 42
1.0
176
     0
 92
       10
176
     2
 66
     7
176
     0
 43
1.0
176
     0
 76
     1
176
     0
 77
     6
176
     0
 78
     2
176
     0
 67
     7
176
     0
 79
     5
176
     0
170
     0
176
     0
171
     0
176
     0
290
     0
176
     0
 93
        1
176
     0
 44
0.0
176
     0
173
     0
176
     0
  0
VISUALSTYLE
  5
C7F
102
{ACAD_REACTORS
330
C71
102
}
330
C71
100
AcDbVisualStyle
  2
Linepattern
 70
    14
177
     2
291
     1
 71
     2
176
     1
 72
     2
176
     1
 73
     0
176
     1
 90
        0
176
     1
 40
0.6
176
     1
 41
30.0
176
     1
 63
     7
176
     1
 74
     1
176
     1
 91
        4
176
     1
 64
     7
176
     1
 65
   257
176
     1
 75
     7
176
     1
175
     7
176
     1
 42
1.0
176
     1
 92
        8
176
     1
 66
     7
176
     1
 43
1.0
176
     1
 76
     1
176
     1
 77
     6
176
     1
 78
     2
176
     1
 67
     7
176
     1
 79
     5
176
     1
170
     0
176
     1
171
     0
176
     1
290
     0
176
     1
 93
        1
176
     1
 44
0.0
176
     1
173
     0
176
     1
  0
VISUALSTYLE
  5
C88
102
{ACAD_REACTORS
330
C71
102
}
330
C71
100
AcDbVisualStyle
  2
OverhangOff
 70
    21
177
     2
291
     1
 71
     2
176
     0
 72
     2
176
     0
 73
     0
176
     0
 90
        0
176
     0
 40
0.6
176
     0
 41
30.0
176
     0
 63
     7
176
     0
 74
     1
176
     0
 91
        4
176
     0
 64
     7
176
     0
 65
   257
176
     0
 75
     1
176
     0
175
     1
176
     0
 42
1.0
176
     0
 92
        9
176
     2
 66
     7
176
     0
 43
1.0
176
     0
 76
     1
176
     0
 77
     6
176
     0
 78
     2
176
     0
 67
     7
176
     0
 79
     5
176
     0
170
     0
176
     0
171
     0
176
     0
290
     0
176
     0
 93
        1
176
     0
 44
0.0
176
     0
173
     0
176
     0
  0
VISUALSTYLE
  5
C7B
102
{ACAD_REACTORS
330
C71
102
}
330
C71
100
AcDbVisualStyle
  2
Realistic
 70
     8
177
     2
291
     0
 71
     2
176
     1
 72
     2
176
     1
 73
     0
176
     1
 90
        2
176
     1
 40
0.6
176
     1
 41
30.0
176
     1
 63
     7
176
     1
 74
     0
176
     1
 91
        0
176
     1
 64
     7
176
     1
 65
   257
176
     1
 75
     1
176
     1
175
     1
176
     1
 42
1.0
176
     1
 92
        8
176
     1
 66
   257
176
     1
 43
1.0
176
     1
 76
     1
176
     1
 77
     6
176
     1
 78
     2
176
     1
 67
     7
176
     1
 79
     3
176
     1
170
     0
176
     1
171
     0
176
     1
290
     0
176
     1
 93
       13
176
     1
 44
0.0
176
     1
173
     0
176
     1
  0
VISUALSTYLE
  5
C86
102
{ACAD_REACTORS
330
C71
102
}
330
C71
100
AcDbVisualStyle
  2
Shaded
 70
    27
177
     2
291
     0
 71
     2
176
     1
 72
     2
176
     1
 73
     1
176
     1
 90
        2
176
     1
 40
0.6
176
     1
 41
30.0
176
     1
 63
     7
176
     1
 74
     0
176
     1
 91
        4
176
     1
 64
     7
176
     1
 65
   257
176
     1
 75
     1
176
     1
175
     1
176
     1
 42
1.0
176
     1
 92
        8
176
     1
 66
   257
176
     1
 43
1.0
176
     1
 76
     1
176
     1
 77
     6
176
     1
 78
     2
176
     1
 67
     8
176
     1
 79
     3
176
     1
170
     0
176
     1
171
     0
176
     1
290
     0
176
     1
 93
        5
176
     1
 44
0.0
176
     1
173
     0
176
     1
  0
VISUALSTYLE
  5
C85
102
{ACAD_REACTORS
330
C71
102
}
330
C71
100
AcDbVisualStyle
  2
Shaded with edges
 70
    26
177
     2
291
     0
 71
     2
176
     1
 72
     2
176
     1
 73
     1
176
     1
 90
        2
176
     1
 40
0.6
176
     1
 41
30.0
176
     1
 63
     7
176
     1
 74
     1
176
     1
 91
       10
176
     1
 64
     7
176
     1
 65
   257
176
     1
 75
     2
176
     1
175
     1
176
     1
 42
1.0
176
     1
 92
        8
176
     1
 66
   257
176
     1
 43
1.0
176
     1
 76
     1
176
     1
 77
     6
176
     1
 78
     2
176
     1
 67
     7
176
     1
 79
     3
176
     1
170
     0
176
     1
171
     0
176
     1
290
     0
176
     1
 93
        5
176
     1
 44
0.0
176
     1
173
     0
176
     1
  0
VISUALSTYLE
  5
C82
102
{ACAD_REACTORS
330
C71
102
}
330
C71
100
AcDbVisualStyle
  2
Shades of Gray
 70
    23
177
     2
291
     0
 71
     2
176
     1
 72
     2
176
     1
 73
     3
176
     1
 90
        0
176
     1
 40
0.6
176
     1
 41
30.0
176
     1
 63
     7
176
     1
 74
     2
176
     1
 91
        2
176
     1
 64
     7
176
     1
 65
     7
176
     1
 75
     1
176
     1
175
     1
176
     1
 42
40.0
176
     1
 92
        8
176
     1
 66
     7
176
     1
 43
1.0
176
     1
 76
     1
176
     1
 77
     6
176
     1
 78
     2
176
     1
 67
     7
176
     1
 79
     3
176
     1
170
     0
176
     1
171
     0
176
     1
290
     0
176
     1
 93
        1
176
     1
 44
0.0
176
     1
173
     0
176
     1
  0
VISUALSTYLE
  5
C83
102
{ACAD_REACTORS
330
C71
102
}
330
C71
100
AcDbVisualStyle
  2
Sketchy
 70
    24
177
     2
291
     0
 71
     1
176
     1
 72
     2
176
     1
 73
     2
176
     1
 90
        0
176
     1
 40
0.6
176
     1
 41
30.0
176
     1
 63
     7
176
     1
 74
     2
176
     1
 91
        2
176
     1
 64
     7
176
     1
 65
     7
176
     1
 75
     1
176
     1
175
     1
176
     1
 42
40.0
176
     1
 92
       11
176
     1
 66
     7
176
     1
 43
1.0
176
     1
 76
     1
176
     1
 77
     6
176
     1
 78
     2
176
     1
 67
     7
176
     1
 79
     6
176
     1
170
     0
176
     1
171
     0
176
     1
290
     0
176
     1
 93
        1
176
     1
 44
0.0
176
     1
173
     0
176
     1
  0
VISUALSTYLE
  5
C7E
102
{ACAD_REACTORS
330
C71
102
}
330
C71
100
AcDbVisualStyle
  2
Thicken
 70
    13
177
     2
291
     1
 71
     2
176
     1
 72
     2
176
     1
 73
     0
176
     1
 90
        0
176
     1
 40
0.6
176
     1
 41
30.0
176
     1
 63
     7
176
     1
 74
     1
176
     1
 91
        4
176
     1
 64
     7
176
     1
 65
   257
176
     1
 75
     1
176
     1
175
     1
176
     1
 42
1.0
176
     1
 92
       12
176
     1
 66
     7
176
     1
 43
1.0
176
     1
 76
     1
176
     1
 77
     6
176
     1
 78
     2
176
     1
 67
     7
176
     1
 79
     5
176
     1
170
     0
176
     1
171
     0
176
     1
290
     0
176
     1
 93
        1
176
     1
 44
0.0
176
     1
173
     0
176
     1
  0
VISUALSTYLE
  5
C78
102
{ACAD_REACTORS
330
C71
102
}
330
C71
100
AcDbVisualStyle
  2
Wireframe
 70
     5
177
     2
291
     0
 71
     0
176
     1
 72
     2
176
     1
 73
     0
176
     1
 90
        0
176
     1
 40
0.6
176
     1
 41
30.0
176
     1
 63
     7
176
     1
 74
     1
176
     1
 91
        4
176
     1
 64
     7
176
     1
 65
   257
176
     1
 75
     1
176
     1
175
     1
176
     1
 42
1.0
176
     1
 92
        0
176
     1
 66
   257
176
     1
 43
1.0
176
     1
 76
     1
176
     1
 77
     6
176
     1
 78
     2
176
     1
 67
     7
176
     1
 79
     3
176
     1
170
     0
176
     1
171
     0
176
     1
290
     0
176
     1
 93
        1
176
     1
 44
0.0
176
     1
173
     0
176
     1
  0
VISUALSTYLE
  5
C84
102
{ACAD_REACTORS
330
C71
102
}
330
C71
100
AcDbVisualStyle
  2
X-Ray
 70
    25
177
     2
291
     0
 71
     2
176
     1
 72
     2
176
     1
 73
     1
176
     1
 90
        1
176
     1
 40
0.5
176
     1
 41
30.0
176
     1
 63
     7
176
     1
 74
     1
176
     1
 91
        0
176
     1
 64
     7
176
     1
 65
   257
176
     1
 75
     1
176
     1
175
     1
176
     1
 42
1.0
176
     1
 92
        8
176
     1
 66
     7
176
     1
 43
1.0
176
     1
 76
     1
176
     1
 77
     6
176
     1
 78
     2
176
     1
 67
     7
176
     1
 79
     3
176
     1
170
     0
176
     1
171
     0
176
     1
290
     0
176
     1
 93
       13
176
     1
 44
0.0
176
     1
173
     0
176
     1
  0
DICTIONARYVAR
  5
CAF
102
{ACAD_REACTORS
330
4E7
102
}
330
4E7
100
DictionaryVariables
280
     0
  1
1:1
  0
DICTIONARYVAR
  5
CAD
102
{ACAD_REACTORS
330
4E7
102
}
330
4E7
100
DictionaryVariables
280
     0
  1
STANDARD
  0
DICTIONARYVAR
  5
CAC
102
{ACAD_REACTORS
330
4E7
102
}
330
4E7
100
DictionaryVariables
280
     0
  1
STANDARD
  0
DICTIONARYVAR
  5
4E8
102
{ACAD_REACTORS
330
4E7
102
}
330
4E7
100
DictionaryVariables
280
     0
  1
1
  0
DICTIONARYVAR
  5
1819
102
{ACAD_REACTORS
330
4E7
102
}
330
4E7
100
DictionaryVariables
280
     0
  1
0
  0
DICTIONARYVAR
  5
CB1
102
{ACAD_REACTORS
330
4E7
102
}
330
4E7
100
DictionaryVariables
280
     0
  1
1
  0
DICTIONARYVAR
  5
CB2
102
{ACAD_REACTORS
330
4E7
102
}
330
4E7
100
DictionaryVariables
280
     0
  1
15
  0
DICTIONARYVAR
  5
CB0
102
{ACAD_REACTORS
330
4E7
102
}
330
4E7
100
DictionaryVariables
280
     0
  1
0
  0
DICTIONARYVAR
  5
CAE
102
{ACAD_REACTORS
330
4E7
102
}
330
4E7
100
DictionaryVariables
280
     0
  1
0
  0
DICTIONARYVAR
  5
1818
102
{ACAD_REACTORS
330
4E7
102
}
330
4E7
100
DictionaryVariables
280
     0
  1
127
  0
DICTIONARY
  5
13D1
330
2E3
100
AcDbDictionary
280
     1
281
     1
  3
ADSK_XREC_LAYOUTTHUMBNAIL
360
13D2
  0
DICTIONARY
  5
C62
330
C61
100
AcDbDictionary
280
     1
281
     1
  3
BUMPTILE
360
C64
  3
DIFFUSETILE
360
C63
  3
OPACITYTILE
360
C67
  3
REFLECTIONTILE
360
C66
  3
REFRACTIONTILE
360
C68
  3
SPECULARTILE
360
C65
  0
DICTIONARY
  5
C5A
330
C59
100
AcDbDictionary
280
     1
281
     1
  3
BUMPTILE
360
C5C
  3
DIFFUSETILE
360
C5B
  3
OPACITYTILE
360
C5F
  3
REFLECTIONTILE
360
C5E
  3
REFRACTIONTILE
360
C60
  3
SPECULARTILE
360
C5D
  0
DICTIONARY
  5
C6A
330
C69
100
AcDbDictionary
280
     1
281
     1
  3
BUMPTILE
360
C6C
  3
DIFFUSETILE
360
C6B
  3
OPACITYTILE
360
C6F
  3
REFLECTIONTILE
360
C6E
  3
REFRACTIONTILE
360
C70
  3
SPECULARTILE
360
C6D
  0
DICTIONARY
  5
17D2
330
C8C
100
AcDbDictionary
280
     1
281
     1
  3
ACAD_ROUNDTRIP_2008_TABLESTYLE_CELLSTYLEMAP
360
241E
  0
XRECORD
  5
13D2
102
{ACAD_REACTORS
330
13D1
102
}
330
13D1
100
AcDbXrecord
280
     1
310
280000000001000063000000010008000000000000630000000000000000000000010000000000003028210000000000C8C8C8000000000000000000000000000000000000000000000000000000000000000000330000006600000099000000CC000000FF00000000330000333300006633000099330000CC330000FF3300
310
0000660000336600006666000099660000CC660000FF66000000990000339900006699000099990000CC990000FF99000000CC000033CC000066CC000099CC0000CCCC0000FFCC000000FF000033FF000066FF000099FF0000CCFF0000FFFF000000003300330033006600330099003300CC003300FF003300003333003333
310
33006633330099333300CC333300FF33330000663300336633006666330099663300CC663300FF66330000993300339933006699330099993300CC993300FF99330000CC330033CC330066CC330099CC3300CCCC3300FFCC330000FF330033FF330066FF330099FF3300CCFF3300FFFF330000006600330066006600660099
310
006600CC006600FF00660000336600333366006633660099336600CC336600FF33660000666600336666006666660099666600CC666600FF66660000996600339966006699660099996600CC996600FF99660000CC660033CC660066CC660099CC6600CCCC6600FFCC660000FF660033FF660066FF660099FF6600CCFF6600
310
FFFF660000009900330099006600990099009900CC009900FF00990000339900333399006633990099339900CC339900FF33990000669900336699006666990099669900CC669900FF66990000999900339999006699990099999900CC999900FF99990000CC990033CC990066CC990099CC9900CCCC9900FFCC990000FF99
310
0033FF990066FF990099FF9900CCFF9900FFFF99000000CC003300CC006600CC009900CC00CC00CC00FF00CC000033CC003333CC006633CC009933CC00CC33CC00FF33CC000066CC003366CC006666CC009966CC00CC66CC00FF66CC000099CC003399CC006699CC009999CC00CC99CC00FF99CC0000CCCC0033CCCC0066CC
310
CC0099CCCC00CCCCCC00FFCCCC0000FFCC0033FFCC0066FFCC0099FFCC00CCFFCC00FFFFCC000000FF003300FF006600FF009900FF00CC00FF00FF00FF000033FF003333FF006633FF009933FF00CC33FF00FF33FF000066FF003366FF006666FF009966FF00CC66FF00FF66FF000099FF003399FF006699FF009999FF00CC
310
99FF00FF99FF0000CCFF0033CCFF0066CCFF0099CCFF00CCCCFF00FFCCFF0000FFFF0033FFFF0066FFFF0099FFFF00CCFFFF00FFFFFF00000000000D0D0D001A1A1A00282828003535350043434300505050005D5D5D006B6B6B00787878008686860093939300A1A1A100AEAEAE00BBBBBB00C9C9C900D6D6D600E4E4E400
310
F1F1F100FFFFFF000000000000000000000000000000000000000000000000000000000000000000000000000000000000000000000000000000000000000000000000000000000000000000000000000000000000000000000000000000000000000000000000000000000000000000000000000000000000000000000000
310
00000000000000000000000000000000000000000000000000000000000000002800000000000000000000000028280000000000000000000000000000000000280000000000000000000000000000000000000000000000000000000000000000000000000000000000280000000000000000280000000000000000000000
310
00280000000000000000000000000000000000282800000000000000000000000000000000000000000000000000000000000000000000000000000000000000000000000000000000000000000000000000000000000000000000000000000000000000000000000000000000000000000000000000000000000000000000
310
00000000000000000000000000000000000000000000000000000000000000000000280000000000000000000000002828000000000000000000000000000000000028000000000000000000000000000000000000000000000000000000000000000000000000000000000028000000000000000028000000000000000000
310
00000028000000000000000000000000000000000028280000000000000000000000000000000000000000000000000000000000000000000000000000000000000000000000000000000000000000000000000000000000000000000000000000000000000000000000000000000000000000000000000000000000000000
310
00000000000000000000000000000000000000000000000000000000000000000000000028000000000000000000000000282800000000000000000000000000000000002800000000000000000000000000000000000000000000000000000000000000000000000000000000002800000000000000002800000000000000
310
00000000002800000000000000000000000000000000002828000000000000000000000000000000000000000000000000000000000000000000000000000000000000000000000000000000000000000000000000000000000000000000000000000000000000000000000000000000000000000000000000000000000000
310
00000000000000000000000000000000000000000000000000000000000000000000000000002800000000000000000000000028280000000000000000000000000000000000280000000000000000000000000000000000000000000000000000000000000000000000000000000000280000000000000000280000000000
310
00000000000000280000000000000000000000000000000000282800000000000000000000000000000000000000000000000000000000000000000000000000000000000000000000000000000000000000000000000000000000000000000000000000000000000000000000000000000000000000000000000000000000
310
00000000000000000000000000000000000000000000000000000000000000000000000000000000280000000000000000000000002828000000000000000000000000000000000028000000000000000000000000000000000000000000000000000000000000000000000000000000000028000000000000000028000000
310
00000000000000000028000000000000000000000000000000000028280000000000000000000000000000000000000000000000000000000000000000000000000000000000000000000000000000000000000000000000000000000000000000000000000000000000000000000000000000000000000000000000000000
310
00000000000000000000000000000000000000000000000000000000000000000000000000000000000028000000000000000000000000282800000000000000000000000000000000002800000000000000000000000000000000000000000000000000000000000000000000000000000000002800000000000000002800
310
00000000000000000000002800000000000000000000000000000000002828000000000000000000000000000000000000000000000000000000000000000000000000000000000000000000000000000000000000000000000000000000000000000000000000000000000000000000000000000000000000000000000000
310
00000000000000000000000000000000000000000000000000000000000000000000000000000000000000002800000000000000000000000028280000000000000000000000000000000000280000000000000000000000000000000000000000000000000000000000000000000000000000000000280000000000000000
310
28000000000000000000000000280000000000000000000000000000000000282800000000000000000000000000000000000000000000000000000000000000000000000000000000000000000000000000000000000000000000000000000000000000000000000000000000000000000000000000000000000000000000
310
00000000000000000000000000000000000000000000000000000000000000000000000000000000000000000000280000000000000000000000002828000000000000000000000000000000000028000000000000000000000000000000000000000000000000000000000000000000000000000000000028000000000000
310
00002800000000000000000000000028000000000000000000000000000000000028280000000000000000000000000000000000000000000000000000000000000000000000000000000000000000000000000000000000000000000000000000000000000000000000000000000000000000000000000000000000000000
310
00000000000000000000000000000000000000000000000000000000000000000000000000000000000000000000000028000000000000000000000000282800000000000000000000000000000000002800000000000000000000000000000000000000000000000000000000000000000000000000000000002800000000
310
00000000280000000000000000000000002800000000000000000000000000000000002828000000000000000000000000000000000000000000000000000000000000000000000000000000000000000000000000000000000000000000000000000000000000000000000000000000000000000000000000000000000000
310
00000000000000000000000000000000000000000000000000000000000000000000000000000000000000000000000000002800000000000000000000000028280000000000000000000000000000000000280000000000000000000000000000000000000000000000000000000000000000000000000000000000280000
310
00000000000028000000000000000000000000282800000000000000000000000000000000282800000000000000000000000000000000000000000000000000000000000000000000000000000000000000000000000000000000000000000000000000000000000000000000000000000000000000000000000000000000
310
00000000000000000000000000000000000000000000000000000000000000000000000000000000000000000000000000000000280000000000000000000000000028280000000000000000000000000000002828000000000000000000000000000000000000000000000000000000000000000000000000000000000028
310
00000000000000002800000000000000000000000028282800000000000000000000000000002828280000000000000000000000000000000000000000000000000000000000000000000000000000000000000000000000000000000000000000000000000000000000000000000000000000000000000000000000000000
310
00000000000000000000000000000000000000000000000000000000000000000000000000000000000000000000000000000000000028000000000000000000000000002828280000000000000000000000000028002800000000000000000000000000000000000000000000000000000000000000000000000000000000
310
00280000000000000000280000000000000000000000002800280000000000000000000000000000282800000000000000000000000000000000000000000000000000000000000000000000000000000000000000000000000000000000000000000000000000000000000000000000000000000000000000000000000000
310
00000000000000000000000000000000000000000000000000000000000000000000000000000000000000000000000000000000000000002800000000000000000000000000002828282828282828282828282828282828000000000000000000000000000000000000000000000000000000000000000000000000000000
310
00000028000000000000000028000000000000000000000000002828282828282828282828282828282828000000000000000000000000000000000000000000000000000000000000000000000000000000000000000000000000000000000000000000000000000000000000000000000000000000000000000000000000
310
00000000000000000000000000000000000000000000000000000000000000000000000000000000000000000000000000000000000000000000280000000000000000000000000000000000000028282828282828000000000000000000000000000000000000000000000000000000000000000000000000000000000000
310
00000000002800000000000000002800000000000000000000000000000000000028282828282828000000000000000000000000000000000000000000000000000000000000000000000000000000000000000000000000000000000000000000000000000000000000000000000000000000000000000000000000000000
310
00000000000000000000000000000000000000000000000000000000000000000000000000000000000000000000000000000000000000000000000028000000000000000000000000000000000000000000000000000000000000000000000000000000000000000000000000000000000000000000000000000000000000
310
00000000000000280000000000000000280000000000000000000000000000000000000000000000000000000000000000000000000000000000000000000000000000000000000000000000000000000000000000000000000000000000000000000000000000000000000000000000000000000000000000000000000000
310
00000000000000000000000000000000000000000000000000000000000000000000000000000000000000000000000000000000000000000000000000002800000000000000000000000000000000000000000000000000000000000000000000000000000000000000000000000000000000000000000000000000000000
310
00000000000000000028000000000000000028000000000000000000000000000000000000000000000000000000000000000000000000000000000000000000000000000000000000000000000000000000000000000000000000000000000000000000000000000000000000000000000000000000000000000000000000
310
00000000000000000000000000000000000000000000000000000000000000000000000000000000000000000000000000000000000000000000000000000000280000000000000000000000000000000000000000000000000000000000000000000000000000000000000000000000000000000000000000000000000000
310
00000000000000000000002800000000000000002800000000000000000000000000000000000000000000000000000000000000000000000000000000000000000000000000000000000000000000000000000000000000000000000000000000000000000000000000000000000000000000000000000000000000000000
310
00000000000000000000000000000000000000000000000000000000000000000000000000000000000000000000000000000000000000000000000000000000000028000000000000000000000000000000000000000000000000000000000000000000000000000000000000000000000000000000000000000000000000
310
00000000000000000000000000280000000000000000280000000000000000000000000000000000000000000000000000000000000000000000000000000000000000000000000000000000000000000000000000000000000000000000000000000000000000000000000000000000000000000000000000000000000000
310
00000000000000000000000000000000000000000000000000000000000000000000000000000000000000000000000000000000000000000000000000000000000000002800000000DCDCDCDCDCDCDCDCDCDCDCDCDCDCDCDCDCDCDCDCDCDCDCDCDCDCDCDCDCDCDCDCDCDCDCDCDCDCDC000000000000000000000000000000
310
00000000000000000000000000000028000000000000000028000000000000000000000000000000000000000000000000000000000000000000000000000000000000000000000000000000000000000000000000000000000000000000000000000000000000000000000000000000000000000000000000000000000000
310
000000000000000000000000000000000000000000000000000000000000000000000000000000000000000000000000000000000000000000000000000000000000000000002800000000DC000000000000002828282828282828282828282828282828282828000000000000000000DC0000002828282828282828282828
310
282828282828000000000000000000000028000000000000000028000000000000000000000000282828282828282828DCDCDCDCDCDCDCDCDCDCDCDCDCDCDCDCDCDCDCDCDC00002828282828282828282828282828282828000000000000000000000000000000000000000000000000000000000000000000000000000000
310
0000000000000000000000000000000000000000000000000000000000000000000000000000000000000000000000000000000000000000000000000000000000000000000000002800000000DC000000000000002800002800000000000000000000000028000028000000000000000000DC000028282828282828282828
310
28282828282828280000000000000000000000280000000000000000280000000000000000000000002828282828282828282828282828282828282828000000000000000000DC0000282828282828282828282828282828282800000000000000000000000000000000000000000000000000000000000000000000000000
310
00000000000000000000000000000000000000000000000000000000000000000000000000000000000000000000000000000000000000000000000000000000000000000000000000002800000000DC000000000000002800002800000000000000000000000028000028000000000000000000DC00002800000028000000
310
000000000000000000280000000000000000000000280000000000000000280000000000000000000000002800002800000000000000000000000028000028000000000000000000DC000028000000280000000000000000000000280000000000000000000000000000000000000000000000000000000000000000000000
310
000000000000000000000000000000000000000000000000000000000000000000000000000000000000000000000000000000000000000000000000000000000000000000000000000000002800000000DC000000000000002800002800000000000000000000000028000028000000000000000000DC0000280000002800
310
0000000000000000000000280000000000000000000000280000000000000000280000000000000000000000002800002800000000000000000000000028000028000000000000000000DC00002800000028000000000000000000000028000000000000000000000000000000000000000000000000000000000000000000
310
0000000000000000000000000000000000000000000000000000000000000000000000000000000000000000000000000000000000000000000000000000000000000000000000000000000000002800000000DC000000000000002800002800000000000000000000000028000028000000000000000000DC000028000000
310
28000000000000000000000000280000000000000000000000280000000000000000280000000000000000000000002800002800000000000000000000000028000028000000000000000000DC0000280000002800000000000000000000002800000000000000000000000000000000000000000000000000000000000000
310
00000000000000000000000000000000000000000000000000000000000000000000000000000000000000000000000000000000000000000000000000000000000000000000000000000000000000002800000000DC000000000000002800002800000000000000000000000028000028000000000000000000DC00002800
310
000028000000000000000000000000280000000000000000000000280000000000000000280000000000000000000000002800002800000000000000000000000028000028000000000000000000DC000028000000280000000000000000000000280000000000000000000000000000000000000000000000000000000000
310
00000000000000000000000000000000000000000000000000000000000000000000000000000000000000000000000000000000000000000000000000000000000000000000000000000000000000000000280000DCDCDC000000000000002800002800000000000000000000000028000028000000000000000000DC0000
310
2800000028000000000000000000000000280000000000000000000000280000000000000000280000000000000000000000002800002800000000000000000000000028000028000000000000000000DC00002800000028000000000000000000000028000000000000000000000000000000000000000000000000000000
310
000000000000000000000000000000000000000000000000000000000000000000000000000000000000000000000000000000000000000000000000000000000000000000000000000000000000000000000000280000DCDCDC000000000000002800002800000000000000000000000028000028000000000000000000DC
310
00002800000028000000000000000000000000280000000000000000000000280000000000000000280000000000000000000000002800002800000000000000000000000028000028000000000000000000DC0000280000002800000000000000000000002800000000000000000000000000000000000000000000000000
310
0000000000000000000000000000000000000000000000000000000000000000000000000000000000000000000000000000000000000000000000000000000000000000000000000000000000000000000000000000280000DCDCDC0000000000002828000028000000000000000000000000280000282800000000000000
310
00DC00002800000028000000000000000000000000280000000000000000000000280000000000000000280000000000000000000000002800002800000000000000000000000028000028000000000000000000DC000028000000280000000000000000000000280000000000000000000000000000000000000000000000
310
00000000000000000000000000000000000000000000000000000000000000000000000000000000000000000000000000000000000000000000000000000000000000000000000000000000000000000000000000000000280000DCDCDC000000000000282800002800000000000000000000000028000028002800000000
310
000000DC00002800000028000000000000000000282828280000000000000000000000280000000000000000280000000000000000000000002800002800000000000000000000000028000028000000000000000000DC00002800000028000000000000000000282828000000000000000000000000000000000000000000
310
00000000000000000000000000000000000000000000000000000000000000000000000000000000000000000000000000000000000000000000000000000000000000000000000000000000000000000000000000000000000028000000DCDC00000000002800280000280000000000000000000000002800002800280000
310
0000000000DC00002800000028000000000000000000280000280000000000000000000000280000000000000000280000000000000000000000282800002800000000000000000000000028000028280000000000000000DC0000280000002800000000000000000028002800000000000000000000000000000000000000
310
0000000000000000000000000000000000000000000000000000000000000000000000000000000000000000000000000000000000000000000000000000000000000000000000000000000000000000000000000000000000000000280000DCDCDC0000000028000028000028000000282828282828000000280000280000
310
28000000000000DC00002828000028000000000000000000280000280000000000000000000000280000000000000000280000000000000000000028002800002800000000000000000000000028000028002800000000000000DC000028000000280000000000000000002800280000000000000000000000000000000000
310
00000000000000000000000000000000000000000000000000000000000000000000000000000000000000000000000000000000000000000000000000000000000000000000000000000000000000000000000000000000000000000000280000DCDCDC000000002800002800002800282800000000000028280028000028
310
000000280000000000DC00002800282828000000000000000000280000280000000000000000000000280000000000000000280000000000000000002800002800002800000028282828282800000028000028000028000000000000DC00002800000028000000000000000000280028000000000000000000000000000000
310
0000000000000000000000000000000000000000000000000000000000000000000000000000000000000000000000000000000000000000000000000000000000000000000000000000000000000000000000000000000000000000000000002800000000DC00000028000000280000282800000000000000000000282800
310
0028000000002800000000DC00002800000028000000000000000000280000280000000000000000000000280000000000000000280000000000000000280000002800002800282800000000000028280028000028000000280000000000DC0000282828002800000000000000002800002800000000000000000000000000
310
00000000000000000000000000000000000000000000000000000000000000000000000000000000000000000000000000000000000000000000000000000000000000000000000000000000000000000000000000000000000000000000000000002800000000DC0000002800000028000000000000000000000000000000
310
00000028000000002800000000DC00002800000000000000000000000000280000280000000000000000000000280000000000000000280000000000000000280000002800002828000000000000000000002828000028000000280000000000DC000028000028280000000000000000280000280000000000000000000000
310
000000000000000000000000000000000000000000000000000000000000000000000000000000000000000000000000000000000000000000000000000000000000000000000000000000000000000000000000000000000000000000000000000000002800000000DC000028000000002800000000000000000000000000
310
000000000028000000002800000000DC00002800000000000000000000000000280000280000000000000000000000280000000000000000280000000000000028000000002800000000000000000000000000000000000028000000002800000000DC00002800000028000000000000000028000028000000000000000000
310
0000000000000000000000000000000000000000000000000000000000000000000000000000000000000000000000000000000000000000000000000000000000000000000000000000000000000000000000000000000000000000000000000000000000002800000000DC00002800000000280000000000000000000000
310
00000000000000280000000028000000DCDC00002800000000000000000000000000280000280000000000000000000000280000000000000000280000000000000028000000002800000000000000000000000000000000000028000000002800000000DC0000280000000000000000000000002800002800000000000000
310
00000000000000000000000000000000000000000000000000000000000000000000000000000000000000000000000000000000000000000000000000000000000000000000000000000000000000000000000000000000000000000000000000000000000000002800000000DC0000280000000028000000000000000000
310
000000000000000000280000000000280000DCDC0000280000000000000000000000000028000028000000000000000000000028000000000000000028000000000000002800000000280000000000000000000000000000000000002800000000280000DCDCDC000028000000000000000000000000280000280000000000
310
000000000000000000000000000000000000000000000000000000000000000000000000000000000000000000000000000000000000000000000000000000000000000000000000000000000000000000000000000000000000000000000000000000000000000000002800000000DC000028000000002800000000000000
310
0000000000000000000000280000000000280000DCDC0000280000000000000000000000000028000028000000000000000000000028000000000000000028000000000000280000000000280000000000000000000000000000000000002800000000002800DC00DC00002800000000000000000000000028000028000000
310
0000000000000000000000000000000000000000000000000000000000000000000000000000000000000000000000000000000000000000000000000000000000000000000000000000000000000000000000000000000000000000000000000000000000000000000000002800000000DC00280000000000280000000000
310
00000000000000000000000000280000000000280000DCDC0000280000000000000000000000000028000028000000000000000000000028000000000000000028000000000000280000000000280000000000000000000000000000000000002800000000002800DCDCDC0000280000000000000000000000002800002800
310
00000000000000000000000000000000000000000000000000000000000000000000000000000000000000000000000000000000000000000000000000000000000000000000000000000000000000000000000000000000000000000000000000000000000000000000000000002800000000DC0028000000000028000000
310
000000000000000000000000000000DCDCDCDCDC00DCDCDCDCDC0000280000000000000000000000000028000028000000000000000000000028000000000000000028000000000000280000000000280000000000000000000000000000000000002800000000002800DCDCDC000028000000000000000000000000280000
310
280000000000000000000000000000000000000000000000000000000000000000000000000000000000000000000000000000000000000000000000000000000000000000000000000000000000000000000000000000000000000000000000000000000000000000000000000000002800000000DCDCDCDCDCDCDCDCDCDC
310
DCDCDCDCDCDCDCDCDC0000000000000000DCDCDCDCDC00DCDCDC00DC00002800000000000000000000000000280000280000000000000000000000280000000000000000280000000000002800000000002800000000000000000000000000000000000028000000000028000000DC00002800000000000000000000000028
310
00002800000000000000000000000000000000000000000000000000000000000000000000000000000000000000000000000000000000000000000000000000000000000000000000000000000000000000000000000000000000000000000000000000000000000000000000000000000028000000000000280000000000
310
28000000000000000000000000000000000000280000DC00002800DC00DC00002800000000000000000000000000280000280000000000000000000000280000000000000000280000000000002800000000002800000000000000000000000000000000000028000000000028000000DC0000280000000000000000000000
310
00280000280000000000000000000000000000000000000000000000000000000000000000000000000000000000000000000000000000000000000000000000000000000000000000000000000000000000000000000000000000000000000000000000000000000000000000000000000000002800000000000028000000
310
0000280000000000000000000000000000000000002800DCDC00002800DC00DC00002800000000000000000000000000280000280000000000000000000000280000000000000000280000000000002800000000002800000000000000000000000000000000000028000000000028000000DC000028000000000000000000
310
00000028000028000000000000000000000000000000000000000000000000000000000000000000000000000000000000000000000000000000000000000000000000000000000000000000000000000000000000000000000000000000000000000000000000000000000000000000000000000000280000000000002800
310
00000000002800000000000000000000000000000000280000DCDC000028DCDC00DC00002800000000000000000000000000280000280000000000000000000000280000000000000000280000000000002800000000000028000000000000000000000000000000002800000000000028000000DC00002800000000000000
310
00000000002800002800000000000000000000000000000000000000000000000000000000000000000000000000000000000000000000000000000000000000000000000000000000000000000000000000000000000000000000000000000000000000000000000000000000000000000000000000000028000000000000
310
00280000000000280000000000000000000000000000000028000000DC0028DCDCDC00DC00002800000000000000000000000000280000280000000000000000000000280000000000000000280000000000002800000000000028000000000000000000000000000000002800000000000028000000DC0000280000000000
310
00000000000000280000280000000000000000000000000000000000000000000000000000000000000000000000000000000000000000000000000000000000000000000000000000000000000000000000000000000000000000000000000000000000000000000000000000000000000000000000000000002800000000
310
00000028000000000028000000000000000000000000000000002800000000002800000000DC00002800000000000000000000000000280000280000000000000000000000280000000000000000280000000000000028000000000028000000000000000000000000000000002800000000002800000000DC000028000000
310
00000000000000000028000028000000000000000000000000000000000000000000000000000000000000000000000000000000000000000000000000000000000000000000000000000000000000000000000000000000000000000000000000000000000000000000000000000000000000000000000000000000280000
310
000000000028000000000000282800000000000000000000000000280000000000002800000000DC00000028000000000000000000000000280000280000000000000000000000280000000000000000280000000000000028000000000000282800000000000000000000000000280000000000002800000000DC00000028
310
00000000000000000000002800002800000000000000000000000000000000000000000000000000000000000000000000000000000000000000000000000000000000000000000000000000000000000000000000000000000000000000000000000000000000000000000000000000000000000000000000000000000028
310
0000000000000000280000000000000028000000000000000000000028000000000000280000000000DC00000028000000000000000000000000280000280000000000000000000000280000000000000000280000000000000000280000000000000028000000000000000000002828000000000000280000000000DC0000
310
00280000000000000000000000280000280000000000000000000000000000000000000000000000000000000000000000000000000000000000000000000000000000000000000000000000000000000000000000000000000000000000000000000000000000000000000000000000000000000000000000000000000000
310
00280000000000000000002800000000000000282828000000000028282800000000000000280000000000DC00000000280000000000000000000000280000280000000000000000000000280000000000000000280000000000000000280000000000000000282800000000002828280000000000000000280000000000DC
310
00000000280000000000000000000028000028000000000000000000000000000000000000000000000000000000000000000000000000000000000000000000000000000000000000000000000000000000000000000000000000000000000000000000000000000000000000000000000000000000000000000000000000
310
000000280000000000000000002800000000000000000000282828282800000000000000000028000000000000DC000000000028282828282828282828282800002800000000000000000000002800000000000000002800000000000000000028000000000000000000282828282800000000000000000000280000000000
310
00DC0000000000282828282828282828282800002800000000000000000000000000000000000000000000000000000000000000000000000000000000000000000000000000000000000000000000000000000000000000000000000000000000000000000000000000000000000000000000000000000000000000000000
310
0000000000280000000000000000000028000000000000000000000000000000000000000000000028000000000000DC00000000000000000000000000000000280000280000000000000000000000280000000000000000280000000000000000000028000000000000000000000000000000000000000000002800000000
310
000000DC000000000000000000000000000000280000280000000000000000000000000000000000000000000000000000000000000000000000000000000000000000000000000000000000000000000000000000000000000000000000000000000000000000000000000000000000000000000000000000000000000000
310
00000000000000280000000000000000000000280000000000000000000000000000000000000000002800000000000000DC0000000000000000000000000000000028000028000000000000000000000028000000000000000028000000000000000000000028000000000000000000000000000000000000000028000000
310
0000000000DC00000000000000000000000000000028000028000000000000000000000000000000000000000000000000000000000000000000000000000000000000000000000000000000000000000000000000000000000000000000000000000000000000000000000000000000000000000000000000000000000000
310
000000000000000000280000000000000000000000002828000000000000000000000000000000000028280000000000000000DC000000000000000000000000000000002800002800000000000000000000002800000000000000002800000000000000000000000028000000000000000000000000000000000000280000
310
00000000000000DC0000000000000000000000000000000028002800000000000000000000000000000000000000000000000000000000000000000000000000000000000000000000000000000000000000000000000000000000000000000000000000000000000000000000000000000000000000000000000000000000
310
0000000000000000000000280000000000000000000000000000282800000000002828280000000000282800000000000000000000DC00000000000000000000000000000000280000280000000000000000000000280000000000000000280000000000000000000000000028280000000000002828000000000000282800
310
000000000000000000DC000000000000000000000000000000002800280000000000000000000000000000000000000000000000000000000000000000000000000000000000000000000000000000000000000000000000000000000000000000000000000000000000000000000000000000000000000000000000000000
310
00000000000000000000000000280000000000000000000000000000000028282800002800280000282828000000000000000000000000DC0000000000000000000000000000000028000028000000000000000000000028000000000000000028000000000000000000000000000000282800000028000028000028282800
310
0000000000000000000000DC00000000000000000000000000000000280028000000000000000000000000000000000000000000000000000000000000000000000000000000000000000000000000000000000000000000000000000000000000000000000000000000000000000000000000000000000000000000000000
310
000000000000000000000000000000280000000000000000000000000000000000000028282828282828DCDCDCDCDCDCDCDCDCDCDCDCDCDCDCDCDC00000000000000000000000000000028282828000000000000000000000028000000000000000028000000000000000000000000000000000028282828DCDCDCDCDCDCDC
310
DCDCDCDCDCDCDCDCDCDCDCDCDCDC0000000000000000000000000000000028282800000000000000000000000000000000000000000000000000000000000000000000000000000000000000000000000000000000000000000000000000000000000000000000000000000000000000000000000000000000000000000000
310
00000000000000000000000000000000002800000000000000000000000000000000000000000000000000000000000000000000000000000000000000000000000000000000000000000000000000000000000000000000000000280000000000000000280000000000000000000000000000000000000000000000000000
310
00000000000000000000000000000000000000000000000000000000000000000000000000000000000000000000000000000000000000000000000000000000000000000000000000000000000000000000000000000000000000000000000000000000000000000000000000000000000000000000000000000000000000
310
00000000000000000000000000000000000000280000000000000000000000000000000000000000000000000000000000000000000000000000000000000000000000000000000000000000000000000000000000000000000000000028000000000000000028000000000000000000000000000000000000000000000000
310
00000000000000000000000000000000000000000000000000000000000000000000000000000000000000000000000000000000000000000000000000000000000000000000000000000000000000000000000000000000000000000000000000000000000000000000000000000000000000000000000000000000000000
310
00000000000000000000000000000000000000000028000000000000000000000000000000000000000000000000000000000000000000000000000000000000000000000000000000000000000000000000000000000000000000000000002800000000000000002800000000000000000000000000000000000000000000
310
00000000000000000000000000000000000000000000000000000000000000000000000000000000000000000000000000000000000000000000000000000000000000000000000000000000000000000000000000000000000000000000000000000000000000000000000000000000000000000000000000000000000000
310
00000000000000000000000000000000000000000000002800000000000000000000000000000000000000000000000000000000000000000000000000000000000000000000000000000000000000000000000000000000000000000000000000280000000000000000280000000000000000000000000000000000000000
310
00000000000000000000000000000000000000000000000000000000000000000000000000000000000000000000000000000000000000000000000000000000000000000000000000000000000000000000000000000000000000000000000000000000000000000000000000000000000000000000000000000000000000
310
00000000000000000000000000000000000000000000000000280000000000000000000000000000000000000000000000000000000000000000000000000000000000000000000000000000000000000000000000000000000000000000000000000028000000000000000028000000000000000000000000000000000000
310
00000000000000000000000000000000000000000000000000000000000000000000000000000000000000000000000000000000000000000000000000000000000000000000000000000000000000000000000000000000000000000000000000000000000000000000000000000000000000000000000000000000000000
310
00000000000000000000000000000000000000000000000000000028000000000028282828282828280000002828282800000000000000000000000000000000000000000000000000000000000000000000000000000000000000000000000000000000002800000000000000002800000000002828282828282828000028
310
28282800000000000000000000000000000000000000000000000000000000000000000000000000000000000000000000000000000000000000000000000000000000000000000000000000000000000000000000000000000000000000000000000000000000000000000000000000000000000000000000000000000000
310
00000000000000000000000000000000000000000000000000000000002800000000002828282828282828282828282828280000000000000000000000000000000000000000000000000000000000000000000000000000000000000000000000000000000000280000000000000000280000000000282828282828282828
310
28282828282800000000000000000000000000000000000000000000000000000000000000000000000000000000000000000000000000000000000000000000000000000000000000000000000000000000000000000000000000000000000000000000000000000000000000000000000000000000000000000000000000
310
00000000000000000000000000000000000000000000000000000000000000280000000000280028282828002800000028282828000000000000000000000000000000000000000000000000000000000000000000000000000000000000000000000000000000000028000000000000000028000000000028002828282800
310
28000028282828000000000000000000000000000000000000000000000000000000000000000000000000000000000000000000000000000000000000000000000000000000000000000000000000000000000000000000000000000000000000000000000000000000000000000000000000000000000000000000000000
310
00000000000000000000000000000000000000000000000000000000000000000028000000000000000000000000000000000000000000000000000000000000000000000000000000000000000000000000000000000000000000000000000000000000000000000000002800000000000000002800000000000000000000
310
00000000000000000000000000000000000000000000000000000000000000000000000000000000000000000000000000000000000000000000000000000000000000000000000000000000000000000000000000000000000000000000000000000000000000000000000000000000000000000000000000000000000000
310
00000000000000000000000000000000000000000000000000000000000000000000002800000000000000000000000000000000000000000000000000000000000000000000000000000000000000000000000000000000000000000000000000000000000000000000000000280000000000000000280000000000000000
310
00000000000000000000000000000000000000000000000000000000000000000000000000000000000000000000000000000000000000000000000000000000000000000000000000000000000000000000000000000000000000000000000000000000000000000000000000000000000000000000000000000000000000
310
00000000000000000000000000000000000000000000000000000000000000000000000000280000000000000000000000000000000000000000000000000000000000000000000000000000000000000000000000000000000000000000000000000000000000000000000000000028000000000000000028000000000000
310
00000000000000000000000000000000000000000000000000000000000000000000000000000000000000000000000000000000000000000000000000000000000000000000000000000000000000000000000000000000000000000000000000000000000000000000000000000000000000000000000000000000000000
310
00000000000000000000000000000000000000000000000000000000000000000000000000000028000000000000000000000000000000000000000000000000000000000000000000000000000000000000000000000000000000000000000000000000000000000000000000000000002800000000000000002800000000
310
00000000000000000000000000000000000000000000000000000000000000000000000000000000000000000000000000000000000000000000000000000000000000000000000000000000000000000000000000000000000000000000000000000000000000000000000000000000000000000000000000000000000000
310
00000000000000000000000000000000000000000000000000000000000000000000000000000000002828282828282828282828282828282828282828282828282828282828282828282828282828282828282828282828282828282828282828282828282828282828282828282828282828280000000000000000282828
310
28282828282828282828282828282828282828282828282828282828282828282828282828282828282828282828282828282828282828282828280000000000000000000000000000000000000000000000000000000000000000000000000000000000000000000000000000000000000000000000000000000000000000
310
00000000000000000000000000000000000000000000000000000000000000000000000000000000000000280000000000000000000000000000000000000000000000000000000000000000000000000000000000000000000000000000000000000000000000000000000000000000000000000028000000000000000028
310
00000000000000000000000000000000000000000000000000000000000000000000000000000000000000000000000000000000000000000000000000000000000000000000000000000000000000000000000000000000000000000000000000000000000000000000000000000000000000000000000000000000000000
310
00000000000000000000000000000000000000000000000000000000000000000000000000000000000000000028000000000000000000000000000000000000000000000000000000000000000000000000000000000000000000000000000000000000000000000000000000000000000000000000002800000000000000
310
00280000000000000000000000000000000000000000000000000000000000000000000000000000000000000000000000000000000000000000000000000000000000000000000000000000000000000000000000000000000000000000000000000000000000000000000000000000000000000000000000000000000000
310
00000000000000000000000000000000000000000000000000000000000000000000000000000000000000000000002800000000000000000000000000000000000000000000000000000000000000000000000000000000000000000000000000000000000000000000000000000000000000000000000000280000000000
310
00000028000000000000000000000000000000000000000000000000000000000000000000000000000000000000000000000000000000000000000000000000000000000000000000000000000000000000000000000000000000000000000000000000000000000000000000000000000000000000000000000000000000
310
00000000000000000000000000000000000000000000000000000000000000000000000000000000000000000000000000280000000000000000000000000000000000000000000000000000000000000000000000000000000000000000000000000000000000000000000000000000000000000000000000000028000000
310
00000000002800000000000000000000000000000000000000000000000000000000000000000000000000000000000000000000000000000000000000000000000000000000000000000000000000000000000000000000000000000000000000000000000000000000000000000000000000000000000000000000000000
310
00000000000000000000000000000000000000000000000000000000000000000000000000000000000000000000000000000028000000000000282828282828282828282828282828282828282828282828282828282828282828000000000000000000000000000000000000000000000000000000000000000000002800
310
00000000000000280000000000002828282828282828282828282828282828282828282828282828282828282828000000000000000000000000000000000000000000000000000000000000000000000000000000000000000000000000000000000000000000000000000000000000000000000000000000000000000000
310
00000000000000000000000000000000000000000000000000000000000000000000000000000000000000000000000000000000002800000000000028000000000000282800000000000000000000000000000028000000000000002800000000000000000000000000000000000000000000000000000000000000000000
310
28000000000000000028000000000000280000000000002828000000000000000000000000000000280000000000002800000000000000000000000000000000000000000000000000000000000000000000000000000000000000000000000000000000000000000000000000000000000000000000000000000000000000
310
00000000000000000000000000000000000000000000000000000000000000000000000000000000000000000000000000000000000000280000000000002828282800000028280000000000000000000000000000002800000028282828000000000000000000000000000000000000000000000000000000000000000000
310
00002800000000000000002800000000000028282828000000282800000000000000000000000000000028000000282828280000000000000000000000000000000000000000000000000000000000000000000000000000000000000000000000000000000000000000000000000000000000000000000000000000000000
310
00000000000000000000000000000000000000000000000000000000000000000000000000000000000000000000000000000000000000000028000000000000000000002828282828000000000000000000000000000000282828280000000000000000000000000000000000000000000000000000000000000000000000
310
00000000280000000000000000280000000000000000000028282828280000000000000000000000000000002828282800000000000000000000000000000000000000000000000000000000000000000000000000000000000000000000000000000000000000000000000000000000000000000000000000000000000000
310
00000000000000000000000000000000000000000000000000000000000000000000000000000000000000000000000000000000000000000000002800000000000000000000000000282800000000000000000000000000000028000000000000000000000000000000000000000000000000000000000000000000000000
310
00000000000028000000000000000028000000000000000000000000002828000000000000000000000000000000280000000000000000000000000000000000000000000000000000000000000000000000000000000000000000000000000000000000000000000000000000000000000000000000000000000000000000
310
00000000000000000000000000000000000000000000000000000000000000000000000000000000000000000000000000000000000000000000000000280000000000000000000000000028280000000000000000000000000000002800000000000000000000000000000000000000000000000000000000000000000000
310
00000000000000002800000000000000002800000000000000000000000000282800000000000000000000000000000028000000000000000000000000000000000000000000000000000000000000000000000000000000000000000000000000000000000000000000000000000000000000000000000000000000000000
310
00000000000000000000000000000000000000000000000000000000000000000000000000000000000000000000000000000000000000000000000000000028000000000000000000000000002828000000000000000000000000000000280000000000000000000000000000000000000000000000000000000000000000
310
00000000000000000000280000000000000000280000000000000000000000000028280000000000000000000000000000002800000000000000000000000000000000000000000000000000000000000000000000000000000000000000000000000000000000000000000000000000000000000000000000000000000000
310
00000000000000000000000000000000000000000000000000000000000000000000000000000000000000000000000000000000000000000000000000000000002800000000000000000000000000282800000000000000000000000000000028000000000000000000000000000000000000000000000000000000000000
310
00000000000000000000000028000000000000000028000000000000000000000000002828000000000000000000000000000000280000000000000000000000000000000000000000000000000000000000000000000000000000000000000000000000000000000000000000000000000000000000000000000000000000
310
00000000000000000000000000000000000000000000000000000000000000000000000000000000000000000000000000000000000000000000000000000000000000280000000000000000000000000028280000000000000000000000000000002800000000000000000000000000000000000000000000000000000000
310
00000000000000000000000000002800000000000000002800000000000000000000000000282800000000000000000000000000000028000000000000000000000000000000000000000000000000000000000000000000000000000000000000000000000000000000000000000000000000000000000000000000000000
310
00000000000000000000000000000000000000000000000000000000000000000000000000000000000000000000000000000000000000000000000000000000000000000028000000000000000000000000002828000000000000000000000000000000280000000000000000000000000000000000000000000000000000
310
00000000000000000000000000000000280000000000000000280000000000000000000000000028280000000000000000000000000000002800000000000000000000000000000000000000000000000000000000000000000000000000000000000000000000000000000000000000000000000000000000000000000000
310
00000000000000000000000000000000000000000000000000000000000000000000000000000000000000000000000000000000000000000000000000000000000000000000002800000000000000000000000000282800000000000000000000000000000028000000000000000000000000000000000000000000000000
310
00000000000000000000000000000000000028000000000000000028000000000000000000000000002828000000000000000000000000000000280000000000000000000000000000000000000000000000000000000000000000000000000000000000000000000000000000000000000000000000000000000000000000
310
00000000000000000000000000000000000000000000000000000000000000000000000000000000000000000000000000000000000000000000000000000000000000000000000000280000000000000000000000000028280000000000000000000000000000002800000000000000000000000000000000000000000000
310
00000000000000000000000000000000000000002800000000000000002800000000000000000000000000282800000000000000000000000000000028000000000000000000000000000000000000000000000000000000000000000000000000000000000000000000000000000000000000000000000000000000000000
310
00000000000000000000000000000000000000000000000000000000000000000000000000000000000000000000000000000000000000000000000000000000000000000000000000000028000000000000000000000000002828000000000000000000000000000000280000000000000000000000000000000000000000
310
00000000000000000000000000000000000000000000280000000000000000280000000000000000000000000028280000000000000000000000000000282800000000000000000000000000000000000000000000000000000000000000000000000000000000000000000000000000000000000000000000000000000000
310
00000000000000000000000000000000000000000000000000000000000000000000000000000000000000000000000000000000000000000000000000000000000000000000000000000000002800000000000000000000000000002828000000000000000000000000002828000000000000000000000000000000000000
310
00000000000000000000000000000000000000000000000028000000000000000028000000000000000000000000000028280000000000000000000000000028280000000000000000000000000000000000000000000000000000000000000000000000000000000000000000000000000000000000000000000000000000
310
00000000000000000000000000000000000000000000000000000000000000000000000000000000000000000000000000000000000000000000000000000000000000000000000000000000000000280000000000000000000000000000282828282828282828282828282828282800000000000000000000000000000000
310
00000000000000000000000000000000000000000000000000002800000000000000002800000000000000000000000000002828282828282828282828282828282800000000000000000000000000000000000000000000000000000000000000000000000000000000000000000000000000000000000000000000000000
310
00000000000000000000000000000000000000000000000000000000000000000000000000000000000000000000000000000000000000000000000000000000000000000000000000000000000000000028000000000000000000000000000000282828282828282828282828282828000000000000000000000000000000
310
00000000000000000000000000000000000000000000000000000000280000000000000000280000000000000000000000000000002828282828282828282828282828000000000000000000000000000000000000000000000000000000000000000000000000000000000000000000000000000000000000000000000000
310
00000000000000000000000000000000000000000000000000000000000000000000000000000000000000000000000000000000000000000000000000000000000000000000000000000000000000000000002800000000000000000000000000000000000000000000000000000000000000000000000000000000000000
310
00000000000000000000000000000000000000000000000000000000000028000000000000000028000000000000000000000000000000000000000000000000000000000000000000000000000000000000000000000000000000000000000000000000000000000000000000000000000000000000000000000000000000
310
00000000000000000000000000000000000000000000000000000000000000000000000000000000000000000000000000000000000000000000000000000000000000000000000000000000000000000000000000280000000000000000000000000000000000000000000000000000000000000000000000000000000000
310
00000000000000000000000000000000000000000000000000000000000000002800000000000000002800000000000000000000000000000000000000000000000000000000000000000000000000000000000000000000000000000000000000000000000000000000000000000000000000000000000000000000000000
310
00000000000000000000000000000000000000000000000000000000000000000000000000000000000000000000000000000000000000000000000000000000000000000000000000000000000000000000000000000028000000000000000000000000000000000000000000000000000000000000000000000000000000
310
00000000000000000000000000000000000000000000000000000000000000000000280000000000000000280000000000000000000000000000000000000000000000000000000000000000000000000000000000000000000000000000000000000000000000000000000000000000000000000000000000000000000000
310
00000000000000000000000000000000000000000000000000000000000000000000000000000000000000000000000000000000000000000000000000000000000000000000000000000000000000000000000000000000002800000000000000000000000000000000000000000000000000000000000000000000000000
310
00000000000000000000000000000000000000000000000000000000000000000000000028000000000000000028000000000000000000000000000000000000000000000000000000000000000000000000000000000000000000000000000000000000000000000000000000000000000000000000000000000000000000
310
00000000000000000000000000000000000000000000000000000000000000000000000000000000000000000000000000000000000000000000000000000000000000000000000000000000000000000000000000000000000000280000000000000000000000000000000000000000000000000000000000000000000000
310
00000000000000000000000000000000000000000000000000000000000000000000000000002800000000000000002800000000000000000000000000000000000000000000000000000000000000000000000000000000000000000000000000000000000000000000000000000000000000000000000000000000000000
310
000000000000000000000000000000000000000000000000000000000000000000000000000000000000000000000000000000000000000000000000000000000000000000000000000000000000000000000000000000000000000000280000DCDCDCDCDCDCDCDCDCDCDCDC28282828282828282828282828282828DCDCDC
310
DCDCDCDCDCDCDCDCDCDCDC0000002828282828282828282828282828282800000000000000000000280000000000000000280000000000000000000000000000000000000000000000000000000000000000000000000000000000000000000000000000000000000000000000000000000000000000000000000000000000
310
0000000000000000000000000000000000000000000000000000000000000000000000000000000000000000000000000000000000000000000000000000000000000000000000000000000000000000000000000000000000000000000000280000DC00000000000000000000282828282828282828282828282828282828
310
000000000000000000000000DC0000002828282828282828282828282828282800000000000000000000280000000000000000280000DCDCDCDCDCDCDCDCDCDCDCDCDCDCDCDCDCDCDCDCDCDCDCDCDCDCDCDCDCDCDCDCDCDCDCDCDCDCDCDCDCDC00000028282828282828282828282828280000000000000000000000000000
310
00000000000000000000000000000000000000000000000000000000000000000000000000000000000000000000000000000000000000000000000000000000000000000000000000000000000000000000000000000000000000000000000000280000DC0000000000000000000028000028000000000000000000000028
310
0028000000000000000000000000DC0000002800280000000000000000000000002800000000000000000000280000000000000000280000DC00000000000000000000282828282828282828282828282828282828000000000000000000000000DC0000282828282828282828282828282828000000000000000000000000
310
000000000000000000000000000000000000000000000000000000000000000000000000000000000000000000000000000000000000000000000000000000000000000000000000000000000000000000000000000000000000000000000000000000280000DC000000000000000000002800002800000000000000000000
310
00280028000000000000000000000000DC0000002800280000000000000000000000002800000000000000000000280000000000000000280000DC00000000000000000000280000280000000000000000000028000028000000000000000000000000DC000028000028000000000000000000000000000000000000000000
310
0000000000000000000000000000000000000000000000000000000000000000000000000000000000000000000000000000000000000000000000000000000000000000000000000000000000000000000000000000000000000000000000000000000000280000DC00000000000000000000280000280000000000000000
310
000000280028000000000000000000000000DC0000002800280000000000000000000000002800000000000000000000280000000000000000280000DC00000000000000000000280000280000000000000000000028000028000000000000000000000000DC0000280000280000000000000000000000
  0
XRECORD
  5
C64
102
{ACAD_REACTORS
330
C62
102
}
330
C62
100
AcDbXrecord
280
     1
270
     1
271
     1
  0
XRECORD
  5
C63
102
{ACAD_REACTORS
330
C62
102
}
330
C62
100
AcDbXrecord
280
     1
270
     1
271
     1
  0
XRECORD
  5
C67
102
{ACAD_REACTORS
330
C62
102
}
330
C62
100
AcDbXrecord
280
     1
270
     1
271
     1
  0
XRECORD
  5
C66
102
{ACAD_REACTORS
330
C62
102
}
330
C62
100
AcDbXrecord
280
     1
270
     1
271
     1
  0
XRECORD
  5
C68
102
{ACAD_REACTORS
330
C62
102
}
330
C62
100
AcDbXrecord
280
     1
270
     1
271
     1
  0
XRECORD
  5
C65
102
{ACAD_REACTORS
330
C62
102
}
330
C62
100
AcDbXrecord
280
     1
270
     1
271
     1
  0
XRECORD
  5
C5C
102
{ACAD_REACTORS
330
C5A
102
}
330
C5A
100
AcDbXrecord
280
     1
270
     1
271
     1
  0
XRECORD
  5
C5B
102
{ACAD_REACTORS
330
C5A
102
}
330
C5A
100
AcDbXrecord
280
     1
270
     1
271
     1
  0
XRECORD
  5
C5F
102
{ACAD_REACTORS
330
C5A
102
}
330
C5A
100
AcDbXrecord
280
     1
270
     1
271
     1
  0
XRECORD
  5
C5E
102
{ACAD_REACTORS
330
C5A
102
}
330
C5A
100
AcDbXrecord
280
     1
270
     1
271
     1
  0
XRECORD
  5
C60
102
{ACAD_REACTORS
330
C5A
102
}
330
C5A
100
AcDbXrecord
280
     1
270
     1
271
     1
  0
XRECORD
  5
C5D
102
{ACAD_REACTORS
330
C5A
102
}
330
C5A
100
AcDbXrecord
280
     1
270
     1
271
     1
  0
XRECORD
  5
C6C
102
{ACAD_REACTORS
330
C6A
102
}
330
C6A
100
AcDbXrecord
280
     1
270
     1
271
     1
  0
XRECORD
  5
C6B
102
{ACAD_REACTORS
330
C6A
102
}
330
C6A
100
AcDbXrecord
280
     1
270
     1
271
     1
  0
XRECORD
  5
C6F
102
{ACAD_REACTORS
330
C6A
102
}
330
C6A
100
AcDbXrecord
280
     1
270
     1
271
     1
  0
XRECORD
  5
C6E
102
{ACAD_REACTORS
330
C6A
102
}
330
C6A
100
AcDbXrecord
280
     1
270
     1
271
     1
  0
XRECORD
  5
C70
102
{ACAD_REACTORS
330
C6A
102
}
330
C6A
100
AcDbXrecord
280
     1
270
     1
271
     1
  0
XRECORD
  5
C6D
102
{ACAD_REACTORS
330
C6A
102
}
330
C6A
100
AcDbXrecord
280
     1
270
     1
271
     1
  0
CELLSTYLEMAP
  5
241E
102
{ACAD_REACTORS
330
17D2
102
}
330
17D2
100
AcDbCellStyleMap
 90
        3
300
CELLSTYLE
  1
TABLEFORMAT_BEGIN
 90
        5
170
     1
 91
        0
 92
    32768
 62
   257
 93
        1
300
CONTENTFORMAT
  1
CONTENTFORMAT_BEGIN
 90
        0
 91
        0
 92
      512
 93
        0
300

 40
0.0
140
1.0
 94
        5
 62
     0
340
2D3
144
0.25
309
CONTENTFORMAT_END
171
     0
 94
        0
309
TABLEFORMAT_END
  1
CELLSTYLE_BEGIN
 90
        1
 91
        1
300
_TITLE
309
CELLSTYLE_END
300
CELLSTYLE
  1
TABLEFORMAT_BEGIN
 90
        5
170
     1
 91
        0
 92
        0
 62
   257
 93
        1
300
CONTENTFORMAT
  1
CONTENTFORMAT_BEGIN
 90
        0
 91
        0
 92
      512
 93
        0
300

 40
0.0
140
1.0
 94
        5
 62
     0
340
2D3
144
0.18
309
CONTENTFORMAT_END
171
     0
 94
        0
309
TABLEFORMAT_END
  1
CELLSTYLE_BEGIN
 90
        2
 91
        1
300
_HEADER
309
CELLSTYLE_END
300
CELLSTYLE
  1
TABLEFORMAT_BEGIN
 90
        5
170
     1
 91
        0
 92
        0
 62
   257
 93
        1
300
CONTENTFORMAT
  1
CONTENTFORMAT_BEGIN
 90
        0
 91
        0
 92
      512
 93
        0
300

 40
0.0
140
1.0
 94
        2
 62
     0
340
2D3
144
0.18
309
CONTENTFORMAT_END
171
     0
 94
        0
309
TABLEFORMAT_END
  1
CELLSTYLE_BEGIN
 90
        3
 91
        2
300
_DATA
309
CELLSTYLE_END
  0
ENDSEC
  0
EOF
