  0
SECTION
  2
HEADER
  9
$ACADVER
  1
AC1009
  9
$INSBASE
 10
0.0
 20
0.0
 30
0.0
  9
$EXTMIN
 10
21.975275972453801
 20
18.80414203344116
 30
0.0
  9
$EXTMAX
 10
586.32661041842675
 20
873.55645071243896
 30
0.0
  9
$LIMMIN
 10
0.0
 20
0.0
  9
$LIMMAX
 10
420.0
 20
297.0
  9
$ORTHOMODE
 70
     0
  9
$REGENMODE
 70
     1
  9
$FILLMODE
 70
     1
  9
$QTEXTMODE
 70
     0
  9
$MIRRTEXT
 70
     1
  9
$DRAGMODE
 70
     2
  9
$LTSCALE
 40
1.0
  9
$OSMODE
 70
    37
  9
$ATTMODE
 70
     1
  9
$TEXTSIZE
 40
2.5
  9
$TRACEWID
 40
1.0
  9
$TEXTSTYLE
  7
STANDARD
  9
$CLAYER
  8
0
  9
$CELTYPE
  6
BYLAYER
  9
$CECOLOR
 62
   256
  9
$DIMSCALE
 40
1.0
  9
$DIMASZ
 40
2.5
  9
$DIMEXO
 40
0.625
  9
$DIMDLI
 40
3.75
  9
$DIMRND
 40
0.0
  9
$DIMDLE
 40
0.0
  9
$DIMEXE
 40
1.25
  9
$DIMTP
 40
0.0
  9
$DIMTM
 40
0.0
  9
$DIMTXT
 40
2.5
  9
$DIMCEN
 40
2.5
  9
$DIMTSZ
 40
0.0
  9
$DIMTOL
 70
     0
  9
$DIMLIM
 70
     0
  9
$DIMTIH
 70
     0
  9
$DIMTOH
 70
     0
  9
$DIMSE1
 70
     0
  9
$DIMSE2
 70
     0
  9
$DIMTAD
 70
     1
  9
$DIMZIN
 70
     8
  9
$DIMBLK
  1

  9
$DIMASO
 70
     1
  9
$DIMSHO
 70
     1
  9
$DIMPOST
  1

  9
$DIMAPOST
  1

  9
$DIMALT
 70
     0
  9
$DIMALTD
 70
     3
  9
$DIMALTF
 40
0.03937007874016
  9
$DIMLFAC
 40
1.0
  9
$DIMTOFL
 70
     1
  9
$DIMTVP
 40
0.0
  9
$DIMTIX
 70
     0
  9
$DIMSOXD
 70
     0
  9
$DIMSAH
 70
     0
  9
$DIMBLK1
  1

  9
$DIMBLK2
  1

  9
$DIMSTYLE
  2
ISO-25
  9
$DIMCLRD
 70
     0
  9
$DIMCLRE
 70
     0
  9
$DIMCLRT
 70
     0
  9
$DIMTFAC
 40
1.0
  9
$DIMGAP
 40
0.625
  9
$LUNITS
 70
     2
  9
$LUPREC
 70
     4
  9
$SKETCHINC
 40
1.0
  9
$FILLETRAD
 40
10.0
  9
$AUNITS
 70
     0
  9
$AUPREC
 70
     0
  9
$MENU
  1
.
  9
$ELEVATION
 40
0.0
  9
$PELEVATION
 40
0.0
  9
$THICKNESS
 40
0.0
  9
$LIMCHECK
 70
     0
  9
$BLIPMODE
 70
     0
  9
$CHAMFERA
 40
10.0
  9
$CHAMFERB
 40
10.0
  9
$SKPOLY
 70
     0
  9
$TDCREATE
 40
2452216.4852968631
  9
$TDUPDATE
 40
2452216.4855076969
  9
$TDINDWG
 40
0.0002115278
  9
$TDUSRTIMER
 40
0.000211412
  9
$USRTIMER
 70
     1
  9
$ANGBASE
 50
0.0
  9
$ANGDIR
 70
     0
  9
$PDMODE
 70
     0
  9
$PDSIZE
 40
0.0
  9
$PLINEWID
 40
0.0
  9
$COORDS
 70
     1
  9
$SPLFRAME
 70
     0
  9
$SPLINETYPE
 70
     6
  9
$SPLINESEGS
 70
     8
  9
$ATTDIA
 70
     0
  9
$ATTREQ
 70
     1
  9
$HANDLING
 70
-16383
  9
$HANDSEED
  5
489
  9
$SURFTAB1
 70
     6
  9
$SURFTAB2
 70
     6
  9
$SURFTYPE
 70
     6
  9
$SURFU
 70
     6
  9
$SURFV
 70
     6
  9
$UCSNAME
  2

  9
$UCSORG
 10
0.0
 20
0.0
 30
0.0
  9
$UCSXDIR
 10
1.0
 20
0.0
 30
0.0
  9
$UCSYDIR
 10
0.0
 20
1.0
 30
0.0
  9
$PUCSNAME
  2

  9
$PUCSORG
 10
0.0
 20
0.0
 30
0.0
  9
$PUCSXDIR
 10
1.0
 20
0.0
 30
0.0
  9
$PUCSYDIR
 10
0.0
 20
1.0
 30
0.0
  9
$USERI1
 70
     0
  9
$USERI2
 70
     0
  9
$USERI3
 70
     0
  9
$USERI4
 70
     0
  9
$USERI5
 70
     0
  9
$USERR1
 40
0.0
  9
$USERR2
 40
0.0
  9
$USERR3
 40
0.0
  9
$USERR4
 40
0.0
  9
$USERR5
 40
0.0
  9
$WORLDVIEW
 70
     1
  9
$SHADEDGE
 70
     3
  9
$SHADEDIF
 70
    70
  9
$TILEMODE
 70
     1
  9
$MAXACTVP
 70
    64
  9
$PLIMCHECK
 70
     0
  9
$PEXTMIN
 10
1.0000000000000000E+020
 20
1.0000000000000000E+020
 30
1.0000000000000000E+020
  9
$PEXTMAX
 10
-1.0000000000000000E+020
 20
-1.0000000000000000E+020
 30
-1.0000000000000000E+020
  9
$PLIMMIN
 10
0.0
 20
0.0
  9
$PLIMMAX
 10
420.0
 20
297.0
  9
$UNITMODE
 70
     0
  9
$VISRETAIN
 70
     1
  9
$PLINEGEN
 70
     0
  9
$PSLTSCALE
 70
     1
  0
ENDSEC
  0
SECTION
  2
TABLES
  0
TABLE
  2
VPORT
 70
     3
  0
VPORT
  2
*ACTIVE
 70
     0
 10
0.0
 20
0.0
 11
1.0
 21
1.0
 12
212.36907582938389
 22
148.5
 13
0.0
 23
0.0
 14
10.0
 24
10.0
 15
10.0
 25
10.0
 16
0.0
 26
0.0
 36
1.0
 17
0.0
 27
0.0
 37
0.0
 40
297.0
 41
1.430094786729857
 42
50.0
 43
0.0
 44
0.0
 50
0.0
 51
0.0
 71
     0
 72
   100
 73
     1
 74
     3
 75
     0
 76
     0
 77
     0
 78
     0
  0
ENDTAB
  0
TABLE
  2
LTYPE
 70
     1
  0
LTYPE
  2
CONTINUOUS
 70
     0
  3
Solid line
 72
    65
 73
     0
 40
0.0
  0
ENDTAB
  0
TABLE
  2
LAYER
 70
     3
  0
LAYER
  2
0
 70
     0
 62
     7
  6
CONTINUOUS
  0
LAYER
  2
1外形線
 70
     0
 62
     3
  6
CONTINUOUS
  0
LAYER
  2
C4
 70
     0
 62
     3
  6
CONTINUOUS
  0
ENDTAB
  0
TABLE
  2
STYLE
 70
     2
  0
STYLE
  2
STANDARD
 70
     0
 40
0.0
 41
1.0
 50
0.0
 71
     0
 42
2.5
  3
txt
  4

  0
STYLE
  2
KANJI
 70
     0
 40
0.0
 41
1.0
 50
0.0
 71
     0
 42
2.5
  3
simplex.shx
  4
extfont.shx
  0
ENDTAB
  0
TABLE
  2
VIEW
 70
     0
  0
ENDTAB
  0
TABLE
  2
UCS
 70
     0
  0
ENDTAB
  0
TABLE
  2
APPID
 70
     1
  0
APPID
  2
ACAD
 70
     0
  0
ENDTAB
  0
TABLE
  2
DIMSTYLE
 70
     2
  0
DIMSTYLE
  2
ISO-25
 70
     0
  3

  4

  5

  6

  7

 40
1.0
 41
2.5
 42
0.625
 43
3.75
 44
1.25
 45
0.0
 46
0.0
 47
0.0
 48
0.0
140
2.5
141
2.5
142
0.0
143
0.03937007874016
144
1.0
145
0.0
146
1.0
147
0.625
 71
     0
 72
     0
 73
     0
 74
     0
 75
     0
 76
     0
 77
     1
 78
     8
170
     0
171
     3
172
     1
173
     0
174
     0
175
     0
176
     0
177
     0
178
     0
  0
DIMSTYLE
  2
STANDARD
 70
     0
  3

  4

  5

  6

  7

 40
1.0
 41
0.18
 42
0.0625
 43
0.38
 44
0.18
 45
0.0
 46
0.0
 47
0.0
 48
0.0
140
0.18
141
0.09
142
0.0
143
25.399999999999999
144
1.0
145
0.0
146
1.0
147
0.09
 71
     0
 72
     0
 73
     1
 74
     1
 75
     0
 76
     0
 77
     0
 78
     0
170
     0
171
     2
172
     0
173
     0
174
     0
175
     0
176
     0
177
     0
178
     0
  0
ENDTAB
  0
ENDSEC
  0
SECTION
  2
BLOCKS
  0
BLOCK
  8
0
  2
$MODEL_SPACE
 70
     0
 10
0.0
 20
0.0
 30
0.0
  3
$MODEL_SPACE
  1

  0
ENDBLK
  5
21
  8
0
  0
BLOCK
 67
     1
  8
0
  2
$PAPER_SPACE
 70
     0
 10
0.0
 20
0.0
 30
0.0
  3
$PAPER_SPACE
  1

  0
ENDBLK
  5
1D
 67
     1
  8
0
  0
BLOCK
  8
0
  2
2
 70
     0
 10
0.0
 20
0.0
 30
0.0
  3
2
  1

  0
INSERT
  5
2C
  8
0
  6
CONTINUOUS
  2
*U3
 10
0.0
 20
0.0
 30
0.0
1001
ACAD
1002
{
1000
R14_HATCH_DATA
1000
2C
1011
1.0
1021
0.0
1031
0.0
1021
0.0
1031
0.0
1011
0.0
1021
0.0
1031
0.0
1021
1.0
1031
0.0
1011
0.0
1021
0.0
1031
0.0
1021
0.0
1031
1.0
1040
0.0
1010
0.0
1020
0.0
1030
1.0
1000
SOLID
1070
     1
1070
     1
1071
        1
1071
        7
1070
     0
1070
     1
1071
        3
1040
0.0000000000000284
1040
0.0
1040
-0.899999999998343
1040
0.2411542731875897
1040
-0.8999999999983572
1040
-0.2411542731875613
1071
        3
1005
2F
1005
2D
1005
30
1070
     0
1070
     1
1040
0.0028941747346077
1071
        1
1040
-0.5303136156475148
1040
-0.0796654556697263
1040
0.0
1002
}
  0
LINE
  5
2D
  8
0
 10
-0.8999999999983572
 20
0.2411542731879876
 30
0.0
 11
-0.8999999999983572
 21
-0.2411542731880445
 31
0.0
  0
LINE
  5
2E
  8
0
 10
-0.9999999999983515
 20
0.0
 30
0.0
 11
0.0
 21
0.0
 31
0.0
  0
LINE
  5
2F
  8
0
 10
-0.8999999999984424
 20
0.2411542731875897
 30
0.0
 11
0.0
 21
0.0
 31
0.0
  0
LINE
  5
30
  8
0
 10
-0.8999999999984424
 20
-0.2411542731875897
 30
0.0
 11
0.0
 21
0.0
 31
0.0
  0
ENDBLK
  5
32
  8
0
  0
BLOCK
  8
0
  2
*U3
 70
     1
 10
0.0
 20
0.0
 30
0.0
  3
*U3
  1

  0
SOLID
  5
484
  8
0
  6
CONTINUOUS
 10
-0.5999999999988905
 20
0.0000000000000095
 30
0.0
 11
0.0000000000000284
 21
0.0
 31
0.0
 12
-0.899999999998343
 22
0.2411542731875897
 32
0.0
 13
-0.899999999998343
 23
0.2411542731875897
 33
0.0
210
0.0
220
0.0
230
1.0
  0
SOLID
  5
485
  8
0
  6
CONTINUOUS
 10
-0.5999999999988905
 20
0.0000000000000095
 30
0.0
 11
-0.899999999998343
 21
0.2411542731875897
 31
0.0
 12
-0.8999999999983572
 22
-0.2411542731875613
 32
0.0
 13
-0.8999999999983572
 23
-0.2411542731875613
 33
0.0
  0
SOLID
  5
486
  8
0
  6
CONTINUOUS
 10
-0.5999999999988905
 20
0.0000000000000095
 30
0.0
 11
-0.8999999999983572
 21
-0.2411542731875613
 31
0.0
 12
0.0000000000000284
 22
0.0
 32
0.0
 13
0.0000000000000284
 23
0.0
 33
0.0
210
0.0
220
0.0
230
1.0
  0
ENDBLK
  5
488
  8
0
  0
ENDSEC
  0
SECTION
  2
ENTITIES
  0
LINE
  5
25C
  8
1外形線
 10
21.975275972453801
 20
18.80414203344116
 30
0.0
 11
586.32661041842675
 21
18.80414203344116
 31
0.0
  0
LINE
  5
25D
  8
1外形線
 10
586.32661041842675
 20
278.49221920319133
 30
0.0
 11
21.975275972453801
 21
278.49221920319133
 31
0.0
  0
LINE
  5
25E
  8
1外形線
 10
586.32661041842675
 20
498.68029637294069
 30
0.0
 11
21.975275972453801
 21
498.68029637294069
 31
0.0
  0
LINE
  5
25F
  8
1外形線
 10
586.32661041842675
 20
693.86837354268982
 30
0.0
 11
21.975275972453801
 21
693.86837354268982
 31
0.0
  0
LINE
  5
260
  8
1外形線
 10
586.32661041842675
 20
873.55645071243896
 30
0.0
 11
21.975275972453801
 21
873.55645071243896
 31
0.0
  0
LINE
  5
261
  8
1外形線
 10
21.975275972453801
 20
18.80414203344116
 30
0.0
 11
21.975275972453801
 21
873.55645071243896
 31
0.0
  0
LINE
  5
262
  8
1外形線
 10
586.32661041842675
 20
18.80414203344116
 30
0.0
 11
586.32661041842675
 21
873.55645071243896
 31
0.0
  0
LINE
  5
263
  8
C4
 10
382.78393383755292
 20
319.80592770216748
 30
0.0
 11
401.52226353900221
 21
338.54425740361478
 31
0.0
  0
LINE
  5
264
  8
C4
 10
384.19814739992557
 20
318.39171413979432
 30
0.0
 11
402.93647710137509
 21
337.13004384124167
 31
0.0
  0
LINE
  5
265
  8
C4
 10
381.36972027517982
 20
321.22014126454059
 30
0.0
 11
400.10804997662927
 21
339.95847096598811
 31
0.0
  0
LINE
  5
266
  8
C4
 10
379.95550671280671
 20
322.63435482691381
 30
0.0
 11
398.69383641425628
 21
341.3726845283615
 31
0.0
  0
LINE
  5
267
  8
C4
 10
378.40094319544238
 20
218.4922192031874
 30
0.0
 11
390.40094319544232
 21
218.4922192031872
 31
0.0
  0
LINE
  5
268
  8
C4
 10
390.40094319543891
 20
72.492219203186096
 30
0.0
 11
378.40094319543891
 21
72.492219203186323
 31
0.0
  0
LINE
  5
269
  8
C4
 10
358.11667194798099
 20
438.18029637293341
 30
0.0
 11
400.52583487647092
 21
438.18029637293142
 31
0.0
  0
LINE
  5
26A
  8
C4
 10
384.55170079051908
 20
318.74526753038742
 30
0.0
 11
393.03698216475709
 21
310.25998615614839
 31
0.0
  0
LINE
  5
26B
  8
C4
 10
376.40094319543891
 20
71.992219203186551
 30
0.0
 11
376.40094319544198
 21
218.99221920318729
 31
0.0
  0
LINE
  5
26C
  8
C4
 10
86.470964986778299
 20
166.53742110100211
 30
0.0
 11
125.2455682423621
 21
205.31202435658619
 31
0.0
  0
LINE
  5
26D
  8
C4
 10
346.40094319543988
 20
145.4922192031903
 30
0.0
 11
346.40094319544039
 21
190.4922192031903
 31
0.0
  0
LINE
  5
26E
  8
C4
 10
343.40094319543988
 20
145.49221920319039
 30
0.0
 11
343.40094319544028
 21
197.4922192031905
 31
0.0
  0
LINE
  5
26F
  8
C4
 10
344.40094319543982
 20
145.49221920319039
 30
0.0
 11
344.40094319544039
 21
190.49221920319039
 31
0.0
  0
LINE
  5
270
  8
C4
 10
261.9009431954405
 20
190.49221920319201
 30
0.0
 11
261.90094319543982
 21
145.49221920319141
 31
0.0
  0
LINE
  5
271
  8
C4
 10
264.40094319544062
 20
190.49221920319161
 30
0.0
 11
264.40094319543931
 21
145.4922192031913
 31
0.0
  0
LINE
  5
272
  8
C4
 10
211.90094319543951
 20
71.992219203190302
 30
0.0
 11
211.9009431954405
 21
218.9922192031911
 31
0.0
  0
LINE
  5
273
  8
C4
 10
213.90094319543951
 20
71.992219203190302
 30
0.0
 11
213.90094319544031
 21
218.99221920319121
 31
0.0
  0
LINE
  5
274
  8
C4
 10
215.90094319543951
 20
71.992219203190302
 30
0.0
 11
215.90094319544019
 21
218.99221920319121
 31
0.0
  0
LINE
  5
275
  8
C4
 10
217.9009431954394
 20
71.992219203190174
 30
0.0
 11
217.90094319544031
 21
218.99221920319121
 31
0.0
  0
LINE
  5
276
  8
C4
 10
229.9009431954394
 20
71.992219203190174
 30
0.0
 11
229.90094319544019
 21
218.99221920319101
 31
0.0
  0
LINE
  5
277
  8
C4
 10
231.9009431954394
 20
71.992219203190174
 30
0.0
 11
231.90094319544019
 21
218.99221920319101
 31
0.0
  0
LINE
  5
278
  8
C4
 10
217.9009431954394
 20
72.492219203190189
 30
0.0
 11
229.9009431954394
 21
72.492219203190189
 31
0.0
  0
LINE
  5
279
  8
C4
 10
175.91997280687721
 20
48.80414203344116
 30
0.0
 11
71.975275972453801
 21
152.74883886786409
 31
0.0
  0
LINE
  5
27A
  8
C4
 10
177.3341863692502
 20
50.218355595814273
 30
0.0
 11
73.389489534826907
 21
154.1630524302372
 31
0.0
  0
LINE
  5
27B
  8
C4
 10
185.81946774348879
 20
58.703636970052912
 30
0.0
 11
81.874770909065433
 21
162.6483338044757
 31
0.0
  0
LINE
  5
27C
  8
C4
 10
187.23368130586181
 20
60.117850532426019
 30
0.0
 11
83.288984471438539
 21
164.062547366849
 31
0.0
  0
LINE
  5
27D
  8
C4
 10
188.6478948682348
 20
61.532064094798891
 30
0.0
 11
84.703198033811645
 21
165.47676092922191
 31
0.0
  0
LINE
  5
27E
  8
C4
 10
190.06210843060799
 20
62.946277657172232
 30
0.0
 11
86.117411596184638
 21
166.89097449159499
 31
0.0
  0
LINE
  5
27F
  8
C4
 10
81.874770909065774
 20
162.6483338044761
 30
0.0
 11
83.28898447143888
 21
164.0625473668492
 31
0.0
  0
LINE
  5
280
  8
C4
 10
71.975275972454142
 20
152.74883886786441
 30
0.0
 11
73.389489534827248
 21
154.1630524302376
 31
0.0
  0
LINE
  5
281
  8
C4
 10
73.743042925420468
 20
153.80949903964429
 30
0.0
 11
82.228324299658894
 21
162.2947804138829
 31
0.0
  0
LINE
  5
282
  8
C4
 10
84.703198033811987
 20
165.47676092922231
 30
0.0
 11
86.117411596185079
 21
166.8909744915953
 31
0.0
  0
LINE
  5
283
  8
C4
 10
83.642537862031986
 20
163.70899397625601
 30
0.0
 11
85.056751424405206
 21
165.123207538629
 31
0.0
  0
LINE
  5
284
  8
C4
 10
185.4659143528956
 20
59.057190360646018
 30
0.0
 11
176.98063297865701
 21
50.571908986407607
 31
0.0
  0
LINE
  5
285
  8
C4
 10
177.3341863692502
 20
50.218355595814273
 30
0.0
 11
175.9199728068771
 21
48.80414203344116
 31
0.0
  0
ARC
  5
286
  8
C4
 10
195.71983802489029
 20
80.172086449266317
 30
0.0
 40
1.6000000000000001
 50
112.5000000000027
 51
292.49999999999409
  0
ARC
  5
287
  8
C4
 10
195.71983802489029
 20
80.172086449266317
 30
0.0
 40
3.5
 50
112.5000000000027
 51
202.4999999999923
  0
LINE
  5
288
  8
C4
 10
198.95341638867939
 20
81.511478462544218
 30
0.0
 11
202.68931589646419
 21
72.492219203190416
 31
0.0
  0
ARC
  5
289
  8
C4
 10
195.71983802489009
 20
80.172086449266104
 30
0.0
 40
1.6000000000000001
 50
292.50000000000267
 51
112.4999999999941
  0
LINE
  5
28A
  8
C4
 10
199.72937032018581
 20
72.492219203190302
 30
0.0
 11
211.90094319543951
 21
72.492219203190302
 31
0.0
  0
LINE
  5
28B
  8
C4
 10
190.06210843060799
 20
62.946277657172232
 30
0.0
 11
188.6478948682348
 21
61.532064094798891
 31
0.0
  0
LINE
  5
28C
  8
C4
 10
187.23368130586181
 20
60.117850532426019
 30
0.0
 11
185.8194677434887
 21
58.703636970052678
 31
0.0
  0
LINE
  5
28D
  8
C4
 10
188.29434147764161
 20
61.885617485392352
 30
0.0
 11
186.8801279152685
 21
60.471403923019238
 31
0.0
  0
LINE
  5
28E
  8
C4
 10
192.48625966110069
 20
78.832694435988742
 30
0.0
 11
196.22215916888319
 21
69.81343517663413
 31
0.0
  0
LINE
  5
28F
  8
C4
 10
198.3151567578129
 20
71.906432765563522
 30
0.0
 11
189.70855504001469
 21
63.299831047765451
 31
0.0
  0
ARC
  5
290
  8
C4
 10
199.72937032018609
 20
70.492219203190416
 30
0.0
 40
2.0
 50
112.5000000000058
 51
135.0
  0
ARC
  5
291
  8
C4
 10
199.72937032018561
 20
70.492219203190302
 30
0.0
 40
2.0
 50
90.0
 51
112.4999999999941
  0
LINE
  5
292
  8
C4
 10
213.90094319543951
 20
72.492219203190302
 30
0.0
 11
215.9009431954394
 21
72.492219203190302
 31
0.0
  0
LINE
  5
293
  8
C4
 10
211.90094319543951
 20
71.992219203190302
 30
0.0
 11
213.90094319543951
 21
71.992219203190302
 31
0.0
  0
LINE
  5
294
  8
C4
 10
215.90094319543951
 20
71.992219203190302
 30
0.0
 11
217.9009431954396
 21
71.992219203190174
 31
0.0
  0
ARC
  5
295
  8
C4
 10
195.71983802489009
 20
80.172086449266104
 30
0.0
 40
3.5
 50
22.500000000005841
 51
112.4999999999996
  0
LINE
  5
296
  8
C4
 10
319.40094319543857
 20
75.49221920319053
 30
0.0
 11
289.40094319543891
 21
75.492219203190984
 31
0.0
  0
LINE
  5
297
  8
C4
 10
317.90094319543908
 20
71.992219203190643
 30
0.0
 11
290.40094319543931
 21
71.99221920319053
 31
0.0
  0
LINE
  5
298
  8
C4
 10
261.90094319543931
 20
100.4922192031907
 30
0.0
 11
261.90094319543982
 21
145.4922192031913
 31
0.0
  0
LINE
  5
299
  8
C4
 10
264.40094319543931
 20
100.4922192031909
 30
0.0
 11
264.40094319543931
 21
145.4922192031913
 31
0.0
  0
ARC
  5
29A
  8
C4
 10
290.40094319543931
 20
100.4922192031905
 30
0.0
 40
28.5
 50
180.0
 51
270.0
  0
ARC
  5
29B
  8
C4
 10
289.40094319543931
 20
100.4922192031909
 30
0.0
 40
25.0
 50
180.0
 51
270.0
  0
LINE
  5
29C
  8
C4
 10
229.9009431954394
 20
71.992219203190174
 30
0.0
 11
231.9009431954396
 21
71.992219203190174
 31
0.0
  0
LINE
  5
29D
  8
C4
 10
304.40094319543857
 20
73.99221920319053
 30
0.0
 11
304.4009431954388
 21
71.99221920319053
 31
0.0
  0
LINE
  5
29E
  8
C4
 10
299.40094319543869
 20
75.492219203190871
 30
0.0
 11
299.40094319543869
 21
73.992219203190643
 31
0.0
  0
LINE
  5
29F
  8
C4
 10
299.40094319543869
 20
73.992219203190757
 30
0.0
 11
304.4009431954388
 21
73.992219203190757
 31
0.0
  0
LINE
  5
2A0
  8
C4
 10
346.40094319543988
 20
145.49221920319019
 30
0.0
 11
346.40094319543908
 21
100.4922192031901
 31
0.0
  0
LINE
  5
2A1
  8
C4
 10
344.40094319543982
 20
145.49221920319019
 30
0.0
 11
344.40094319543908
 21
100.4922192031901
 31
0.0
  0
LINE
  5
2A2
  8
C4
 10
343.40094319543988
 20
145.49221920319019
 30
0.0
 11
343.40094319543903
 21
93.492219203190075
 31
0.0
  0
ARC
  5
2A3
  8
C4
 10
317.90094319543908
 20
100.4922192031906
 30
0.0
 40
28.5
 50
270.0
 51
0.0
  0
ARC
  5
2A4
  8
C4
 10
319.40094319543908
 20
100.4922192031905
 30
0.0
 40
25.0
 50
270.0
 51
0.0
  0
LINE
  5
2A5
  8
C4
 10
378.40094319543891
 20
71.992219203186323
 30
0.0
 11
378.40094319543948
 21
100.4922192031901
 31
0.0
  0
LINE
  5
2A6
  8
C4
 10
378.40094319543891
 20
71.992219203186323
 30
0.0
 11
376.40094319543891
 21
71.992219203186551
 31
0.0
  0
LINE
  5
2A7
  8
C4
 10
229.90094319543979
 20
218.4922192031911
 30
0.0
 11
217.90094319543991
 21
218.4922192031913
 31
0.0
  0
LINE
  5
2A8
  8
C4
 10
157.18164310543301
 20
318.74526753039618
 30
0.0
 11
148.69636173119449
 21
310.25998615615771
 31
0.0
  0
LINE
  5
2A9
  8
C4
 10
147.63570155941471
 20
308.49221920319133
 30
0.0
 11
71.975275972453801
 21
384.15264479015218
 31
0.0
  0
LINE
  5
2AA
  8
C4
 10
149.04991512178779
 20
309.90643276556438
 30
0.0
 11
73.389489534826907
 21
385.5668583525254
 31
0.0
  0
ARC
  5
2AB
  8
C4
 10
143.08878436989269
 20
207.2346899851475
 30
0.0
 40
1.6000000000000001
 50
112.4999999999996
 51
292.50000000000267
  0
ARC
  5
2AC
  8
C4
 10
143.08878436989269
 20
207.2346899851475
 30
0.0
 40
3.5
 50
202.50000000001299
 51
292.50000000000267
  0
ARC
  5
2AD
  8
C4
 10
157.06537339575669
 20
173.49221920319141
 30
0.0
 40
45.0
 50
90.0
 51
112.4999999999996
  0
ARC
  5
2AE
  8
C4
 10
143.08878436989281
 20
207.23468998514761
 30
0.0
 40
1.6000000000000001
 50
292.4999999999996
 51
112.5000000000027
  0
LINE
  5
2AF
  8
C4
 10
146.3223627336827
 20
208.57408199842439
 30
0.0
 11
143.17241871366241
 21
216.1787195722799
 31
0.0
  0
ARC
  5
2B0
  8
C4
 10
157.06537339575689
 20
173.49221920319161
 30
0.0
 40
45.0
 50
112.4999999999996
 51
135.0
  0
LINE
  5
2B1
  8
C4
 10
139.8552060061036
 20
205.89529797186881
 30
0.0
 11
136.70526198607891
 21
213.49993554572251
 31
0.0
  0
TEXT
  5
2B2
  8
1外形線
 10
72.244056184285
 20
248.6820085608972
 30
0.0
 40
10.0
  1
SKF-140
  7
KANJI
  0
LINE
  5
2B3
  8
C4
 10
211.90094319543991
 20
218.4922192031911
 30
0.0
 11
157.06537339575689
 21
218.4922192031915
 31
0.0
  0
ARC
  5
2B4
  8
C4
 10
143.08878436989281
 20
207.23468998514761
 30
0.0
 40
3.5
 50
292.4999999999996
 51
22.499999999984031
  0
LINE
  5
2B5
  8
C4
 10
215.90094319543991
 20
218.4922192031913
 30
0.0
 11
213.90094319543991
 21
218.4922192031911
 31
0.0
  0
LINE
  5
2B6
  8
C4
 10
213.90094319543979
 20
218.99221920319121
 30
0.0
 11
211.90094319543991
 21
218.9922192031911
 31
0.0
  0
LINE
  5
2B7
  8
C4
 10
217.90094319543991
 20
218.99221920319121
 30
0.0
 11
215.90094319543991
 21
218.99221920319121
 31
0.0
  0
LINE
  5
2B8
  8
C4
 10
149.04991512178779
 20
309.90643276556438
 30
0.0
 11
147.6357015594146
 21
308.49221920319133
 31
0.0
  0
LINE
  5
2B9
  8
C4
 10
157.5351964960264
 20
318.3917141398029
 30
0.0
 11
81.874770909065433
 21
394.05213972676393
 31
0.0
  0
LINE
  5
2BA
  8
C4
 10
158.94941005839931
 20
319.80592770217601
 30
0.0
 11
83.288984471438539
 21
395.46635328913698
 31
0.0
  0
LINE
  5
2BB
  8
C4
 10
160.3636236207725
 20
321.22014126454911
 30
0.0
 11
84.703198033811532
 21
396.88056685151003
 31
0.0
  0
LINE
  5
2BC
  8
C4
 10
161.77783718314569
 20
322.63435482692222
 30
0.0
 11
86.117411596184638
 21
398.29478041388302
 31
0.0
  0
LINE
  5
2BD
  8
C4
 10
183.61667194797749
 20
438.18029637294092
 30
0.0
 11
141.20750901948779
 21
438.18029637294109
 31
0.0
  0
LINE
  5
2BE
  8
C4
 10
86.470964986778199
 20
397.94122702329003
 30
0.0
 11
116.4587716779584
 21
427.92903371447022
 31
0.0
  0
LINE
  5
2BF
  8
C4
 10
81.874770909065546
 20
394.05213972676398
 30
0.0
 11
83.288984471438653
 21
395.46635328913709
 31
0.0
  0
LINE
  5
2C0
  8
C4
 10
71.975275972454028
 20
384.15264479015241
 30
0.0
 11
73.389489534827135
 21
385.56685835252551
 31
0.0
  0
LINE
  5
2C1
  8
C4
 10
73.743042925420241
 20
385.21330496193229
 30
0.0
 11
82.228324299658766
 21
393.69858633617082
 31
0.0
  0
LINE
  5
2C2
  8
C4
 10
83.642537862031872
 20
395.11279989854393
 30
0.0
 11
85.056751424405093
 21
396.52701346091692
 31
0.0
  0
LINE
  5
2C3
  8
C4
 10
84.703198033811759
 20
396.8805668515102
 30
0.0
 11
86.117411596184866
 21
398.29478041388319
 31
0.0
  0
ARC
  5
2C4
  8
C4
 10
141.20750901948759
 20
403.18029637294109
 30
0.0
 40
35.0
 50
112.4999999999996
 51
135.0
  0
LINE
  5
2C5
  8
C4
 10
127.82417595348529
 20
426.34457981650559
 30
0.0
 11
124.6742319334605
 21
433.94921739035908
 31
0.0
  0
LINE
  5
2C6
  8
C4
 10
134.2913326810644
 20
429.0233638430613
 30
0.0
 11
131.14138866104389
 21
436.62800141691662
 31
0.0
  0
ARC
  5
2C7
  8
C4
 10
131.05775431727449
 20
427.6839718297843
 30
0.0
 40
3.5
 50
292.4999999999996
 51
22.499999999984031
  0
ARC
  5
2C8
  8
C4
 10
131.0577543172744
 20
427.6839718297843
 30
0.0
 40
3.5
 50
202.50000000001299
 51
292.50000000000267
  0
ARC
  5
2C9
  8
C4
 10
131.0577543172744
 20
427.6839718297843
 30
0.0
 40
1.6000000000000001
 50
112.4999999999996
 51
292.50000000000267
  0
ARC
  5
2CA
  8
C4
 10
131.05775431727449
 20
427.6839718297843
 30
0.0
 40
1.6000000000000001
 50
292.4999999999996
 51
112.5000000000027
  0
ARC
  5
2CB
  8
C4
 10
141.20750901948759
 20
403.18029637294109
 30
0.0
 40
35.0
 50
90.0
 51
112.4999999999996
  0
LINE
  5
2CC
  8
C4
 10
183.6166719479771
 20
331.6802963729404
 30
0.0
 11
183.61667194797789
 21
438.6802963729408
 31
0.0
  0
LINE
  5
2CD
  8
C4
 10
185.61667194797721
 20
331.6802963729404
 30
0.0
 11
185.61667194797781
 21
438.68029637294092
 31
0.0
  0
LINE
  5
2CE
  8
C4
 10
187.61667194797721
 20
331.6802963729404
 30
0.0
 11
187.61667194797761
 21
438.68029637294092
 31
0.0
  0
LINE
  5
2CF
  8
C4
 10
189.6166719479771
 20
331.68029637294029
 30
0.0
 11
189.61667194797769
 21
438.68029637294092
 31
0.0
  0
LINE
  5
2D0
  8
C4
 10
201.6166719479771
 20
331.68029637294029
 30
0.0
 11
201.61667194797761
 21
438.6802963729408
 31
0.0
  0
LINE
  5
2D1
  8
C4
 10
203.6166719479771
 20
331.68029637294029
 30
0.0
 11
203.61667194797761
 21
438.6802963729408
 31
0.0
  0
LINE
  5
2D2
  8
C4
 10
183.6166719479771
 20
331.6802963729404
 30
0.0
 11
185.61667194797721
 21
331.6802963729404
 31
0.0
  0
LINE
  5
2D3
  8
C4
 10
164.2019884136383
 20
338.5207716057389
 30
0.0
 11
167.9378879214209
 21
329.50151234638412
 31
0.0
  0
ARC
  5
2D4
  8
C4
 10
167.43556677742811
 20
339.8601636190163
 30
0.0
 40
3.5
 50
112.5000000000027
 51
202.4999999999923
  0
LINE
  5
2D5
  8
C4
 10
170.03088551035049
 20
331.59450993531362
 30
0.0
 11
161.4242837925523
 21
322.9879082175155
 31
0.0
  0
LINE
  5
2D6
  8
C4
 10
158.94941005839931
 20
319.80592770217601
 30
0.0
 11
157.53519649602629
 21
318.3917141398029
 31
0.0
  0
LINE
  5
2D7
  8
C4
 10
160.0100702301792
 20
321.57369465514239
 30
0.0
 11
158.59585666780609
 21
320.15948109276928
 31
0.0
  0
LINE
  5
2D8
  8
C4
 10
161.77783718314569
 20
322.63435482692222
 30
0.0
 11
160.3636236207725
 21
321.22014126454911
 31
0.0
  0
LINE
  5
2D9
  8
C4
 10
171.44509907272339
 20
332.1802963729404
 30
0.0
 11
183.6166719479771
 21
332.1802963729404
 31
0.0
  0
ARC
  5
2DA
  8
C4
 10
167.43556677742811
 20
339.8601636190163
 30
0.0
 40
1.6000000000000001
 50
112.5000000000027
 51
292.49999999999409
  0
ARC
  5
2DB
  8
C4
 10
171.44509907272359
 20
330.18029637294052
 30
0.0
 40
2.0
 50
112.5000000000058
 51
135.0
  0
ARC
  5
2DC
  8
C4
 10
167.43556677742771
 20
339.86016361901619
 30
0.0
 40
3.5
 50
22.500000000005841
 51
112.4999999999996
  0
ARC
  5
2DD
  8
C4
 10
167.43556677742771
 20
339.86016361901619
 30
0.0
 40
1.6000000000000001
 50
292.50000000000267
 51
112.4999999999941
  0
ARC
  5
2DE
  8
C4
 10
171.44509907272331
 20
330.1802963729404
 30
0.0
 40
2.0
 50
90.0
 51
112.4999999999941
  0
LINE
  5
2DF
  8
C4
 10
170.669145141217
 20
341.19955563229428
 30
0.0
 11
174.40504464900181
 21
332.18029637294052
 31
0.0
  0
LINE
  5
2E0
  8
C4
 10
189.6166719479771
 20
332.1802963729404
 30
0.0
 11
201.6166719479771
 21
332.18029637294029
 31
0.0
  0
LINE
  5
2E1
  8
C4
 10
185.6166719479771
 20
332.1802963729404
 30
0.0
 11
187.6166719479771
 21
332.1802963729404
 31
0.0
  0
LINE
  5
2E2
  8
C4
 10
187.61667194797721
 20
331.6802963729404
 30
0.0
 11
189.61667194797721
 21
331.6802963729404
 31
0.0
  0
LINE
  5
2E3
  8
C4
 10
201.6166719479771
 20
331.68029637294029
 30
0.0
 11
203.61667194797721
 21
331.68029637294029
 31
0.0
  0
LINE
  5
2E4
  8
C4
 10
185.61667194797741
 20
438.68029637294092
 30
0.0
 11
183.61667194797749
 21
438.6802963729408
 31
0.0
  0
LINE
  5
2E5
  8
C4
 10
201.61667194797741
 20
438.18029637294092
 30
0.0
 11
189.61667194797749
 21
438.18029637294097
 31
0.0
  0
LINE
  5
2E6
  8
C4
 10
189.61667194797749
 20
438.68029637294092
 30
0.0
 11
187.61667194797749
 21
438.68029637294092
 31
0.0
  0
LINE
  5
2E7
  8
C4
 10
187.61667194797749
 20
438.18029637294097
 30
0.0
 11
185.61667194797749
 21
438.18029637294092
 31
0.0
  0
LINE
  5
2E8
  8
C4
 10
203.61667194797741
 20
438.68029637294069
 30
0.0
 11
201.61667194797741
 21
438.68029637294069
 31
0.0
  0
LINE
  5
2E9
  8
C4
 10
319.4009431954405
 20
215.49221920319059
 30
0.0
 11
289.40094319544068
 21
215.4922192031909
 31
0.0
  0
LINE
  5
2EA
  8
C4
 10
317.90094319544107
 20
218.99221920319059
 30
0.0
 11
290.40094319544119
 21
218.99221920319141
 31
0.0
  0
ARC
  5
2EB
  8
C4
 10
289.40094319544062
 20
190.4922192031909
 30
0.0
 40
25.0
 50
90.0
 51
180.0
  0
ARC
  5
2EC
  8
C4
 10
290.40094319544039
 20
190.49221920319141
 30
0.0
 40
28.5
 50
90.0
 51
180.0
  0
LINE
  5
2ED
  8
C4
 10
231.90094319543979
 20
218.99221920319101
 30
0.0
 11
229.90094319543979
 21
218.99221920319101
 31
0.0
  0
LINE
  5
2EE
  8
C4
 10
299.40094319544068
 20
216.99221920319101
 30
0.0
 11
304.40094319544068
 21
216.99221920319081
 31
0.0
  0
LINE
  5
2EF
  8
C4
 10
299.40094319544062
 20
215.49221920319081
 30
0.0
 11
299.40094319544068
 21
216.99221920319101
 31
0.0
  0
LINE
  5
2F0
  8
C4
 10
304.4009431954405
 20
216.99221920319101
 30
0.0
 11
304.40094319544068
 21
218.99221920319101
 31
0.0
  0
ARC
  5
2F1
  8
C4
 10
319.40094319544039
 20
190.49221920319059
 30
0.0
 40
25.0
 50
0.0
 51
90.0
  0
ARC
  5
2F2
  8
C4
 10
317.90094319544028
 20
190.49221920319059
 30
0.0
 40
28.5
 50
0.0
 51
90.0
  0
LINE
  5
2F3
  8
C4
 10
378.40094319544153
 20
190.4922192031903
 30
0.0
 11
378.40094319544198
 21
218.9922192031872
 31
0.0
  0
LINE
  5
2F4
  8
C4
 10
376.40094319544238
 20
218.99221920318729
 30
0.0
 11
378.40094319544249
 21
218.9922192031872
 31
0.0
  0
ARC
  5
2F5
  8
C4
 10
283.11667194797798
 20
412.18029637294057
 30
0.0
 40
23.0
 50
0.0
 51
90.0
  0
ARC
  5
2F6
  8
C4
 10
281.61667194797798
 20
412.1802963729404
 30
0.0
 40
26.5
 50
0.0
 51
89.999999999996746
  0
ARC
  5
2F7
  8
C4
 10
281.6166719479769
 20
358.18029637294057
 30
0.0
 40
26.5
 50
270.0
 51
0.0
  0
ARC
  5
2F8
  8
C4
 10
283.1166719479769
 20
358.18029637294052
 30
0.0
 40
23.0
 50
270.0
 51
0.0
  0
LINE
  5
2F9
  8
C4
 10
305.1166719479773
 20
385.18029637294001
 30
0.0
 11
305.11667194797678
 21
351.47209244044052
 31
0.0
  0
LINE
  5
2FA
  8
C4
 10
306.1166719479773
 20
385.18029637294001
 30
0.0
 11
306.1166719479769
 21
358.18029637294012
 31
0.0
  0
LINE
  5
2FB
  8
C4
 10
236.1166719479771
 20
360.18029637294092
 30
0.0
 11
236.1166719479771
 21
385.18029637294148
 31
0.0
  0
LINE
  5
2FC
  8
C4
 10
233.6166719479771
 20
360.18029637294097
 30
0.0
 11
233.6166719479773
 21
385.18029637294148
 31
0.0
  0
LINE
  5
2FD
  8
C4
 10
281.61667194797661
 20
331.68029637294057
 30
0.0
 11
262.11667194797673
 21
331.68029637294057
 31
0.0
  0
LINE
  5
2FE
  8
C4
 10
283.11667194797639
 20
335.18029637294052
 30
0.0
 11
261.1166719479765
 21
335.18029637294092
 31
0.0
  0
ARC
  5
2FF
  8
C4
 10
262.11667194797712
 20
360.18029637294069
 30
0.0
 40
28.5
 50
180.0
 51
270.0
  0
ARC
  5
300
  8
C4
 10
261.11667194797712
 20
360.18029637294092
 30
0.0
 40
25.0
 50
180.0
 51
270.0
  0
LINE
  5
301
  8
C4
 10
266.11667194797639
 20
333.68029637294057
 30
0.0
 11
266.1166719479765
 21
331.68029637294057
 31
0.0
  0
LINE
  5
302
  8
C4
 10
261.1166719479765
 20
335.18029637294092
 30
0.0
 11
261.1166719479765
 21
333.68029637294069
 31
0.0
  0
LINE
  5
303
  8
C4
 10
261.1166719479765
 20
333.6802963729408
 30
0.0
 11
266.1166719479765
 21
333.68029637294069
 31
0.0
  0
LINE
  5
304
  8
C4
 10
283.11667194797849
 20
435.18029637294052
 30
0.0
 11
261.11667194797872
 21
435.18029637294097
 31
0.0
  0
LINE
  5
305
  8
C4
 10
281.61667194797889
 20
438.68029637294052
 30
0.0
 11
262.116671947979
 21
438.68029637294131
 31
0.0
  0
ARC
  5
306
  8
C4
 10
261.11667194797809
 20
410.18029637294097
 30
0.0
 40
25.0
 50
90.0
 51
180.0
  0
ARC
  5
307
  8
C4
 10
262.11667194797809
 20
410.1802963729412
 30
0.0
 40
28.5
 50
89.999999999996746
 51
180.0
  0
LINE
  5
308
  8
C4
 10
233.61667194797809
 20
410.180296372942
 30
0.0
 11
233.6166719479773
 21
385.18029637294148
 31
0.0
  0
LINE
  5
309
  8
C4
 10
236.11667194797809
 20
410.180296372942
 30
0.0
 11
236.1166719479771
 21
385.18029637294148
 31
0.0
  0
LINE
  5
30A
  8
C4
 10
266.1166719479786
 20
436.68029637294109
 30
0.0
 11
266.11667194797872
 21
438.68029637294109
 31
0.0
  0
LINE
  5
30B
  8
C4
 10
261.1166719479786
 20
435.18029637294097
 30
0.0
 11
261.11667194797872
 21
436.6802963729412
 31
0.0
  0
LINE
  5
30C
  8
C4
 10
261.11667194797872
 20
436.68029637294109
 30
0.0
 11
266.11667194797872
 21
436.68029637294097
 31
0.0
  0
LINE
  5
30D
  8
C4
 10
305.1166719479773
 20
385.18029637294001
 30
0.0
 11
305.1166719479782
 21
418.88850030543949
 31
0.0
  0
LINE
  5
30E
  8
C4
 10
306.1166719479773
 20
385.18029637293989
 30
0.0
 11
306.11667194797798
 21
412.18029637293989
 31
0.0
  0
LINE
  5
30F
  8
C4
 10
338.1166719479757
 20
331.68029637293398
 30
0.0
 11
338.11667194798088
 21
438.68029637293449
 31
0.0
  0
LINE
  5
310
  8
C4
 10
308.1166719479773
 20
385.18029637293989
 30
0.0
 11
308.1166719479769
 21
358.18029637294029
 31
0.0
  0
LINE
  5
311
  8
C4
 10
352.1166719479757
 20
332.1802963729333
 30
0.0
 11
340.11667194797582
 21
332.18029637293392
 31
0.0
  0
LINE
  5
312
  8
C4
 10
340.1166719479757
 20
331.68029637293392
 30
0.0
 11
340.11667194797701
 21
358.18029637294029
 31
0.0
  0
LINE
  5
313
  8
C4
 10
340.1166719479757
 20
331.68029637293392
 30
0.0
 11
338.11667194797559
 21
331.68029637293398
 31
0.0
  0
LINE
  5
314
  8
C4
 10
352.1166719479757
 20
331.6802963729333
 30
0.0
 11
352.11667194797701
 21
358.18029637294029
 31
0.0
  0
LINE
  5
315
  8
C4
 10
354.11667194797559
 20
331.6802963729333
 30
0.0
 11
354.1166719479769
 21
358.18029637294029
 31
0.0
  0
LINE
  5
316
  8
C4
 10
356.11667194797559
 20
331.68029637293313
 30
0.0
 11
356.1166719479769
 21
358.18029637294029
 31
0.0
  0
LINE
  5
317
  8
C4
 10
358.1166719479757
 20
331.68029637293301
 30
0.0
 11
358.11667194797701
 21
358.18029637294029
 31
0.0
  0
LINE
  5
318
  8
C4
 10
370.28824482322949
 20
332.18029637293228
 30
0.0
 11
358.11667194797582
 21
332.18029637293301
 31
0.0
  0
LINE
  5
319
  8
C4
 10
354.11667194797559
 20
331.6802963729333
 30
0.0
 11
352.11667194797559
 21
331.6802963729333
 31
0.0
  0
LINE
  5
31A
  8
C4
 10
356.11667194797582
 20
332.18029637293313
 30
0.0
 11
354.11667194797582
 21
332.1802963729333
 31
0.0
  0
LINE
  5
31B
  8
C4
 10
358.1166719479757
 20
331.68029637293301
 30
0.0
 11
356.11667194797559
 21
331.68029637293313
 31
0.0
  0
LINE
  5
31C
  8
C4
 10
371.70245838560231
 20
331.5945099353055
 30
0.0
 11
380.30906010339999
 21
322.98790821750703
 31
0.0
  0
LINE
  5
31D
  8
C4
 10
381.72327366577298
 20
321.57369465513381
 30
0.0
 11
383.13748722814597
 21
320.15948109276059
 31
0.0
  0
LINE
  5
31E
  8
C4
 10
382.78393383755269
 20
319.80592770216731
 30
0.0
 11
384.1981473999258
 21
318.39171413979409
 31
0.0
  0
LINE
  5
31F
  8
C4
 10
379.95550671280671
 20
322.63435482691369
 30
0.0
 11
381.36972027517982
 21
321.22014126454047
 31
0.0
  0
ARC
  5
320
  8
C4
 10
370.28824482322938
 20
330.18029637293228
 30
0.0
 40
2.0
 50
67.500000000000355
 51
89.999999999996746
  0
ARC
  5
321
  8
C4
 10
370.28824482322909
 20
330.1802963729325
 30
0.0
 40
2.0
 50
44.999999999997691
 51
67.499999999991317
  0
LINE
  5
322
  8
C4
 10
340.1166719479811
 20
438.18029637293438
 30
0.0
 11
352.1166719479811
 21
438.18029637293398
 31
0.0
  0
LINE
  5
323
  8
C4
 10
340.11667194797968
 20
412.18029637293961
 30
0.0
 11
340.11667194798088
 21
438.68029637293438
 31
0.0
  0
LINE
  5
324
  8
C4
 10
308.1166719479773
 20
385.18029637293989
 30
0.0
 11
308.11667194797798
 21
412.18029637293961
 31
0.0
  0
LINE
  5
325
  8
C4
 10
338.1166719479811
 20
438.68029637293438
 30
0.0
 11
340.11667194798122
 21
438.68029637293432
 31
0.0
  0
LINE
  5
326
  8
C4
 10
358.11667194797963
 20
412.18029637293961
 30
0.0
 11
358.11667194798082
 21
438.68029637293341
 31
0.0
  0
LINE
  5
327
  8
C4
 10
356.11667194797963
 20
412.18029637293961
 30
0.0
 11
356.11667194798082
 21
438.68029637293358
 31
0.0
  0
LINE
  5
328
  8
C4
 10
352.11667194797963
 20
412.18029637293961
 30
0.0
 11
352.11667194798082
 21
438.68029637293381
 31
0.0
  0
LINE
  5
329
  8
C4
 10
354.11667194797963
 20
412.18029637293961
 30
0.0
 11
354.11667194798082
 21
438.6802963729337
 31
0.0
  0
LINE
  5
32A
  8
C4
 10
352.1166719479811
 20
438.68029637293381
 30
0.0
 11
354.1166719479811
 21
438.6802963729337
 31
0.0
  0
LINE
  5
32B
  8
C4
 10
354.1166719479811
 20
438.18029637293381
 30
0.0
 11
356.11667194798099
 21
438.18029637293358
 31
0.0
  0
LINE
  5
32C
  8
C4
 10
356.11667194798099
 20
438.68029637293358
 30
0.0
 11
358.11667194798099
 21
438.68029637293341
 31
0.0
  0
LINE
  5
32D
  8
C4
 10
521.83092140410258
 20
166.53742110099461
 30
0.0
 11
483.05631814851972
 21
205.3120243565796
 31
0.0
  0
LINE
  5
32E
  8
C4
 10
432.38191358400093
 20
48.804142033436108
 30
0.0
 11
536.32661041842664
 21
152.74883886785639
 31
0.0
  0
LINE
  5
32F
  8
C4
 10
418.23977796027037
 20
62.946277657167393
 30
0.0
 11
438.39232122409038
 21
83.09882092098627
 31
0.0
  0
LINE
  5
330
  8
C4
 10
419.6539915226432
 20
61.53206409479418
 30
0.0
 11
439.80653478646337
 21
81.684607358613164
 31
0.0
  0
LINE
  5
331
  8
C4
 10
421.06820508501642
 20
60.117850532421073
 30
0.0
 11
441.22074834883642
 21
80.270393796239944
 31
0.0
  0
LINE
  5
332
  8
C4
 10
422.48241864738941
 20
58.703636970047853
 30
0.0
 11
442.63496191120942
 21
78.856180233866823
 31
0.0
  0
LINE
  5
333
  8
C4
 10
422.83597203798251
 20
59.057190360641023
 30
0.0
 11
431.3212534122207
 21
50.571908986402377
 31
0.0
  0
LINE
  5
334
  8
C4
 10
390.40094319543891
 20
71.992219203186096
 30
0.0
 11
390.40094319543942
 21
100.4922192031901
 31
0.0
  0
LINE
  5
335
  8
C4
 10
392.4009431954388
 20
71.992219203186096
 30
0.0
 11
392.40094319543942
 21
100.4922192031901
 31
0.0
  0
LINE
  5
336
  8
C4
 10
394.40094319543891
 20
71.992219203186096
 30
0.0
 11
394.40094319543942
 21
100.4922192031901
 31
0.0
  0
LINE
  5
337
  8
C4
 10
396.40094319543891
 20
71.992219203186096
 30
0.0
 11
396.40094319543942
 21
100.4922192031901
 31
0.0
  0
ARC
  5
338
  8
C4
 10
412.58204836598821
 20
80.172086449261556
 30
0.0
 40
3.5
 50
337.50000000000739
 51
67.499999999997257
  0
ARC
  5
339
  8
C4
 10
412.58204836598821
 20
80.172086449261556
 30
0.0
 40
1.6000000000000001
 50
247.50000000000031
 51
67.499999999994159
  0
ARC
  5
33A
  8
C4
 10
412.58204836598838
 20
80.172086449261315
 30
0.0
 40
1.6000000000000001
 50
67.500000000000355
 51
247.49999999999409
  0
LINE
  5
33B
  8
C4
 10
409.34847000219912
 20
81.511478462539571
 30
0.0
 11
405.61257049441417
 21
72.492219203185869
 31
0.0
  0
LINE
  5
33C
  8
C4
 10
409.98672963306541
 20
71.906432765558975
 30
0.0
 11
418.59333135086342
 21
63.299831047760563
 31
0.0
  0
LINE
  5
33D
  8
C4
 10
408.57251607069259
 20
72.492219203185641
 30
0.0
 11
396.40094319543891
 21
72.492219203186096
 31
0.0
  0
LINE
  5
33E
  8
C4
 10
392.4009431954388
 20
71.992219203186096
 30
0.0
 11
390.40094319543891
 21
71.992219203186096
 31
0.0
  0
LINE
  5
33F
  8
C4
 10
394.40094319543891
 20
72.492219203186096
 30
0.0
 11
392.4009431954388
 21
72.492219203186096
 31
0.0
  0
LINE
  5
340
  8
C4
 10
396.40094319543891
 20
71.992219203186096
 30
0.0
 11
394.40094319543891
 21
71.992219203186096
 31
0.0
  0
ARC
  5
341
  8
C4
 10
408.57251607069259
 20
70.492219203185641
 30
0.0
 40
2.0
 50
67.500000000005841
 51
90.0
  0
ARC
  5
342
  8
C4
 10
408.57251607069219
 20
70.492219203185854
 30
0.0
 40
2.0
 50
45.0
 51
67.499999999994159
  0
LINE
  5
343
  8
C4
 10
418.2397779602702
 20
62.946277657167457
 30
0.0
 11
419.6539915226432
 21
61.532064094794123
 31
0.0
  0
LINE
  5
344
  8
C4
 10
420.00754491323642
 20
61.885617485387449
 30
0.0
 11
421.42175847560952
 21
60.47140392301435
 31
0.0
  0
LINE
  5
345
  8
C4
 10
421.0682050850163
 20
60.117850532421009
 30
0.0
 11
422.4824186473893
 21
58.703636970047683
 31
0.0
  0
LINE
  5
346
  8
C4
 10
415.81562672977788
 20
78.832694435983967
 30
0.0
 11
412.07972722199509
 21
69.813435176629355
 31
0.0
  0
ARC
  5
347
  8
C4
 10
412.58204836598838
 20
80.172086449261315
 30
0.0
 40
3.5
 50
67.500000000000355
 51
157.49999999999409
  0
LINE
  5
348
  8
C4
 10
430.96770002162771
 20
50.218355595809037
 30
0.0
 11
451.12024328544749
 21
70.370898859627843
 31
0.0
  0
LINE
  5
349
  8
C4
 10
430.96770002162771
 20
50.218355595809037
 30
0.0
 11
432.3819135840007
 21
48.804142033435937
 31
0.0
  0
LINE
  5
34A
  8
C4
 10
502.03193153088148
 20
146.7384312277739
 30
0.0
 11
522.18447479469614
 21
166.8909744915876
 31
0.0
  0
LINE
  5
34B
  8
C4
 10
503.44614509325447
 20
145.32421766540079
 30
0.0
 11
523.59868835706925
 21
165.47676092921449
 31
0.0
  0
LINE
  5
34C
  8
C4
 10
504.86035865562741
 20
143.91000410302769
 30
0.0
 11
525.01290191944236
 21
164.06254736684139
 31
0.0
  0
LINE
  5
34D
  8
C4
 10
506.27457221800063
 20
142.4957905406545
 30
0.0
 11
526.42711548181535
 21
162.64833380446819
 31
0.0
  0
LINE
  5
34E
  8
C4
 10
514.75985359223864
 20
134.0105091664156
 30
0.0
 11
534.91239685605353
 21
154.1630524302295
 31
0.0
  0
LINE
  5
34F
  8
C4
 10
534.55884346545997
 20
153.80949903963639
 30
0.0
 11
526.07356209122179
 21
162.2947804138752
 31
0.0
  0
LINE
  5
350
  8
C4
 10
523.59868835706891
 20
165.47676092921481
 30
0.0
 11
522.18447479469592
 21
166.89097449158771
 31
0.0
  0
LINE
  5
351
  8
C4
 10
526.42711548181512
 20
162.64833380446831
 30
0.0
 11
525.01290191944202
 21
164.06254736684139
 31
0.0
  0
LINE
  5
352
  8
C4
 10
524.65934852884891
 20
163.70899397624839
 30
0.0
 11
523.24513496647558
 21
165.1232075386215
 31
0.0
  0
LINE
  5
353
  8
C4
 10
536.32661041842641
 20
152.74883886785659
 30
0.0
 11
534.91239685605319
 21
154.1630524302297
 31
0.0
  0
LINE
  5
354
  8
C4
 10
392.6834287741637
 20
309.90643276555522
 30
0.0
 11
411.42175847561271
 21
328.64476246700229
 31
0.0
  0
LINE
  5
355
  8
C4
 10
394.09764233653681
 20
308.49221920318212
 30
0.0
 11
469.7580679235017
 21
384.15264479013911
 31
0.0
  0
ARC
  5
356
  8
C4
 10
451.2365129951242
 20
173.4922192031859
 30
0.0
 40
45.0
 50
45.0
 51
67.499999999997257
  0
LINE
  5
357
  8
C4
 10
396.40094319544232
 20
218.49221920318689
 30
0.0
 11
451.23651299512528
 21
218.49221920318581
 31
0.0
  0
LINE
  5
358
  8
C4
 10
390.40094319544119
 20
190.4922192031903
 30
0.0
 11
390.40094319544181
 21
218.99221920318709
 31
0.0
  0
LINE
  5
359
  8
C4
 10
392.40094319544141
 20
190.4922192031903
 30
0.0
 11
392.40094319544198
 21
218.99221920318701
 31
0.0
  0
LINE
  5
35A
  8
C4
 10
394.4009431954413
 20
190.4922192031903
 30
0.0
 11
394.40094319544181
 21
218.99221920318701
 31
0.0
  0
LINE
  5
35B
  8
C4
 10
396.40094319544119
 20
190.4922192031903
 30
0.0
 11
396.40094319544181
 21
218.99221920318681
 31
0.0
  0
LINE
  5
35C
  8
C4
 10
394.40094319544238
 20
218.99221920318701
 30
0.0
 11
396.40094319544232
 21
218.99221920318681
 31
0.0
  0
LINE
  5
35D
  8
C4
 10
392.40094319544232
 20
218.49221920318709
 30
0.0
 11
394.40094319544232
 21
218.49221920318701
 31
0.0
  0
LINE
  5
35E
  8
C4
 10
390.40094319544232
 20
218.99221920318709
 30
0.0
 11
392.40094319544232
 21
218.99221920318701
 31
0.0
  0
LINE
  5
35F
  8
C4
 10
468.44668038477829
 20
205.8952979718627
 30
0.0
 11
471.59662440480309
 21
213.4999355457162
 31
0.0
  0
LINE
  5
360
  8
C4
 10
461.97952365719919
 20
208.57408199841851
 30
0.0
 11
465.12946767721979
 21
216.17871957227379
 31
0.0
  0
ARC
  5
361
  8
C4
 10
465.21310202098903
 20
207.2346899851415
 30
0.0
 40
3.5
 50
157.50000000001481
 51
247.50000000000031
  0
ARC
  5
362
  8
C4
 10
465.21310202098903
 20
207.2346899851415
 30
0.0
 40
1.6000000000000001
 50
67.499999999997257
 51
247.50000000000031
  0
ARC
  5
363
  8
C4
 10
465.2131020209892
 20
207.23468998514139
 30
0.0
 40
3.5
 50
247.49999999999719
 51
337.4999999999809
  0
ARC
  5
364
  8
C4
 10
465.2131020209892
 20
207.23468998514139
 30
0.0
 40
1.6000000000000001
 50
247.49999999999719
 51
67.500000000000355
  0
ARC
  5
365
  8
C4
 10
451.2365129951242
 20
173.49221920318581
 30
0.0
 40
45.0
 50
67.499999999997257
 51
90.0
  0
LINE
  5
366
  8
C4
 10
392.68342877416381
 20
309.90643276555511
 30
0.0
 11
394.09764233653692
 21
308.49221920318189
 31
0.0
  0
LINE
  5
367
  8
C4
 10
439.70602972307728
 20
376.72802358768598
 30
0.0
 11
458.4443594245177
 21
395.4663532891243
 31
0.0
  0
LINE
  5
368
  8
C4
 10
441.1202432854501
 20
375.31381002531282
 30
0.0
 11
459.85857298689069
 21
394.05213972675119
 31
0.0
  0
LINE
  5
369
  8
C4
 10
438.2918161607044
 20
378.14223715005932
 30
0.0
 11
457.03014586214459
 21
396.88056685149741
 31
0.0
  0
LINE
  5
36A
  8
C4
 10
449.60552465968789
 20
366.8285286510735
 30
0.0
 11
468.34385436112882
 21
385.56685835251233
 31
0.0
  0
LINE
  5
36B
  8
C4
 10
455.26237890917832
 20
397.94122702327741
 30
0.0
 11
425.27457221799961
 21
427.92903371445919
 31
0.0
  0
ARC
  5
36C
  8
1外形線
 10
393.06999075375558
 20
385.18029637293949
 30
0.0
 40
2.0
 50
247.49999999999719
 51
67.499999999994159
  0
ARC
  5
36D
  8
1外形線
 10
393.06999075375569
 20
385.18029637293949
 30
0.0
 40
2.0
 50
67.499999999997257
 51
247.49999999999409
  0
ARC
  5
36E
  8
C4
 10
400.5258348764691
 20
403.18029637293142
 30
0.0
 40
35.0
 50
67.499999999997257
 51
89.999999999996746
  0
ARC
  5
36F
  8
C4
 10
400.5258348764691
 20
403.18029637293142
 30
0.0
 40
35.0
 50
44.999999999997691
 51
67.499999999997257
  0
LINE
  5
370
  8
C4
 10
436.87760259833129
 20
379.55645071243248
 30
0.0
 11
455.6159322997716
 21
398.29478041387068
 31
0.0
  0
LINE
  5
371
  8
C4
 10
458.09080603392442
 20
395.11279989853108
 30
0.0
 11
456.67659247155137
 21
396.52701346090419
 31
0.0
  0
LINE
  5
372
  8
C4
 10
467.99030097053549
 20
385.21330496191888
 30
0.0
 11
459.50501959629742
 21
393.69858633615792
 31
0.0
  0
LINE
  5
373
  8
C4
 10
459.85857298689069
 20
394.05213972675108
 30
0.0
 11
458.44435942451759
 21
395.4663532891243
 31
0.0
  0
LINE
  5
374
  8
C4
 10
469.7580679235017
 20
384.15264479013899
 30
0.0
 11
468.34385436112871
 21
385.5668583525121
 31
0.0
  0
LINE
  5
375
  8
C4
 10
457.03014586214448
 20
396.88056685149741
 30
0.0
 11
455.6159322997716
 21
398.29478041387051
 31
0.0
  0
LINE
  5
376
  8
C4
 10
369.41997280687599
 20
528.6802963729408
 30
0.0
 11
427.40272886417267
 21
586.66305243023771
 31
0.0
  0
LINE
  5
377
  8
C4
 10
374.38012791526728
 20
765.23412024210268
 30
0.0
 11
390.29003049196461
 21
781.14402281880007
 31
0.0
  0
LINE
  5
378
  8
C4
 10
382.86540928950592
 20
756.74883886786427
 30
0.0
 11
398.77531186620331
 21
772.65874144456166
 31
0.0
  0
LINE
  5
379
  8
C4
 10
352.81337108907758
 20
723.86837354268994
 30
0.0
 11
400.18952542857642
 21
771.24452788218855
 31
0.0
  0
LINE
  5
37A
  8
C4
 10
412.90703984984862
 20
600.45163466337544
 30
0.0
 11
387.31263144087001
 21
626.04604307235377
 31
0.0
  0
LINE
  5
37B
  8
C4
 10
390.29003049196461
 20
781.14402281880007
 30
0.0
 11
388.87581692959151
 21
782.55823638117306
 31
0.0
  0
ARC
  5
37C
  8
C4
 10
241.43900241831309
 20
578.17188204467288
 30
0.0
 40
23.0
 50
180.0
 51
262.50528254607332
  0
ARC
  5
37D
  8
C4
 10
242.43900241831301
 20
578.36837354268994
 30
0.0
 40
26.5
 50
180.0
 51
270.0
  0
ARC
  5
37E
  8
C4
 10
242.43900241831329
 20
607.36837354268994
 30
0.0
 40
26.5
 50
90.0
 51
180.0
  0
ARC
  5
37F
  8
C4
 10
241.43900241831341
 20
607.56486504070688
 30
0.0
 40
23.0
 50
97.494717453926654
 51
180.0
  0
LINE
  5
380
  8
C4
 10
144.10016765348161
 20
542.82243199667175
 30
0.0
 11
86.117411596184752
 21
600.80518805396855
 31
0.0
  0
LINE
  5
381
  8
C4
 10
142.6859540911085
 20
541.40821843429865
 30
0.0
 11
84.703198033811532
 21
599.39097449159544
 31
0.0
  0
LINE
  5
382
  8
C4
 10
141.27174052873539
 20
539.99400487192554
 30
0.0
 11
83.288984471438539
 21
597.97676092922245
 31
0.0
  0
LINE
  5
383
  8
C4
 10
139.8575269663624
 20
538.57979130955243
 30
0.0
 11
81.874770909065433
 21
596.56254736684934
 31
0.0
  0
LINE
  5
384
  8
C4
 10
131.37224559212379
 20
530.09450993531391
 30
0.0
 11
73.389489534826907
 21
588.07726599261071
 31
0.0
  0
LINE
  5
385
  8
C4
 10
129.95803202975071
 20
528.6802963729408
 30
0.0
 11
71.975275972453801
 21
586.66305243023771
 31
0.0
  0
LINE
  5
386
  8
C4
 10
171.93900241831309
 20
551.86837354268982
 30
0.0
 11
171.93900241831369
 21
633.86837354268994
 31
0.0
  0
LINE
  5
387
  8
C4
 10
169.93900241831329
 20
551.86837354268994
 30
0.0
 11
169.93900241831369
 21
633.86837354268994
 31
0.0
  0
LINE
  5
388
  8
C4
 10
167.93900241831321
 20
551.86837354268994
 30
0.0
 11
167.93900241831369
 21
633.86837354268994
 31
0.0
  0
LINE
  5
389
  8
C4
 10
165.93900241831309
 20
551.86837354268994
 30
0.0
 11
165.93900241831369
 21
633.86837354268994
 31
0.0
  0
LINE
  5
38A
  8
C4
 10
185.93900241831309
 20
551.86837354268982
 30
0.0
 11
185.93900241831361
 21
633.86837354268982
 31
0.0
  0
LINE
  5
38B
  8
C4
 10
183.93900241831309
 20
551.86837354268982
 30
0.0
 11
183.93900241831361
 21
633.86837354268982
 31
0.0
  0
LINE
  5
38C
  8
C4
 10
215.93900241831301
 20
578.36837354269028
 30
0.0
 11
215.93900241831321
 21
592.86837354269005
 31
0.0
  0
LINE
  5
38D
  8
C4
 10
218.43900241831309
 20
578.36837354269028
 30
0.0
 11
218.43900241831309
 21
592.86837354269005
 31
0.0
  0
LINE
  5
38E
  8
C4
 10
152.3532159806866
 20
551.78258710506304
 30
0.0
 11
143.74661426288839
 21
543.17598538726509
 31
0.0
  0
TEXT
  5
38F
  8
1外形線
 10
72.244056184285
 20
468.87008573064662
 30
0.0
 40
10.0
  1
SKF-100
  7
KANJI
  0
LINE
  5
390
  8
C4
 10
131.37224559212379
 20
530.09450993531391
 30
0.0
 11
129.95803202975071
 21
528.6802963729408
 31
0.0
  0
LINE
  5
391
  8
C4
 10
139.50397357576909
 20
538.93334470014565
 30
0.0
 11
131.01869220153051
 21
530.44806332590724
 31
0.0
  0
LINE
  5
392
  8
C4
 10
144.10016765348161
 20
542.82243199667175
 30
0.0
 11
142.6859540911085
 21
541.40821843429865
 31
0.0
  0
LINE
  5
393
  8
C4
 10
142.33240070051531
 20
541.76177182489187
 30
0.0
 11
140.9181871381422
 21
540.34755826251887
 31
0.0
  0
LINE
  5
394
  8
C4
 10
141.27174052873539
 20
539.99400487192554
 30
0.0
 11
139.85752696636229
 21
538.57979130955243
 31
0.0
  0
LINE
  5
395
  8
C4
 10
183.93900241831309
 20
551.86837354268982
 30
0.0
 11
185.93900241831321
 21
551.86837354268982
 31
0.0
  0
LINE
  5
396
  8
C4
 10
153.76742954305951
 20
552.36837354268994
 30
0.0
 11
165.93900241831309
 21
552.36837354268994
 31
0.0
  0
ARC
  5
397
  8
C4
 10
149.75789724776399
 20
560.04824078876572
 30
0.0
 40
3.5
 50
112.5000000000027
 51
202.4999999999923
  0
ARC
  5
398
  8
C4
 10
149.75789724776379
 20
560.04824078876572
 30
0.0
 40
3.5
 50
22.500000000005841
 51
112.4999999999996
  0
LINE
  5
399
  8
C4
 10
152.99147561155311
 20
561.38763280204375
 30
0.0
 11
156.72737511933789
 21
552.36837354269005
 31
0.0
  0
ARC
  5
39A
  8
C4
 10
149.75789724776399
 20
560.04824078876572
 30
0.0
 40
1.6000000000000001
 50
112.5000000000027
 51
292.49999999999409
  0
ARC
  5
39B
  8
C4
 10
153.76742954305971
 20
550.36837354269005
 30
0.0
 40
2.0
 50
112.5000000000058
 51
135.0
  0
LINE
  5
39C
  8
C4
 10
146.5243188839743
 20
558.70884877548838
 30
0.0
 11
150.26021839175701
 21
549.68958951613365
 31
0.0
  0
ARC
  5
39D
  8
C4
 10
153.76742954305931
 20
550.36837354268994
 30
0.0
 40
2.0
 50
90.0
 51
112.4999999999941
  0
ARC
  5
39E
  8
C4
 10
149.75789724776379
 20
560.04824078876572
 30
0.0
 40
1.6000000000000001
 50
292.50000000000267
 51
112.4999999999941
  0
LINE
  5
39F
  8
C4
 10
171.93900241831309
 20
552.36837354268994
 30
0.0
 11
183.93900241831309
 21
552.36837354268982
 31
0.0
  0
LINE
  5
3A0
  8
C4
 10
165.93900241831309
 20
551.86837354268994
 30
0.0
 11
167.93900241831321
 21
551.86837354268994
 31
0.0
  0
LINE
  5
3A1
  8
C4
 10
167.93900241831309
 20
552.36837354268994
 30
0.0
 11
169.93900241831309
 21
552.36837354268994
 31
0.0
  0
LINE
  5
3A2
  8
C4
 10
169.93900241831329
 20
551.86837354268994
 30
0.0
 11
171.93900241831329
 21
551.86837354268994
 31
0.0
  0
LINE
  5
3A3
  8
C4
 10
165.93900241831361
 20
633.36837354268994
 30
0.0
 11
129.7430429254203
 21
633.36837354269016
 31
0.0
  0
LINE
  5
3A4
  8
C4
 10
86.470964986778085
 20
600.45163466337544
 30
0.0
 11
112.0653733957565
 21
626.04604307235377
 31
0.0
  0
LINE
  5
3A5
  8
C4
 10
81.874770909065546
 20
596.56254736684934
 30
0.0
 11
83.288984471438653
 21
597.97676092922245
 31
0.0
  0
LINE
  5
3A6
  8
C4
 10
71.975275972453915
 20
586.66305243023783
 30
0.0
 11
73.389489534827021
 21
588.07726599261093
 31
0.0
  0
LINE
  5
3A7
  8
C4
 10
73.743042925420241
 20
587.72371260201771
 30
0.0
 11
82.228324299658652
 21
596.20899397625624
 31
0.0
  0
LINE
  5
3A8
  8
C4
 10
83.642537862031872
 20
597.62320753862934
 30
0.0
 11
85.056751424404979
 21
599.03742110100234
 31
0.0
  0
LINE
  5
3A9
  8
C4
 10
84.703198033811759
 20
599.39097449159556
 30
0.0
 11
86.117411596184866
 21
600.80518805396855
 31
0.0
  0
ARC
  5
3AA
  8
C4
 10
123.4201225468579
 20
623.63325367442042
 30
0.0
 40
1.6000000000000001
 50
112.4999999999996
 51
292.50000000000267
  0
ARC
  5
3AB
  8
C4
 10
123.4201225468579
 20
623.63325367442042
 30
0.0
 40
3.5
 50
202.50000000001299
 51
292.50000000000267
  0
ARC
  5
3AC
  8
C4
 10
129.74304292542021
 20
608.36837354269016
 30
0.0
 40
25.0
 50
90.0
 51
112.4999999999996
  0
LINE
  5
3AD
  8
C4
 10
126.6537009106478
 20
624.97264568769731
 30
0.0
 11
123.5037568906275
 21
632.57728326155279
 31
0.0
  0
ARC
  5
3AE
  8
C4
 10
123.420122546858
 20
623.63325367442042
 30
0.0
 40
1.6000000000000001
 50
292.4999999999996
 51
112.5000000000027
  0
ARC
  5
3AF
  8
C4
 10
129.74304292542021
 20
608.36837354269016
 30
0.0
 40
25.0
 50
112.4999999999996
 51
135.0
  0
LINE
  5
3B0
  8
C4
 10
120.1865441830687
 20
622.2938616611417
 30
0.0
 11
117.0366001630441
 21
629.89849923499526
 31
0.0
  0
ARC
  5
3B1
  8
C4
 10
123.420122546858
 20
623.63325367442042
 30
0.0
 40
3.5
 50
292.4999999999996
 51
22.499999999984031
  0
TEXT
  5
3B2
  8
1外形線
 10
72.244056184285
 20
664.0581629003957
 30
0.0
 40
10.0
  1
SKF-77
  7
KANJI
  0
LINE
  5
3B3
  8
C4
 10
185.93900241831349
 20
633.86837354268982
 30
0.0
 11
183.93900241831349
 21
633.86837354268982
 31
0.0
  0
LINE
  5
3B4
  8
C4
 10
183.93900241831349
 20
633.36837354268994
 30
0.0
 11
171.93900241831361
 21
633.36837354269005
 31
0.0
  0
LINE
  5
3B5
  8
C4
 10
167.93900241831361
 20
633.86837354268994
 30
0.0
 11
165.93900241831361
 21
633.86837354268994
 31
0.0
  0
LINE
  5
3B6
  8
C4
 10
169.93900241831361
 20
633.36837354269005
 30
0.0
 11
167.93900241831361
 21
633.36837354268994
 31
0.0
  0
LINE
  5
3B7
  8
C4
 10
171.93900241831361
 20
633.86837354268994
 30
0.0
 11
169.93900241831361
 21
633.86837354268994
 31
0.0
  0
LINE
  5
3B8
  8
C4
 10
215.93900241831321
 20
607.36837354268994
 30
0.0
 11
215.93900241831321
 21
592.86837354269005
 31
0.0
  0
LINE
  5
3B9
  8
C4
 10
218.43900241831341
 20
607.5648650407071
 30
0.0
 11
218.43900241831309
 21
592.86837354269005
 31
0.0
  0
LINE
  5
3BA
  8
C4
 10
313.43900241831329
 20
551.86837354268982
 30
0.0
 11
313.4390024183129
 21
633.86837354268982
 31
0.0
  0
LINE
  5
3BB
  8
C4
 10
283.43900241831318
 20
592.86837354268948
 30
0.0
 11
283.43900241831301
 21
576.36837354268937
 31
0.0
  0
LINE
  5
3BC
  8
C4
 10
281.43900241831318
 20
592.86837354268971
 30
0.0
 11
281.43900241831301
 21
576.36837354268926
 31
0.0
  0
LINE
  5
3BD
  8
C4
 10
280.43900241831329
 20
592.86837354268971
 30
0.0
 11
280.4390024183129
 21
569.96524930525652
 31
0.0
  0
ARC
  5
3BE
  8
C4
 10
260.43900241831301
 20
576.36837354268971
 30
0.0
 40
21.0
 50
270.0
 51
0.0
  0
ARC
  5
3BF
  8
C4
 10
258.93900241831301
 20
576.36837354268982
 30
0.0
 40
24.5
 50
270.0
 51
0.0
  0
LINE
  5
3C0
  8
C4
 10
260.43900241831261
 20
555.36837354268971
 30
0.0
 11
238.4390024183127
 21
555.36837354269016
 31
0.0
  0
LINE
  5
3C1
  8
C4
 10
258.9390024183129
 20
551.86837354268982
 30
0.0
 11
242.43900241831281
 21
551.86837354268994
 31
0.0
  0
LINE
  5
3C2
  8
C4
 10
243.43900241831261
 20
553.86837354268994
 30
0.0
 11
243.4390024183127
 21
551.86837354268994
 31
0.0
  0
LINE
  5
3C3
  8
C4
 10
238.4390024183127
 20
555.36837354269016
 30
0.0
 11
238.4390024183127
 21
553.86837354269005
 31
0.0
  0
LINE
  5
3C4
  8
C4
 10
238.4390024183127
 20
553.86837354269005
 30
0.0
 11
243.4390024183127
 21
553.86837354269005
 31
0.0
  0
LINE
  5
3C5
  8
C4
 10
347.0247888559399
 20
551.78258710506304
 30
0.0
 11
355.63139057373809
 21
543.17598538726509
 31
0.0
  0
LINE
  5
3C6
  8
C4
 10
329.43900241831329
 20
551.86837354268994
 30
0.0
 11
327.43900241831329
 21
551.86837354268994
 31
0.0
  0
LINE
  5
3C7
  8
C4
 10
327.43900241831341
 20
551.86837354268982
 30
0.0
 11
327.43900241831329
 21
576.36837354268937
 31
0.0
  0
LINE
  5
3C8
  8
C4
 10
315.43900241831329
 20
551.86837354268982
 30
0.0
 11
315.43900241831329
 21
576.36837354268937
 31
0.0
  0
LINE
  5
3C9
  8
C4
 10
327.43900241831341
 20
552.36837354268994
 30
0.0
 11
315.43900241831329
 21
552.36837354268982
 31
0.0
  0
LINE
  5
3CA
  8
C4
 10
315.43900241831329
 20
551.86837354268982
 30
0.0
 11
313.43900241831329
 21
551.86837354268982
 31
0.0
  0
LINE
  5
3CB
  8
C4
 10
333.43900241831341
 20
551.86837354268994
 30
0.0
 11
333.43900241831318
 21
576.36837354268937
 31
0.0
  0
LINE
  5
3CC
  8
C4
 10
331.43900241831329
 20
551.86837354268994
 30
0.0
 11
331.43900241831312
 21
576.36837354268937
 31
0.0
  0
LINE
  5
3CD
  8
C4
 10
329.43900241831329
 20
551.86837354268994
 30
0.0
 11
329.43900241831312
 21
576.36837354268937
 31
0.0
  0
LINE
  5
3CE
  8
C4
 10
345.61057529356702
 20
552.36837354268994
 30
0.0
 11
333.43900241831341
 21
552.36837354268994
 31
0.0
  0
LINE
  5
3CF
  8
C4
 10
333.43900241831341
 20
551.86837354268994
 30
0.0
 11
331.43900241831329
 21
551.86837354268994
 31
0.0
  0
LINE
  5
3D0
  8
C4
 10
331.43900241831341
 20
552.36837354268994
 30
0.0
 11
329.43900241831341
 21
552.36837354268994
 31
0.0
  0
ARC
  5
3D1
  8
C4
 10
345.61057529356719
 20
550.36837354268994
 30
0.0
 40
2.0
 50
67.500000000005841
 51
90.0
  0
ARC
  5
3D2
  8
C4
 10
345.6105752935668
 20
550.36837354269005
 30
0.0
 40
2.0
 50
45.0
 51
67.499999999994159
  0
LINE
  5
3D3
  8
C4
 10
358.10626430789119
 20
539.99400487192554
 30
0.0
 11
375.43038044696141
 21
557.31812101099558
 31
0.0
  0
LINE
  5
3D4
  8
C4
 10
356.69205074551809
 20
541.40821843429865
 30
0.0
 11
374.0161668845883
 21
558.73233457336858
 31
0.0
  0
LINE
  5
3D5
  8
C4
 10
355.2778371831451
 20
542.82243199667175
 30
0.0
 11
372.60195332221502
 21
560.1465481357418
 31
0.0
  0
LINE
  5
3D6
  8
C4
 10
368.00575924450283
 20
530.09450993531391
 30
0.0
 11
385.32987538357298
 21
547.41862607438406
 31
0.0
  0
LINE
  5
3D7
  8
C4
 10
359.52047787026419
 20
538.57979130955243
 30
0.0
 11
376.84459400933429
 21
555.90390744862259
 31
0.0
  0
LINE
  5
3D8
  8
C4
 10
368.00575924450271
 20
530.09450993531391
 30
0.0
 11
369.41997280687582
 21
528.6802963729408
 31
0.0
  0
LINE
  5
3D9
  8
C4
 10
358.10626430789108
 20
539.99400487192554
 30
0.0
 11
359.52047787026419
 21
538.57979130955243
 31
0.0
  0
LINE
  5
3DA
  8
C4
 10
357.04560413611119
 20
541.76177182489187
 30
0.0
 11
358.4598176984843
 21
540.34755826251887
 31
0.0
  0
LINE
  5
3DB
  8
C4
 10
355.27783718314492
 20
542.82243199667175
 30
0.0
 11
356.69205074551797
 21
541.40821843429865
 31
0.0
  0
LINE
  5
3DC
  8
C4
 10
359.87403126085741
 20
538.93334470014565
 30
0.0
 11
368.35931263509599
 21
530.44806332590724
 31
0.0
  0
ARC
  5
3DD
  8
C4
 10
258.93900241831329
 20
609.36837354268982
 30
0.0
 40
24.5
 50
0.0
 51
90.0
  0
ARC
  5
3DE
  8
C4
 10
260.43900241831318
 20
609.36837354268994
 30
0.0
 40
21.0
 50
0.0
 51
90.0
  0
LINE
  5
3DF
  8
C4
 10
260.43900241831301
 20
630.36837354268994
 30
0.0
 11
238.43900241831329
 21
630.36837354268971
 31
0.0
  0
LINE
  5
3E0
  8
C4
 10
258.93900241831352
 20
633.86837354268982
 30
0.0
 11
242.43900241831349
 21
633.86837354268994
 31
0.0
  0
LINE
  5
3E1
  8
C4
 10
243.43900241831309
 20
631.86837354268994
 30
0.0
 11
243.43900241831321
 21
633.86837354268994
 31
0.0
  0
LINE
  5
3E2
  8
C4
 10
238.43900241831329
 20
630.36837354268971
 30
0.0
 11
238.43900241831329
 21
631.86837354268994
 31
0.0
  0
LINE
  5
3E3
  8
C4
 10
238.43900241831329
 20
631.86837354268982
 30
0.0
 11
243.43900241831321
 21
631.86837354268982
 31
0.0
  0
LINE
  5
3E4
  8
C4
 10
280.43900241831329
 20
592.86837354268971
 30
0.0
 11
280.43900241831329
 21
615.77149778012279
 31
0.0
  0
LINE
  5
3E5
  8
C4
 10
283.43900241831318
 20
592.86837354268948
 30
0.0
 11
283.43900241831318
 21
609.36837354268982
 31
0.0
  0
LINE
  5
3E6
  8
C4
 10
281.43900241831318
 20
592.86837354268948
 30
0.0
 11
281.43900241831318
 21
609.36837354268994
 31
0.0
  0
LINE
  5
3E7
  8
C4
 10
333.4390024183129
 20
633.36837354268994
 30
0.0
 11
369.63496191120629
 21
633.36837354269016
 31
0.0
  0
LINE
  5
3E8
  8
C4
 10
333.4390024183129
 20
609.36837354268982
 30
0.0
 11
333.43900241831278
 21
633.86837354268994
 31
0.0
  0
LINE
  5
3E9
  8
C4
 10
331.4390024183129
 20
609.36837354268982
 30
0.0
 11
331.43900241831278
 21
633.86837354268994
 31
0.0
  0
LINE
  5
3EA
  8
C4
 10
329.4390024183129
 20
609.36837354268982
 30
0.0
 11
329.43900241831278
 21
633.86837354268994
 31
0.0
  0
LINE
  5
3EB
  8
C4
 10
327.4390024183129
 20
609.36837354268982
 30
0.0
 11
327.43900241831278
 21
633.86837354268994
 31
0.0
  0
LINE
  5
3EC
  8
C4
 10
315.43900241831301
 20
609.36837354268982
 30
0.0
 11
315.4390024183129
 21
633.86837354268982
 31
0.0
  0
LINE
  5
3ED
  8
C4
 10
327.4390024183129
 20
633.86837354268994
 30
0.0
 11
329.4390024183129
 21
633.86837354268994
 31
0.0
  0
LINE
  5
3EE
  8
C4
 10
315.43900241831301
 20
633.36837354268994
 30
0.0
 11
327.4390024183129
 21
633.36837354269005
 31
0.0
  0
LINE
  5
3EF
  8
C4
 10
313.43900241831301
 20
633.86837354268982
 30
0.0
 11
315.43900241831301
 21
633.86837354268982
 31
0.0
  0
LINE
  5
3F0
  8
C4
 10
329.4390024183129
 20
633.36837354269005
 30
0.0
 11
331.4390024183129
 21
633.36837354268994
 31
0.0
  0
LINE
  5
3F1
  8
C4
 10
331.43900241831301
 20
633.86837354268994
 30
0.0
 11
333.4390024183129
 21
633.86837354268994
 31
0.0
  0
ARC
  5
3F2
  8
1外形線
 10
363.21465169442331
 20
592.86837354268948
 30
0.0
 40
2.0
 50
247.49999999999719
 51
67.499999999997257
  0
ARC
  5
3F3
  8
1外形線
 10
363.21465169442308
 20
592.86837354268948
 30
0.0
 40
2.0
 50
67.500000000000355
 51
247.50000000000031
  0
ARC
  5
3F4
  8
C4
 10
369.63496191120629
 20
608.36837354269016
 30
0.0
 40
25.0
 50
45.0
 51
67.500000000000355
  0
ARC
  5
3F5
  8
C4
 10
369.63496191120629
 20
608.36837354269016
 30
0.0
 40
25.0
 50
67.500000000000355
 51
90.0
  0
ARC
  5
3F6
  8
C4
 10
230.832400700515
 20
788.55645071243885
 30
0.0
 40
25.5
 50
90.0
 51
180.0
  0
ARC
  5
3F7
  8
C4
 10
229.83240070051511
 20
788.64754841223214
 30
0.0
 40
22.0
 50
95.21590857045264
 51
180.0
  0
ARC
  5
3F8
  8
C4
 10
230.832400700515
 20
772.55645071243885
 30
0.0
 40
25.5
 50
180.0
 51
270.0
  0
ARC
  5
3F9
  8
C4
 10
229.83240070051511
 20
772.46535301264555
 30
0.0
 40
22.0
 50
179.76274869829609
 51
264.78409142954729
  0
TEXT
  5
3FA
  8
1外形線
 10
72.244056184285
 20
843.74624007014484
 30
0.0
 40
10.0
  1
SKF-66
  7
KANJI
  0
LINE
  5
3FB
  8
C4
 10
143.16082782526121
 20
747.55645071243885
 30
0.0
 11
155.3324007005148
 21
747.55645071243885
 31
0.0
  0
LINE
  5
3FC
  8
C4
 10
142.38487389375479
 20
756.57570997179278
 30
0.0
 11
146.12077340153959
 21
747.55645071243885
 31
0.0
  0
LINE
  5
3FD
  8
C4
 10
155.33240070051531
 20
813.55645071243885
 30
0.0
 11
123.27857683135269
 21
813.55645071243896
 31
0.0
  0
LINE
  5
3FE
  8
C4
 10
133.49356593568331
 20
738.01050916642077
 30
0.0
 11
86.117411596184752
 21
785.38666350591927
 31
0.0
  0
LINE
  5
3FF
  8
C4
 10
132.0793523733102
 20
736.59629560404755
 30
0.0
 11
84.703198033811645
 21
783.97244994354628
 31
0.0
  0
LINE
  5
400
  8
C4
 10
130.66513881093709
 20
735.18208204167456
 30
0.0
 11
83.288984471438539
 21
782.55823638117306
 31
0.0
  0
LINE
  5
401
  8
C4
 10
129.2509252485641
 20
733.76786847930146
 30
0.0
 11
81.874770909065433
 21
781.14402281880007
 31
0.0
  0
LINE
  5
402
  8
C4
 10
73.743042925420127
 20
772.30518805396832
 30
0.0
 11
82.228324299658652
 21
780.79046942820685
 31
0.0
  0
LINE
  5
403
  8
C4
 10
120.76564387432551
 20
725.28258710506293
 30
0.0
 11
73.389489534826907
 21
772.65874144456166
 31
0.0
  0
LINE
  5
404
  8
C4
 10
119.3514303119524
 20
723.86837354268982
 30
0.0
 11
71.975275972453801
 21
771.24452788218855
 31
0.0
  0
LINE
  5
405
  8
C4
 10
71.975275972453801
 20
771.24452788218855
 30
0.0
 11
73.389489534826907
 21
772.65874144456166
 31
0.0
  0
LINE
  5
406
  8
C4
 10
141.7466142628883
 20
746.97066427481207
 30
0.0
 11
133.14001254509009
 21
738.36406255701399
 31
0.0
  0
LINE
  5
407
  8
C4
 10
135.917717166176
 20
753.8969259452374
 30
0.0
 11
139.65361667395871
 21
744.87766668588245
 31
0.0
  0
LINE
  5
408
  8
C4
 10
128.8973718579708
 20
734.12142186989456
 30
0.0
 11
120.4120904837322
 21
725.63614049565615
 31
0.0
  0
LINE
  5
409
  8
C4
 10
120.76564387432551
 20
725.28258710506293
 30
0.0
 11
119.3514303119524
 21
723.86837354268982
 31
0.0
  0
LINE
  5
40A
  8
C4
 10
130.66513881093709
 20
735.18208204167456
 30
0.0
 11
129.25092524856399
 21
733.76786847930134
 31
0.0
  0
LINE
  5
40B
  8
C4
 10
131.72579898271701
 20
736.94984899464077
 30
0.0
 11
130.3115854203439
 21
735.53563543226778
 31
0.0
  0
LINE
  5
40C
  8
C4
 10
133.49356593568331
 20
738.01050916642077
 30
0.0
 11
132.0793523733102
 21
736.59629560404755
 31
0.0
  0
ARC
  5
40D
  8
C4
 10
139.15129552996569
 20
755.23631795851475
 30
0.0
 40
3.5
 50
112.5000000000027
 51
202.4999999999923
  0
ARC
  5
40E
  8
C4
 10
143.16082782526141
 20
745.55645071243907
 30
0.0
 40
2.0
 50
112.5000000000058
 51
135.0
  0
ARC
  5
40F
  8
C4
 10
139.15129552996569
 20
755.23631795851475
 30
0.0
 40
1.6000000000000001
 50
112.5000000000027
 51
292.49999999999409
  0
ARC
  5
410
  8
C4
 10
139.15129552996549
 20
755.23631795851463
 30
0.0
 40
1.6000000000000001
 50
292.50000000000267
 51
112.4999999999941
  0
ARC
  5
411
  8
C4
 10
143.16082782526101
 20
745.55645071243885
 30
0.0
 40
2.0
 50
90.0
 51
112.4999999999941
  0
ARC
  5
412
  8
C4
 10
139.15129552996549
 20
755.23631795851463
 30
0.0
 40
3.5
 50
22.500000000005841
 51
112.4999999999996
  0
LINE
  5
413
  8
C4
 10
86.470964986777972
 20
785.03311011532605
 30
0.0
 11
109.136441207622
 21
807.69858633617002
 31
0.0
  0
LINE
  5
414
  8
C4
 10
81.874770909065433
 20
781.14402281880007
 30
0.0
 11
83.288984471438539
 21
782.55823638117306
 31
0.0
  0
LINE
  5
415
  8
C4
 10
84.703198033811645
 20
783.97244994354628
 30
0.0
 11
86.117411596184752
 21
785.38666350591927
 31
0.0
  0
LINE
  5
416
  8
C4
 10
83.642537862031759
 20
782.20468299058007
 30
0.0
 11
85.056751424404865
 21
783.61889655295295
 31
0.0
  0
ARC
  5
417
  8
C4
 10
123.27857683135269
 20
793.55645071243896
 30
0.0
 40
20.0
 50
90.0
 51
112.4999999999996
  0
LINE
  5
418
  8
C4
 10
115.63549525082691
 20
802.86254116833425
 30
0.0
 11
112.50943791791011
 21
810.40951117821146
 31
0.0
  0
ARC
  5
419
  8
C4
 10
123.27857683135301
 20
793.55645071243896
 30
0.0
 40
20.0
 50
112.4999999999996
 51
135.0
  0
ARC
  5
41A
  8
C4
 10
118.869073614616
 20
804.20193318161284
 30
0.0
 40
3.5
 50
202.50000000001299
 51
292.50000000000267
  0
ARC
  5
41B
  8
C4
 10
118.869073614616
 20
804.20193318161284
 30
0.0
 40
1.6000000000000001
 50
112.4999999999996
 51
292.50000000000267
  0
ARC
  5
41C
  8
C4
 10
118.8690736146161
 20
804.20193318161284
 30
0.0
 40
1.6000000000000001
 50
292.4999999999996
 51
112.5000000000027
  0
ARC
  5
41D
  8
C4
 10
118.8690736146161
 20
804.20193318161284
 30
0.0
 40
3.5
 50
292.4999999999996
 51
22.499999999984031
  0
LINE
  5
41E
  8
C4
 10
122.102651978406
 20
805.54132519488985
 30
0.0
 11
118.97659464549361
 21
813.08829520476877
 31
0.0
  0
LINE
  5
41F
  8
C4
 10
161.3324007005148
 20
747.05645071243885
 30
0.0
 11
161.33240070051531
 21
814.05645071243885
 31
0.0
  0
LINE
  5
420
  8
C4
 10
159.332400700515
 20
747.05645071243896
 30
0.0
 11
159.33240070051531
 21
814.05645071243885
 31
0.0
  0
LINE
  5
421
  8
C4
 10
157.33240070051491
 20
747.05645071243885
 30
0.0
 11
157.33240070051531
 21
814.05645071243885
 31
0.0
  0
LINE
  5
422
  8
C4
 10
155.3324007005148
 20
747.05645071243896
 30
0.0
 11
155.33240070051531
 21
814.05645071243885
 31
0.0
  0
LINE
  5
423
  8
C4
 10
175.3324007005148
 20
747.05645071243885
 30
0.0
 11
175.33240070051519
 21
814.05645071243885
 31
0.0
  0
LINE
  5
424
  8
C4
 10
173.3324007005148
 20
747.05645071243885
 30
0.0
 11
173.33240070051519
 21
814.05645071243885
 31
0.0
  0
LINE
  5
425
  8
C4
 10
205.33240070051511
 20
788.55645071243885
 30
0.0
 11
205.33240070051511
 21
772.55645071243885
 31
0.0
  0
LINE
  5
426
  8
C4
 10
207.83240070051519
 20
788.64754841223214
 30
0.0
 11
207.832400700515
 21
772.55645071243885
 31
0.0
  0
LINE
  5
427
  8
C4
 10
161.3324007005148
 20
747.55645071243885
 30
0.0
 11
173.3324007005148
 21
747.55645071243885
 31
0.0
  0
LINE
  5
428
  8
C4
 10
157.3324007005148
 20
747.55645071243885
 30
0.0
 11
159.3324007005148
 21
747.55645071243885
 31
0.0
  0
LINE
  5
429
  8
C4
 10
159.332400700515
 20
747.05645071243896
 30
0.0
 11
161.33240070051491
 21
747.05645071243885
 31
0.0
  0
LINE
  5
42A
  8
C4
 10
155.3324007005148
 20
747.05645071243896
 30
0.0
 11
157.33240070051491
 21
747.05645071243885
 31
0.0
  0
LINE
  5
42B
  8
C4
 10
173.3324007005148
 20
747.05645071243885
 30
0.0
 11
175.33240070051491
 21
747.05645071243885
 31
0.0
  0
LINE
  5
42C
  8
C4
 10
173.33240070051519
 20
813.55645071243885
 30
0.0
 11
161.33240070051531
 21
813.55645071243885
 31
0.0
  0
LINE
  5
42D
  8
C4
 10
159.33240070051531
 20
813.55645071243885
 30
0.0
 11
157.33240070051531
 21
813.55645071243885
 31
0.0
  0
LINE
  5
42E
  8
C4
 10
161.33240070051531
 20
814.05645071243885
 30
0.0
 11
159.33240070051531
 21
814.05645071243885
 31
0.0
  0
LINE
  5
42F
  8
C4
 10
157.33240070051531
 20
814.05645071243885
 30
0.0
 11
155.33240070051531
 21
814.05645071243885
 31
0.0
  0
LINE
  5
430
  8
C4
 10
175.33240070051519
 20
814.05645071243885
 30
0.0
 11
173.33240070051519
 21
814.05645071243885
 31
0.0
  0
LINE
  5
431
  8
C4
 10
298.83240070051482
 20
813.55645071243885
 30
0.0
 11
310.83240070051471
 21
813.55645071243885
 31
0.0
  0
LINE
  5
432
  8
C4
 10
310.83240070051522
 20
747.55645071243885
 30
0.0
 11
298.83240070051522
 21
747.55645071243885
 31
0.0
  0
LINE
  5
433
  8
C4
 10
296.83240070051522
 20
747.05645071243885
 30
0.0
 11
296.83240070051482
 21
814.05645071243885
 31
0.0
  0
LINE
  5
434
  8
C4
 10
266.83240070051511
 20
769.55645071243885
 30
0.0
 11
266.83240070051511
 21
791.55645071243873
 31
0.0
  0
LINE
  5
435
  8
C4
 10
264.83240070051511
 20
769.55645071243885
 30
0.0
 11
264.83240070051511
 21
791.55645071243885
 31
0.0
  0
LINE
  5
436
  8
C4
 10
263.83240070051511
 20
763.47368818214125
 30
0.0
 11
263.83240070051511
 21
797.63921324273576
 31
0.0
  0
ARC
  5
437
  8
C4
 10
245.83240070051511
 20
769.55645071243885
 30
0.0
 40
19.0
 50
270.0
 51
0.0
  0
ARC
  5
438
  8
C4
 10
244.33240070051511
 20
769.55645071243885
 30
0.0
 40
22.5
 50
270.0
 51
0.0
  0
LINE
  5
439
  8
C4
 10
227.83240070051511
 20
750.55645071243885
 30
0.0
 11
245.83240070051511
 21
750.55645071243885
 31
0.0
  0
LINE
  5
43A
  8
C4
 10
230.832400700515
 20
747.05645071243885
 30
0.0
 11
244.33240070051511
 21
747.05645071243885
 31
0.0
  0
LINE
  5
43B
  8
C4
 10
232.832400700515
 20
749.05645071243885
 30
0.0
 11
232.832400700515
 21
747.05645071243885
 31
0.0
  0
LINE
  5
43C
  8
C4
 10
227.83240070051511
 20
750.55645071243885
 30
0.0
 11
227.83240070051519
 21
749.05645071243885
 31
0.0
  0
LINE
  5
43D
  8
C4
 10
227.83240070051511
 20
749.05645071243885
 30
0.0
 11
232.83240070051519
 21
749.05645071243885
 31
0.0
  0
LINE
  5
43E
  8
C4
 10
298.83240070051522
 20
747.05645071243885
 30
0.0
 11
298.83240070051511
 21
769.55645071243885
 31
0.0
  0
LINE
  5
43F
  8
C4
 10
298.83240070051522
 20
747.05645071243885
 30
0.0
 11
296.83240070051511
 21
747.05645071243885
 31
0.0
  0
ARC
  5
440
  8
C4
 10
245.83240070051511
 20
791.55645071243885
 30
0.0
 40
19.0
 50
0.0
 51
90.0
  0
ARC
  5
441
  8
C4
 10
244.33240070051511
 20
791.55645071243873
 30
0.0
 40
22.5
 50
0.0
 51
90.0
  0
LINE
  5
442
  8
C4
 10
232.832400700515
 20
812.05645071243885
 30
0.0
 11
232.832400700515
 21
814.05645071243885
 31
0.0
  0
LINE
  5
443
  8
C4
 10
245.83240070051511
 20
810.55645071243885
 30
0.0
 11
227.83240070051511
 21
810.55645071243885
 31
0.0
  0
LINE
  5
444
  8
C4
 10
227.83240070051511
 20
810.55645071243885
 30
0.0
 11
227.83240070051511
 21
812.05645071243885
 31
0.0
  0
LINE
  5
445
  8
C4
 10
227.83240070051511
 20
812.05645071243862
 30
0.0
 11
232.832400700515
 21
812.05645071243862
 31
0.0
  0
LINE
  5
446
  8
C4
 10
244.33240070051511
 20
814.05645071243885
 30
0.0
 11
230.832400700515
 21
814.05645071243885
 31
0.0
  0
LINE
  5
447
  8
C4
 10
298.832400700515
 20
791.55645071243873
 30
0.0
 11
298.83240070051482
 21
814.05645071243885
 31
0.0
  0
LINE
  5
448
  8
C4
 10
296.83240070051482
 20
814.05645071243885
 30
0.0
 11
298.83240070051482
 21
814.05645071243885
 31
0.0
  0
LINE
  5
449
  8
C4
 10
372.96591435289417
 20
766.64833380447567
 30
0.0
 11
388.87581692959151
 21
782.55823638117306
 31
0.0
  0
LINE
  5
44A
  8
C4
 10
371.55170079052112
 20
768.06254736684866
 30
0.0
 11
387.46160336721857
 21
783.97244994354617
 31
0.0
  0
LINE
  5
44B
  8
C4
 10
370.13748722814802
 20
769.47676092922188
 30
0.0
 11
386.0473898048453
 21
785.38666350591927
 31
0.0
  0
ARC
  5
44C
  8
1外形線
 10
343.50144825882751
 20
780.5564507124401
 30
0.0
 40
1.0
 50
67.500000000000355
 51
247.50000000000031
  0
ARC
  5
44D
  8
1外形線
 10
343.50144825882751
 20
780.5564507124401
 30
0.0
 40
1.0
 50
247.50000000000031
 51
67.500000000000355
  0
LINE
  5
44E
  8
C4
 10
342.913876152466
 20
733.76786847930146
 30
0.0
 11
358.82377872916328
 21
749.67777105599885
 31
0.0
  0
LINE
  5
44F
  8
C4
 10
341.49966259009301
 20
735.18208204167456
 30
0.0
 11
357.40956516679029
 21
751.09198461837184
 31
0.0
  0
LINE
  5
450
  8
C4
 10
340.0854490277199
 20
736.59629560404755
 30
0.0
 11
355.99535160441718
 21
752.50619818074495
 31
0.0
  0
LINE
  5
451
  8
C4
 10
338.6712354653468
 20
738.01050916642089
 30
0.0
 11
354.58113804204402
 21
753.92041174311805
 31
0.0
  0
LINE
  5
452
  8
C4
 10
343.26742954305922
 20
734.12142186989456
 30
0.0
 11
351.7527109172978
 21
725.63614049565615
 31
0.0
  0
LINE
  5
453
  8
C4
 10
330.41818713814172
 20
746.97066427481207
 30
0.0
 11
339.0247888559399
 21
738.36406255701399
 31
0.0
  0
LINE
  5
454
  8
C4
 10
340.43900241831301
 20
736.94984899464077
 30
0.0
 11
341.85321598068612
 21
735.53563543226778
 31
0.0
  0
LINE
  5
455
  8
C4
 10
341.4996625900929
 20
735.18208204167456
 30
0.0
 11
342.913876152466
 21
733.76786847930134
 31
0.0
  0
LINE
  5
456
  8
C4
 10
338.67123546534668
 20
738.01050916642077
 30
0.0
 11
340.08544902771979
 21
736.59629560404755
 31
0.0
  0
LINE
  5
457
  8
C4
 10
329.0039735757689
 20
747.55645071243885
 30
0.0
 11
316.83240070051522
 21
747.55645071243885
 31
0.0
  0
LINE
  5
458
  8
C4
 10
316.83240070051522
 20
747.05645071243896
 30
0.0
 11
316.83240070051511
 21
769.55645071243885
 31
0.0
  0
LINE
  5
459
  8
C4
 10
314.83240070051511
 20
747.05645071243885
 30
0.0
 11
314.83240070051488
 21
769.55645071243885
 31
0.0
  0
LINE
  5
45A
  8
C4
 10
312.83240070051511
 20
747.05645071243896
 30
0.0
 11
312.83240070051488
 21
769.55645071243885
 31
0.0
  0
LINE
  5
45B
  8
C4
 10
310.83240070051522
 20
747.05645071243885
 30
0.0
 11
310.83240070051511
 21
769.55645071243885
 31
0.0
  0
LINE
  5
45C
  8
C4
 10
316.83240070051522
 20
747.05645071243896
 30
0.0
 11
314.83240070051511
 21
747.05645071243885
 31
0.0
  0
LINE
  5
45D
  8
C4
 10
312.83240070051511
 20
747.05645071243896
 30
0.0
 11
310.83240070051511
 21
747.05645071243885
 31
0.0
  0
LINE
  5
45E
  8
C4
 10
314.83240070051522
 20
747.55645071243885
 30
0.0
 11
312.83240070051522
 21
747.55645071243885
 31
0.0
  0
ARC
  5
45F
  8
C4
 10
329.00397357576901
 20
745.55645071243885
 30
0.0
 40
2.0
 50
67.500000000005841
 51
90.0
  0
ARC
  5
460
  8
C4
 10
329.00397357576861
 20
745.55645071243907
 30
0.0
 40
2.0
 50
45.0
 51
67.499999999994159
  0
LINE
  5
461
  8
C4
 10
351.39915752670453
 20
725.28258710506293
 30
0.0
 11
367.30906010340192
 21
741.19248968176032
 31
0.0
  0
LINE
  5
462
  8
C4
 10
351.39915752670453
 20
725.28258710506293
 30
0.0
 11
352.81337108907758
 21
723.86837354268982
 31
0.0
  0
ARC
  5
463
  8
C4
 10
348.88622456967732
 20
793.55645071243896
 30
0.0
 40
20.0
 50
67.500000000000355
 51
90.0
  0
LINE
  5
464
  8
C4
 10
316.83240070051488
 20
791.55645071243873
 30
0.0
 11
316.83240070051471
 21
814.05645071243885
 31
0.0
  0
LINE
  5
465
  8
C4
 10
314.83240070051471
 20
791.55645071243873
 30
0.0
 11
314.8324007005146
 21
814.05645071243885
 31
0.0
  0
LINE
  5
466
  8
C4
 10
312.83240070051488
 20
791.55645071243873
 30
0.0
 11
312.83240070051471
 21
814.05645071243885
 31
0.0
  0
LINE
  5
467
  8
C4
 10
310.83240070051482
 20
791.55645071243873
 30
0.0
 11
310.83240070051471
 21
814.05645071243885
 31
0.0
  0
LINE
  5
468
  8
C4
 10
316.83240070051471
 20
813.55645071243885
 30
0.0
 11
348.88622456967732
 21
813.55645071243896
 31
0.0
  0
LINE
  5
469
  8
C4
 10
314.83240070051488
 20
814.05645071243885
 30
0.0
 11
316.83240070051471
 21
814.05645071243885
 31
0.0
  0
LINE
  5
46A
  8
C4
 10
310.83240070051471
 20
814.05645071243885
 30
0.0
 11
312.83240070051471
 21
814.05645071243885
 31
0.0
  0
LINE
  5
46B
  8
C4
 10
312.83240070051471
 20
813.55645071243885
 30
0.0
 11
314.83240070051471
 21
813.55645071243885
 31
0.0
  0
LINE
  5
46C
  8
C4
 10
385.69383641425208
 20
785.03311011532605
 30
0.0
 11
363.02836019340799
 21
807.69858633617002
 31
0.0
  0
ARC
  5
46D
  8
C4
 10
348.8862245696771
 20
793.55645071243896
 30
0.0
 40
20.0
 50
45.0
 51
67.500000000000355
  0
LINE
  5
46E
  8
C4
 10
388.52226353899829
 20
782.20468299058007
 30
0.0
 11
387.10804997662518
 21
783.61889655295295
 31
0.0
  0
LINE
  5
46F
  8
C4
 10
387.4616033672184
 20
783.97244994354628
 30
0.0
 11
386.0473898048453
 21
785.38666350591927
 31
0.0
  0
LINE
  5
470
  8
C4
 10
408.66439916272918
 20
570.75314985354044
 30
0.0
 11
425.98851530179968
 21
588.07726599261071
 31
0.0
  0
LINE
  5
471
  8
C4
 10
400.17911778849071
 20
579.23843122777885
 30
0.0
 11
417.50323392756121
 21
596.56254736684934
 31
0.0
  0
LINE
  5
472
  8
C4
 10
398.76490422611761
 20
580.65264479015195
 30
0.0
 11
416.08902036518811
 21
597.97676092922245
 31
0.0
  0
LINE
  5
473
  8
C4
 10
397.3506906637445
 20
582.06685835252495
 30
0.0
 11
414.674806802815
 21
599.39097449159544
 31
0.0
  0
LINE
  5
474
  8
C4
 10
395.93647710137139
 20
583.48107191489805
 30
0.0
 11
413.26059324044189
 21
600.80518805396855
 31
0.0
  0
LINE
  5
475
  8
C4
 10
425.63496191120629
 20
587.72371260201771
 30
0.0
 11
417.14968053696788
 21
596.20899397625624
 31
0.0
  0
LINE
  5
476
  8
C4
 10
427.40272886417267
 20
586.66305243023783
 30
0.0
 11
425.98851530179951
 21
588.07726599261093
 31
0.0
  0
LINE
  5
477
  8
C4
 10
417.50323392756098
 20
596.56254736684934
 30
0.0
 11
416.08902036518788
 21
597.97676092922245
 31
0.0
  0
LINE
  5
478
  8
C4
 10
414.67480680281483
 20
599.39097449159556
 30
0.0
 11
413.26059324044172
 21
600.80518805396855
 31
0.0
  0
LINE
  5
479
  8
C4
 10
415.73546697459477
 20
597.62320753862934
 30
0.0
 11
414.32125341222172
 21
599.03742110100234
 31
0.0
  0
LINE
  5
47A
  8
C4
 10
398.42175847560992
 20
772.30518805396832
 30
0.0
 11
389.93647710137139
 21
780.79046942820685
 31
0.0
  0
LINE
  5
47B
  8
C4
 10
400.1895254285763
 20
771.24452788218855
 30
0.0
 11
398.77531186620308
 21
772.65874144456166
 31
0.0
  0
ENDSEC
  0
EOF
