  0
SECTION
  2
HEADER
  9
$ACADVER
  1
AC1015
  9
$ACADMAINTVER
 70
    20
  9
$DWGCODEPAGE
  3
ANSI_932
  9
$INSBASE
 10
0.0
 20
0.0
 30
0.0
  9
$EXTMIN
 10
24.78811169540961
 20
19.85858078145224
 30
0.0
  9
$EXTMAX
 10
594.2881116954099
 20
842.8585807814663
 30
0.0
  9
$LIMMIN
 10
0.0
 20
0.0
  9
$LIMMAX
 10
420.0
 20
297.0
  9
$ORTHOMODE
 70
     0
  9
$REGENMODE
 70
     1
  9
$FILLMODE
 70
     1
  9
$QTEXTMODE
 70
     0
  9
$MIRRTEXT
 70
     1
  9
$LTSCALE
 40
1.0
  9
$ATTMODE
 70
     1
  9
$TEXTSIZE
 40
2.5
  9
$TRACEWID
 40
1.0
  9
$TEXTSTYLE
  7
STANDARD
  9
$CLAYER
  8
0
  9
$CELTYPE
  6
ByLayer
  9
$CECOLOR
 62
   256
  9
$CELTSCALE
 40
1.0
  9
$DISPSILH
 70
     0
  9
$DIMSCALE
 40
1.0
  9
$DIMASZ
 40
2.5
  9
$DIMEXO
 40
0.625
  9
$DIMDLI
 40
3.75
  9
$DIMRND
 40
0.0
  9
$DIMDLE
 40
0.0
  9
$DIMEXE
 40
1.25
  9
$DIMTP
 40
0.0
  9
$DIMTM
 40
0.0
  9
$DIMTXT
 40
2.5
  9
$DIMCEN
 40
2.5
  9
$DIMTSZ
 40
0.0
  9
$DIMTOL
 70
     0
  9
$DIMLIM
 70
     0
  9
$DIMTIH
 70
     0
  9
$DIMTOH
 70
     0
  9
$DIMSE1
 70
     0
  9
$DIMSE2
 70
     0
  9
$DIMTAD
 70
     1
  9
$DIMZIN
 70
     8
  9
$DIMBLK
  1

  9
$DIMASO
 70
     1
  9
$DIMSHO
 70
     1
  9
$DIMPOST
  1

  9
$DIMAPOST
  1

  9
$DIMALT
 70
     0
  9
$DIMALTD
 70
     3
  9
$DIMALTF
 40
0.03937007874016
  9
$DIMLFAC
 40
1.0
  9
$DIMTOFL
 70
     1
  9
$DIMTVP
 40
0.0
  9
$DIMTIX
 70
     0
  9
$DIMSOXD
 70
     0
  9
$DIMSAH
 70
     0
  9
$DIMBLK1
  1

  9
$DIMBLK2
  1

  9
$DIMSTYLE
  2
ISO-25
  9
$DIMCLRD
 70
     0
  9
$DIMCLRE
 70
     0
  9
$DIMCLRT
 70
     0
  9
$DIMTFAC
 40
1.0
  9
$DIMGAP
 40
0.625
  9
$DIMJUST
 70
     0
  9
$DIMSD1
 70
     0
  9
$DIMSD2
 70
     0
  9
$DIMTOLJ
 70
     1
  9
$DIMTZIN
 70
     0
  9
$DIMALTZ
 70
     0
  9
$DIMALTTZ
 70
     0
  9
$DIMUPT
 70
     0
  9
$DIMDEC
 70
     4
  9
$DIMTDEC
 70
     4
  9
$DIMALTU
 70
     2
  9
$DIMALTTD
 70
     2
  9
$DIMTXSTY
  7
STANDARD
  9
$DIMAUNIT
 70
     0
  9
$DIMADEC
 70
     0
  9
$DIMALTRND
 40
0.0
  9
$DIMAZIN
 70
     0
  9
$DIMDSEP
 70
    46
  9
$DIMATFIT
 70
     3
  9
$DIMFRAC
 70
     0
  9
$DIMLDRBLK
  1

  9
$DIMLUNIT
 70
     2
  9
$DIMLWD
 70
    -2
  9
$DIMLWE
 70
    -2
  9
$DIMTMOVE
 70
     0
  9
$LUNITS
 70
     2
  9
$LUPREC
 70
     4
  9
$SKETCHINC
 40
1.0
  9
$FILLETRAD
 40
10.0
  9
$AUNITS
 70
     0
  9
$AUPREC
 70
     0
  9
$MENU
  1
.
  9
$ELEVATION
 40
0.0
  9
$PELEVATION
 40
0.0
  9
$THICKNESS
 40
0.0
  9
$LIMCHECK
 70
     0
  9
$CHAMFERA
 40
10.0
  9
$CHAMFERB
 40
10.0
  9
$CHAMFERC
 40
0.0
  9
$CHAMFERD
 40
0.0
  9
$SKPOLY
 70
     0
  9
$TDCREATE
 40
2452216.487680151
  9
$TDUCREATE
 40
2452216.112680151
  9
$TDUPDATE
 40
2457282.605983206
  9
$TDUUPDATE
 40
2457282.230983206
  9
$TDINDWG
 40
0.0012721875
  9
$TDUSRTIMER
 40
0.0012720139
  9
$USRTIMER
 70
     1
  9
$ANGBASE
 50
0.0
  9
$ANGDIR
 70
     0
  9
$PDMODE
 70
     0
  9
$PDSIZE
 40
0.0
  9
$PLINEWID
 40
0.0
  9
$SPLFRAME
 70
     0
  9
$SPLINETYPE
 70
     6
  9
$SPLINESEGS
 70
     8
  9
$HANDSEED
  5
5BE
  9
$SURFTAB1
 70
     6
  9
$SURFTAB2
 70
     6
  9
$SURFTYPE
 70
     6
  9
$SURFU
 70
     6
  9
$SURFV
 70
     6
  9
$UCSBASE
  2

  9
$UCSNAME
  2

  9
$UCSORG
 10
0.0
 20
0.0
 30
0.0
  9
$UCSXDIR
 10
1.0
 20
0.0
 30
0.0
  9
$UCSYDIR
 10
0.0
 20
1.0
 30
0.0
  9
$UCSORTHOREF
  2

  9
$UCSORTHOVIEW
 70
     0
  9
$UCSORGTOP
 10
0.0
 20
0.0
 30
0.0
  9
$UCSORGBOTTOM
 10
0.0
 20
0.0
 30
0.0
  9
$UCSORGLEFT
 10
0.0
 20
0.0
 30
0.0
  9
$UCSORGRIGHT
 10
0.0
 20
0.0
 30
0.0
  9
$UCSORGFRONT
 10
0.0
 20
0.0
 30
0.0
  9
$UCSORGBACK
 10
0.0
 20
0.0
 30
0.0
  9
$PUCSBASE
  2

  9
$PUCSNAME
  2

  9
$PUCSORG
 10
0.0
 20
0.0
 30
0.0
  9
$PUCSXDIR
 10
1.0
 20
0.0
 30
0.0
  9
$PUCSYDIR
 10
0.0
 20
1.0
 30
0.0
  9
$PUCSORTHOREF
  2

  9
$PUCSORTHOVIEW
 70
     0
  9
$PUCSORGTOP
 10
0.0
 20
0.0
 30
0.0
  9
$PUCSORGBOTTOM
 10
0.0
 20
0.0
 30
0.0
  9
$PUCSORGLEFT
 10
0.0
 20
0.0
 30
0.0
  9
$PUCSORGRIGHT
 10
0.0
 20
0.0
 30
0.0
  9
$PUCSORGFRONT
 10
0.0
 20
0.0
 30
0.0
  9
$PUCSORGBACK
 10
0.0
 20
0.0
 30
0.0
  9
$USERI1
 70
     0
  9
$USERI2
 70
     0
  9
$USERI3
 70
     0
  9
$USERI4
 70
     0
  9
$USERI5
 70
     0
  9
$USERR1
 40
0.0
  9
$USERR2
 40
0.0
  9
$USERR3
 40
0.0
  9
$USERR4
 40
0.0
  9
$USERR5
 40
0.0
  9
$WORLDVIEW
 70
     1
  9
$SHADEDGE
 70
     3
  9
$SHADEDIF
 70
    70
  9
$TILEMODE
 70
     1
  9
$MAXACTVP
 70
    64
  9
$PINSBASE
 10
0.0
 20
0.0
 30
0.0
  9
$PLIMCHECK
 70
     0
  9
$PEXTMIN
 10
1.000000000000000E+20
 20
1.000000000000000E+20
 30
1.000000000000000E+20
  9
$PEXTMAX
 10
-1.000000000000000E+20
 20
-1.000000000000000E+20
 30
-1.000000000000000E+20
  9
$PLIMMIN
 10
0.0
 20
0.0
  9
$PLIMMAX
 10
420.0
 20
297.0
  9
$UNITMODE
 70
     0
  9
$VISRETAIN
 70
     1
  9
$PLINEGEN
 70
     0
  9
$PSLTSCALE
 70
     1
  9
$TREEDEPTH
 70
  3020
  9
$CMLSTYLE
  2
Standard
  9
$CMLJUST
 70
     0
  9
$CMLSCALE
 40
1.0
  9
$PROXYGRAPHICS
 70
     1
  9
$MEASUREMENT
 70
     0
  9
$CELWEIGHT
370
    -1
  9
$ENDCAPS
280
     0
  9
$JOINSTYLE
280
     0
  9
$LWDISPLAY
290
     0
  9
$INSUNITS
 70
     0
  9
$HYPERLINKBASE
  1

  9
$STYLESHEET
  1

  9
$XEDIT
290
     1
  9
$CEPSNTYPE
380
     0
  9
$PSTYLEMODE
290
     1
  9
$FINGERPRINTGUID
  2
{65586DD3-395A-4A75-BAA3-C5E8BCFEEE09}
  9
$VERSIONGUID
  2
{AAFE2B34-751B-4C72-AFAF-BFDE41E95193}
  9
$EXTNAMES
290
     1
  9
$PSVPSCALE
 40
0.0
  9
$OLESTARTUP
290
     0
  0
ENDSEC
  0
SECTION
  2
CLASSES
  0
CLASS
  1
ACDBDICTIONARYWDFLT
  2
AcDbDictionaryWithDefault
  3
ObjectDBX Classes
 90
        0
280
     0
281
     0
  0
CLASS
  1
MATERIAL
  2
AcDbMaterial
  3
ObjectDBX Classes
 90
     1153
280
     0
281
     0
  0
CLASS
  1
VISUALSTYLE
  2
AcDbVisualStyle
  3
ObjectDBX Classes
 90
     4095
280
     0
281
     0
  0
CLASS
  1
SCALE
  2
AcDbScale
  3
ObjectDBX Classes
 90
     1153
280
     0
281
     0
  0
CLASS
  1
TABLESTYLE
  2
AcDbTableStyle
  3
ObjectDBX Classes
 90
     4095
280
     0
281
     0
  0
CLASS
  1
MLEADERSTYLE
  2
AcDbMLeaderStyle
  3
ACDB_MLEADERSTYLE_CLASS
 90
     4095
280
     0
281
     0
  0
CLASS
  1
DICTIONARYVAR
  2
AcDbDictionaryVar
  3
ObjectDBX Classes
 90
        0
280
     0
281
     0
  0
CLASS
  1
CELLSTYLEMAP
  2
AcDbCellStyleMap
  3
ObjectDBX Classes
 90
     1152
280
     0
281
     0
  0
CLASS
  1
ACDBPLACEHOLDER
  2
AcDbPlaceHolder
  3
ObjectDBX Classes
 90
        0
280
     0
281
     0
  0
CLASS
  1
LAYOUT
  2
AcDbLayout
  3
ObjectDBX Classes
 90
        0
280
     0
281
     0
  0
ENDSEC
  0
SECTION
  2
TABLES
  0
TABLE
  2
VPORT
  5
4FA
330
0
100
AcDbSymbolTable
 70
     1
  0
VPORT
  5
561
330
4FA
100
AcDbSymbolTableRecord
100
AcDbViewportTableRecord
  2
*ACTIVE
 70
     0
 10
0.0
 20
0.0
 11
1.0
 21
1.0
 12
491.5073749240173
 22
678.420711695098
 13
0.0
 23
0.0
 14
10.0
 24
10.0
 15
10.0
 25
10.0
 16
0.0
 26
0.0
 36
1.0
 17
0.0
 27
0.0
 37
0.0
 40
913.4685526895516
 41
2.435732647814909
 42
50.0
 43
0.0
 44
0.0
 50
0.0
 51
0.0
 71
     0
 72
   100
 73
     1
 74
     3
 75
     0
 76
     0
 77
     0
 78
     0
281
     0
 65
     1
110
0.0
120
0.0
130
0.0
111
1.0
121
0.0
131
0.0
112
0.0
122
1.0
132
0.0
 79
     0
146
0.0
1001
ACAD_NAV_VCDISPLAY
1070
     3
  0
ENDTAB
  0
TABLE
  2
LTYPE
  5
4F7
330
0
100
AcDbSymbolTable
 70
     1
  0
LTYPE
  5
54C
330
4F7
100
AcDbSymbolTableRecord
100
AcDbLinetypeTableRecord
  2
ByBlock
 70
     0
  3

 72
    65
 73
     0
 40
0.0
  0
LTYPE
  5
54D
330
4F7
100
AcDbSymbolTableRecord
100
AcDbLinetypeTableRecord
  2
ByLayer
 70
     0
  3

 72
    65
 73
     0
 40
0.0
  0
LTYPE
  5
54E
330
4F7
100
AcDbSymbolTableRecord
100
AcDbLinetypeTableRecord
  2
CONTINUOUS
 70
     0
  3
Solid line
 72
    65
 73
     0
 40
0.0
  0
ENDTAB
  0
TABLE
  2
LAYER
  5
4F4
330
0
100
AcDbSymbolTable
 70
     3
  0
LAYER
  5
546
102
{ACAD_XDICTIONARY
360
572
102
}
330
4F4
100
AcDbSymbolTableRecord
100
AcDbLayerTableRecord
  2
0
 70
     0
 62
     7
  6
CONTINUOUS
370
    -3
390
501
  0
LAYER
  5
562
102
{ACAD_XDICTIONARY
360
574
102
}
330
4F4
100
AcDbSymbolTableRecord
100
AcDbLayerTableRecord
  2
1外形線
 70
     0
 62
     3
  6
CONTINUOUS
370
    -3
390
501
  0
LAYER
  5
563
102
{ACAD_XDICTIONARY
360
576
102
}
330
4F4
100
AcDbSymbolTableRecord
100
AcDbLayerTableRecord
  2
C4
 70
     0
 62
     3
  6
CONTINUOUS
370
    -3
390
501
  0
ENDTAB
  0
TABLE
  2
STYLE
  5
4F5
330
0
100
AcDbSymbolTable
 70
     3
  0
STYLE
  5
547
330
4F5
100
AcDbSymbolTableRecord
100
AcDbTextStyleTableRecord
  2
STANDARD
 70
     0
 40
0.0
 41
1.0
 50
0.0
 71
     0
 42
2.5
  3
txt
  4

  0
STYLE
  5
54B
330
4F5
100
AcDbSymbolTableRecord
100
AcDbTextStyleTableRecord
  2
Annotative
 70
     0
 40
0.0
 41
1.0
 50
0.0
 71
     0
 42
0.2
  3
txt
  4

1001
AcadAnnotative
1000
AnnotativeData
1002
{
1070
     1
1070
     1
1002
}
  0
STYLE
  5
564
330
4F5
100
AcDbSymbolTableRecord
100
AcDbTextStyleTableRecord
  2
KANJI
 70
     0
 40
0.0
 41
1.0
 50
0.0
 71
     0
 42
2.5
  3
simplex.shx
  4
extfont.shx
  0
ENDTAB
  0
TABLE
  2
VIEW
  5
4F8
330
0
100
AcDbSymbolTable
 70
     0
  0
ENDTAB
  0
TABLE
  2
UCS
  5
4F9
330
0
100
AcDbSymbolTable
 70
     0
  0
ENDTAB
  0
TABLE
  2
APPID
  5
4FB
330
0
100
AcDbSymbolTable
 70
     4
  0
APPID
  5
548
330
4FB
100
AcDbSymbolTableRecord
100
AcDbRegAppTableRecord
  2
ACAD
 70
     0
  0
APPID
  5
54F
330
4FB
100
AcDbSymbolTableRecord
100
AcDbRegAppTableRecord
  2
AcadAnnotative
 70
     0
  0
APPID
  5
580
330
4FB
100
AcDbSymbolTableRecord
100
AcDbRegAppTableRecord
  2
ACAD_NAV_VCDISPLAY
 70
     0
  0
APPID
  5
5B9
330
4FB
100
AcDbSymbolTableRecord
100
AcDbRegAppTableRecord
  2
ACAD_MLEADERVER
 70
     0
  0
ENDTAB
  0
TABLE
  2
DIMSTYLE
  5
4FC
330
0
100
AcDbSymbolTable
 70
     3
100
AcDbDimStyleTable
 71
     0
  0
DIMSTYLE
105
549
330
4FC
100
AcDbSymbolTableRecord
100
AcDbDimStyleTableRecord
  2
STANDARD
 70
     0
274
     3
279
     2
284
     8
285
     8
286
     8
340
547
  0
DIMSTYLE
105
54A
330
4FC
100
AcDbSymbolTableRecord
100
AcDbDimStyleTableRecord
  2
Annotative
 70
     0
340
547
1001
AcadAnnotative
1000
AnnotativeData
1002
{
1070
     1
1070
     1
1002
}
  0
DIMSTYLE
105
565
330
4FC
100
AcDbSymbolTableRecord
100
AcDbDimStyleTableRecord
  2
ISO-25
 70
     0
 41
2.5
 42
0.625
 43
3.75
 44
1.25
 73
     0
 74
     0
 77
     1
 78
     8
140
2.5
141
2.5
143
0.03937007874016
147
0.625
171
     3
172
     1
274
     3
279
     2
284
     8
285
     8
286
     8
340
547
  0
ENDTAB
  0
TABLE
  2
BLOCK_RECORD
  5
4F3
330
0
100
AcDbSymbolTable
 70
     4
  0
BLOCK_RECORD
  5
55D
330
4F3
100
AcDbSymbolTableRecord
100
AcDbBlockTableRecord
  2
*Model_Space
340
560
  0
BLOCK_RECORD
  5
559
330
4F3
100
AcDbSymbolTableRecord
100
AcDbBlockTableRecord
  2
*Paper_Space
340
55C
  0
BLOCK_RECORD
  5
569
330
4F3
100
AcDbSymbolTableRecord
100
AcDbBlockTableRecord
  2
$MODEL_SPACE
340
0
  0
BLOCK_RECORD
  5
56B
330
4F3
100
AcDbSymbolTableRecord
100
AcDbBlockTableRecord
  2
$PAPER_SPACE
340
0
  0
BLOCK_RECORD
  5
56D
330
4F3
100
AcDbSymbolTableRecord
100
AcDbBlockTableRecord
  2
2
340
0
  0
BLOCK_RECORD
  5
56F
330
4F3
100
AcDbSymbolTableRecord
100
AcDbBlockTableRecord
  2
*U3
340
0
102
{BLKREFS
331
2C
102
}
  0
ENDTAB
  0
ENDSEC
  0
SECTION
  2
BLOCKS
  0
BLOCK
  5
55E
330
55D
100
AcDbEntity
  8
0
100
AcDbBlockBegin
  2
*Model_Space
 70
     0
 10
0.0
 20
0.0
 30
0.0
  3
*Model_Space
  1

  0
ENDBLK
  5
55F
330
55D
100
AcDbEntity
  8
0
100
AcDbBlockEnd
  0
BLOCK
  5
55A
330
559
100
AcDbEntity
 67
     1
  8
0
100
AcDbBlockBegin
  2
*Paper_Space
 70
     0
 10
0.0
 20
0.0
 30
0.0
  3
*Paper_Space
  1

  0
ENDBLK
  5
55B
330
559
100
AcDbEntity
 67
     1
  8
0
100
AcDbBlockEnd
  0
BLOCK
  5
56A
330
569
100
AcDbEntity
  8
0
100
AcDbBlockBegin
  2
$MODEL_SPACE
 70
     0
 10
0.0
 20
0.0
 30
0.0
  3
$MODEL_SPACE
  1

  0
ENDBLK
  5
21
330
569
100
AcDbEntity
  8
0
100
AcDbBlockEnd
  0
BLOCK
  5
56C
330
56B
100
AcDbEntity
  8
0
100
AcDbBlockBegin
  2
$PAPER_SPACE
 70
     0
 10
0.0
 20
0.0
 30
0.0
  3
$PAPER_SPACE
  1

  0
ENDBLK
  5
1D
330
56B
100
AcDbEntity
  8
0
100
AcDbBlockEnd
  0
BLOCK
  5
56E
330
56D
100
AcDbEntity
  8
0
100
AcDbBlockBegin
  2
2
 70
     0
 10
0.0
 20
0.0
 30
0.0
  3
2
  1

  0
INSERT
  5
2C
330
56D
100
AcDbEntity
  8
0
  6
Continuous
100
AcDbBlockReference
  2
*U3
 10
0.0
 20
0.0
 30
0.0
1001
ACAD
1002
{
1000
R14_HATCH_DATA
1000
2C
1011
1.0
1021
0.0
1031
0.0
1011
0.0
1021
1.0
1031
0.0
1011
0.0
1021
0.0
1031
1.0
1040
0.0
1010
0.0
1020
0.0
1030
1.0
1000
SOLID
1070
     1
1070
     1
1071
        1
1071
        7
1070
     0
1070
     1
1071
        3
1040
0.0000000000000284
1040
0.0
1040
-0.899999999998343
1040
0.2411542731875897
1040
-0.8999999999983572
1040
-0.2411542731875613
1071
        3
1005
2F
1005
2D
1005
30
1070
     0
1070
     1
1040
0.0028941747346077
1071
        1
1040
-0.5303136156475148
1040
-0.0796654556697263
1040
0.0
1002
}
  0
LINE
  5
2D
330
56D
100
AcDbEntity
  8
0
100
AcDbLine
 10
-0.8999999999983572
 20
0.2411542731879876
 30
0.0
 11
-0.8999999999983572
 21
-0.2411542731880445
 31
0.0
  0
LINE
  5
2E
330
56D
100
AcDbEntity
  8
0
100
AcDbLine
 10
-0.9999999999983517
 20
0.0
 30
0.0
 11
0.0
 21
0.0
 31
0.0
  0
LINE
  5
2F
330
56D
100
AcDbEntity
  8
0
100
AcDbLine
 10
-0.8999999999984423
 20
0.2411542731875897
 30
0.0
 11
0.0
 21
0.0
 31
0.0
  0
LINE
  5
30
330
56D
100
AcDbEntity
  8
0
100
AcDbLine
 10
-0.8999999999984423
 20
-0.2411542731875897
 30
0.0
 11
0.0
 21
0.0
 31
0.0
  0
ENDBLK
  5
32
330
56D
100
AcDbEntity
  8
0
100
AcDbBlockEnd
  0
BLOCK
  5
570
330
56F
100
AcDbEntity
  8
0
100
AcDbBlockBegin
  2
*U3
 70
     1
 10
0.0
 20
0.0
 30
0.0
  3
*U3
  1

  0
SOLID
  5
4EE
330
56F
100
AcDbEntity
  8
0
  6
Continuous
100
AcDbTrace
 10
-0.5999999999988905
 20
0.0000000000000095
 30
0.0
 11
0.0000000000000284
 21
0.0
 31
0.0
 12
-0.899999999998343
 22
0.2411542731875897
 32
0.0
 13
-0.899999999998343
 23
0.2411542731875897
 33
0.0
  0
SOLID
  5
4EF
330
56F
100
AcDbEntity
  8
0
  6
Continuous
100
AcDbTrace
 10
-0.5999999999988905
 20
0.0000000000000095
 30
0.0
 11
-0.899999999998343
 21
0.2411542731875897
 31
0.0
 12
-0.8999999999983572
 22
-0.2411542731875613
 32
0.0
 13
-0.8999999999983572
 23
-0.2411542731875613
 33
0.0
  0
SOLID
  5
4F0
330
56F
100
AcDbEntity
  8
0
  6
Continuous
100
AcDbTrace
 10
-0.5999999999988905
 20
0.0000000000000095
 30
0.0
 11
-0.8999999999983572
 21
-0.2411542731875613
 31
0.0
 12
0.0000000000000284
 22
0.0
 32
0.0
 13
0.0000000000000284
 23
0.0
 33
0.0
  0
ENDBLK
  5
4F2
330
56F
100
AcDbEntity
  8
0
100
AcDbBlockEnd
  0
ENDSEC
  0
SECTION
  2
ENTITIES
  0
LINE
  5
292
330
55D
100
AcDbEntity
  8
1外形線
100
AcDbLine
 10
24.78811169540961
 20
483.858580781451
 30
0.0
 11
447.0560735676971
 21
483.858580781451
 31
0.0
  0
LINE
  5
293
330
55D
100
AcDbEntity
  8
1外形線
100
AcDbLine
 10
24.78811169540961
 20
670.8585807814658
 30
0.0
 11
447.0560735676971
 21
670.8585807814658
 31
0.0
  0
LINE
  5
294
330
55D
100
AcDbEntity
  8
1外形線
100
AcDbLine
 10
24.78811169540961
 20
842.8585807814663
 30
0.0
 11
447.0560735676971
 21
842.8585807814663
 31
0.0
  0
LINE
  5
298
330
55D
100
AcDbEntity
  8
1外形線
100
AcDbLine
 10
301.7881116954135
 20
610.0749279999132
 30
0.0
 11
392.0044589138815
 21
610.0749279999132
 31
0.0
  0
LINE
  5
299
330
55D
100
AcDbEntity
  8
1外形線
100
AcDbLine
 10
301.7881116954134
 20
603.4308929827858
 30
0.0
 11
386.3604238967451
 21
603.4308929827858
 31
0.0
  0
LINE
  5
29A
330
55D
100
AcDbEntity
  8
1外形線
100
AcDbLine
 10
301.7881116954134
 20
595.8074991207887
 30
0.0
 11
379.7370300347375
 21
595.8074991207887
 31
0.0
  0
LINE
  5
29B
330
55D
100
AcDbEntity
  8
1外形線
100
AcDbLine
 10
301.7881116954134
 20
544.9096624421429
 30
0.0
 11
313.7881116954169
 21
544.9096624421429
 31
0.0
  0
LINE
  5
29C
330
55D
100
AcDbEntity
  8
1外形線
100
AcDbLine
 10
301.7881116954134
 20
537.2862685801459
 30
0.0
 11
313.7881116954169
 21
537.2862685801459
 31
0.0
  0
LINE
  5
29D
330
55D
100
AcDbEntity
  8
1外形線
100
AcDbLine
 10
301.7881116954135
 20
530.6422335630182
 30
0.0
 11
313.7881116954169
 21
530.6422335630182
 31
0.0
  0
LINE
  5
29E
330
55D
100
AcDbEntity
  8
1外形線
100
AcDbLine
 10
391.7881116954172
 20
610.8585807814661
 30
0.0
 11
301.7881116954133
 21
610.8585807814659
 31
0.0
  0
LINE
  5
29F
330
55D
100
AcDbEntity
  8
1外形線
100
AcDbLine
 10
313.7881116954169
 20
529.8585807814657
 30
0.0
 11
301.7881116954135
 21
529.8585807814657
 31
0.0
  0
LINE
  5
2A0
330
55D
100
AcDbEntity
  8
C4
100
AcDbLine
 10
315.7881116954115
 20
702.8585807814692
 30
0.0
 11
293.7881116954115
 21
702.8585807814662
 31
0.0
  0
LINE
  5
2A1
330
55D
100
AcDbEntity
  8
C4
100
AcDbLine
 10
359.2881116954117
 20
700.8585807814751
 30
0.0
 11
294.2881116954117
 21
700.8585807814662
 31
0.0
  0
LINE
  5
2A2
330
55D
100
AcDbEntity
  8
1外形線
100
AcDbLine
 10
279.7881116954097
 20
781.1594501516761
 30
0.0
 11
354.08898106562
 21
781.1594501516761
 31
0.0
  0
LINE
  5
2A3
330
55D
100
AcDbEntity
  8
1外形線
100
AcDbLine
 10
279.7881116954097
 20
776.2606246752555
 30
0.0
 11
350.1901555891992
 21
776.2606246752555
 31
0.0
  0
LINE
  5
2A4
330
55D
100
AcDbEntity
  8
1外形線
100
AcDbLine
 10
279.7881116954097
 20
769.3652977805835
 30
0.0
 11
344.2948286945274
 21
769.3652977805835
 31
0.0
  0
LINE
  5
2A5
330
55D
100
AcDbEntity
  8
C4
100
AcDbLine
 10
279.7881116954097
 20
782.8585807814659
 30
0.0
 11
354.7881116954098
 21
782.8585807814659
 31
0.0
  0
TEXT
  5
33F
330
55D
100
AcDbEntity
  8
1外形線
100
AcDbText
 10
74.84413108478725
 20
640.8632095081904
 30
0.0
 40
10.0
  1
SKM-77
  7
KANJI
100
AcDbText
  0
TEXT
  5
340
330
55D
100
AcDbEntity
  8
1外形線
100
AcDbText
 10
74.84413108478725
 20
812.8632095081908
 30
0.0
 40
10.0
  1
SKM-66
  7
KANJI
100
AcDbText
  0
LINE
  5
341
330
55D
100
AcDbEntity
  8
1外形線
100
AcDbLine
 10
155.2881116954119
 20
513.8585807814621
 30
0.0
 11
115.2881116954119
 21
513.8585807814565
 31
0.0
  0
LINE
  5
342
330
55D
100
AcDbEntity
  8
1外形線
100
AcDbLine
 10
169.7881116954135
 20
594.6889276483345
 30
0.0
 11
92.95776482854092
 21
594.6889276483345
 31
0.0
  0
LINE
  5
343
330
55D
100
AcDbEntity
  8
1外形線
100
AcDbLine
 10
169.7881116954135
 20
602.9141645667555
 30
0.0
 11
87.24933961835523
 21
602.9141645667556
 31
0.0
  0
LINE
  5
344
330
55D
100
AcDbEntity
  8
1外形線
100
AcDbLine
 10
169.7881116954136
 20
610.0359657568215
 30
0.0
 11
81.26758096954619
 21
610.0359657568219
 31
0.0
  0
LINE
  5
345
330
55D
100
AcDbEntity
  8
1外形線
100
AcDbLine
 10
79.78811169540974
 20
610.8585807814661
 30
0.0
 11
169.7881116954136
 21
610.8585807814659
 31
0.0
  0
ARC
  5
346
330
55D
100
AcDbEntity
  8
1外形線
100
AcDbCircle
 10
142.7881116954096
 20
714.8585807814661
 30
0.0
 40
17.7674563501489
100
AcDbArc
 50
90.0
 51
134.9999999999997
  0
LINE
  5
347
330
55D
100
AcDbEntity
  8
1外形線
100
AcDbLine
 10
154.7881116954096
 20
767.091124431317
 30
0.0
 11
92.55556804555858
 21
767.0911244313173
 31
0.0
  0
LINE
  5
348
330
55D
100
AcDbEntity
  8
1外形線
100
AcDbLine
 10
154.7881116954098
 20
774.9295192783859
 30
0.0
 11
87.24715567505105
 21
774.9295192783862
 31
0.0
  0
LINE
  5
349
330
55D
100
AcDbEntity
  8
1外形線
100
AcDbLine
 10
154.7881116954098
 20
780.4492938477872
 30
0.0
 11
82.85425287858082
 21
780.4492938477874
 31
0.0
  0
LINE
  5
34A
330
55D
100
AcDbEntity
  8
1外形線
100
AcDbLine
 10
79.78811169540974
 20
782.8585807814662
 30
0.0
 11
154.7881116954098
 21
782.8585807814659
 31
0.0
  0
ARC
  5
34B
330
55D
100
AcDbEntity
  8
1外形線
100
AcDbCircle
 10
135.2881116954096
 20
722.3585807814661
 30
0.0
 40
4.0
100
AcDbArc
 50
134.9999999999997
 51
225.0000000000003
  0
LINE
  5
34C
330
55D
100
AcDbEntity
  8
1外形線
100
AcDbLine
 10
141.2881116954096
 20
702.8585807814661
 30
0.0
 11
118.7881116954096
 21
702.8585807814661
 31
0.0
  0
LINE
  5
34D
330
55D
100
AcDbEntity
  8
1外形線
100
AcDbLine
 10
75.28811169540962
 20
700.8585807814661
 30
0.0
 11
140.2881116954096
 21
700.8585807814661
 31
0.0
  0
LINE
  5
34E
330
55D
100
AcDbEntity
  8
1外形線
100
AcDbLine
 10
74.78811169540962
 20
777.8585807814661
 30
0.0
 11
74.78811169540962
 21
702.8585807814661
 31
0.0
  0
LINE
  5
34F
330
55D
100
AcDbEntity
  8
1外形線
100
AcDbLine
 10
77.1973986290883
 20
702.8585807814661
 30
0.0
 11
77.1973986290883
 21
774.7924395982948
 31
0.0
  0
LINE
  5
350
330
55D
100
AcDbEntity
  8
1外形線
100
AcDbLine
 10
82.71717319848979
 20
702.8585807814661
 30
0.0
 11
82.71717319848958
 21
770.3995368018246
 31
0.0
  0
LINE
  5
351
330
55D
100
AcDbEntity
  8
1外形線
100
AcDbLine
 10
90.55556804555852
 20
702.8585807814661
 30
0.0
 11
90.55556804555852
 21
765.0911244313171
 31
0.0
  0
ARC
  5
352
330
55D
100
AcDbEntity
  8
1外形線
100
AcDbCircle
 10
83.28811169539966
 20
602.3585807814558
 30
0.0
 40
4.0
100
AcDbArc
 50
225.0000000000089
 51
315.0000000000083
  0
LINE
  5
353
330
55D
100
AcDbEntity
  8
1外形線
100
AcDbLine
 10
74.78811169539922
 20
605.8585807814547
 30
0.0
 11
74.78811169541166
 21
515.8585807814509
 31
0.0
  0
LINE
  5
354
330
55D
100
AcDbEntity
  8
1外形線
100
AcDbLine
 10
75.61072672005585
 20
515.8585807814509
 30
0.0
 11
75.61072672004344
 21
604.3791115073185
 31
0.0
  0
LINE
  5
355
330
55D
100
AcDbEntity
  8
1外形線
100
AcDbLine
 10
96.78811169541159
 20
515.8585807814541
 30
0.0
 11
74.28811169541162
 21
515.8585807814509
 31
0.0
  0
LINE
  5
356
330
55D
100
AcDbEntity
  8
1外形線
100
AcDbLine
 10
75.28811169541191
 20
513.8585807814511
 30
0.0
 11
115.2881116954119
 21
513.8585807814565
 31
0.0
  0
LINE
  5
357
330
55D
100
AcDbEntity
  8
1外形線
100
AcDbLine
 10
82.73252791012206
 20
515.858580781452
 30
0.0
 11
82.73252791011051
 21
598.3973528585103
 31
0.0
  0
LINE
  5
358
330
55D
100
AcDbEntity
  8
1外形線
100
AcDbLine
 10
74.28811169541162
 20
515.8585807814509
 30
0.0
 11
74.28811169541177
 21
514.8585807814509
 31
0.0
  0
ARC
  5
359
330
55D
100
AcDbEntity
  8
1外形線
100
AcDbCircle
 10
75.28811169541177
 20
514.8585807814511
 30
0.0
 40
1.0
100
AcDbArc
 50
180.0000000000066
 51
270.0000000000077
  0
LINE
  5
35A
330
55D
100
AcDbEntity
  8
1外形線
100
AcDbLine
 10
90.95776482854313
 20
515.8585807814533
 30
0.0
 11
90.95776482853235
 21
592.6889276483257
 31
0.0
  0
ARC
  5
35B
330
55D
100
AcDbEntity
  8
1外形線
100
AcDbCircle
 10
92.95776482854092
 20
592.6889276483347
 30
0.0
 40
2.0
100
AcDbArc
 50
89.99999999999957
 51
135.0000000000072
  0
ARC
  5
35C
330
55D
100
AcDbEntity
  8
1外形線
100
AcDbCircle
 10
92.95776482853232
 20
592.688927648326
 30
0.0
 40
2.0
100
AcDbArc
 50
135.0000000000008
 51
180.0000000000066
  0
ARC
  5
35D
330
55D
100
AcDbEntity
  8
1外形線
100
AcDbCircle
 10
83.28811169540975
 20
602.3585807814661
 30
0.0
 40
4.0
100
AcDbArc
 50
314.9999999999994
 51
45.0
  0
LINE
  5
35E
330
55D
100
AcDbEntity
  8
1外形線
100
AcDbLine
 10
96.78811169540963
 20
702.8585807814661
 30
0.0
 11
74.28811169540963
 21
702.8585807814661
 31
0.0
  0
ARC
  5
35F
330
55D
100
AcDbEntity
  8
1外形線
100
AcDbCircle
 10
79.78811169539922
 20
605.8585807814555
 30
0.0
 40
5.0
100
AcDbArc
 50
135.0000000000094
 51
180.0000000000066
  0
LINE
  5
360
330
55D
100
AcDbEntity
  8
1外形線
  6
Continuous
100
AcDbLine
 10
74.78811169539929
 20
605.2017265319623
 30
0.0
 11
80.45968457065388
 21
599.5301536567096
 31
0.0
  0
LINE
  5
361
330
55D
100
AcDbEntity
  8
1外形線
  6
Continuous
100
AcDbLine
 10
80.44496594490214
 20
610.8585807814661
 30
0.0
 11
86.11653882015593
 21
605.1870079062121
 31
0.0
  0
ARC
  5
362
330
55D
100
AcDbEntity
  8
1外形線
100
AcDbCircle
 10
79.78811169540974
 20
605.8585807814661
 30
0.0
 40
5.0
100
AcDbArc
 50
90.0
 51
134.9999999999985
  0
ARC
  5
363
330
55D
100
AcDbEntity
  8
1外形線
100
AcDbCircle
 10
83.28811169539966
 20
602.3585807814558
 30
0.0
 40
1.7
100
AcDbArc
 50
135.0000000000069
 51
315.0000000000092
  0
ARC
  5
364
330
55D
100
AcDbEntity
  8
1外形線
100
AcDbCircle
 10
83.28811169540975
 20
602.3585807814661
 30
0.0
 40
1.7
100
AcDbArc
 50
314.9999999999985
 51
135.0000000000011
  0
LINE
  5
365
330
55D
100
AcDbEntity
  8
1外形線
100
AcDbLine
 10
74.28811169540963
 20
702.8585807814661
 30
0.0
 11
74.28811169540963
 21
701.8585807814661
 31
0.0
  0
ARC
  5
366
330
55D
100
AcDbEntity
  8
1外形線
100
AcDbCircle
 10
75.28811169540962
 20
701.8585807814661
 30
0.0
 40
1.0
100
AcDbArc
 50
180.0
 51
270.0
  0
ARC
  5
367
330
55D
100
AcDbEntity
  8
1外形線
100
AcDbCircle
 10
142.7881116954096
 20
714.8585807814661
 30
0.0
 40
17.7674563501489
100
AcDbArc
 50
134.9999999999997
 51
180.0
  0
LINE
  5
368
330
55D
100
AcDbEntity
  8
1外形線
100
AcDbLine
 10
125.0206553452607
 20
702.8585807814661
 30
0.0
 11
125.0206553452607
 21
714.8585807814661
 31
0.0
  0
ARC
  5
369
330
55D
100
AcDbEntity
  8
1外形線
100
AcDbCircle
 10
83.28811169540969
 20
774.3585807814662
 30
0.0
 40
4.0
100
AcDbArc
 50
314.9999999999994
 51
45.0
  0
ARC
  5
36A
330
55D
100
AcDbEntity
  8
1外形線
100
AcDbCircle
 10
83.28811169540957
 20
774.3585807814661
 30
0.0
 40
4.0
100
AcDbArc
 50
225.0000000000003
 51
315.0
  0
ARC
  5
36B
330
55D
100
AcDbEntity
  8
1外形線
100
AcDbCircle
 10
79.78811169540962
 20
777.8585807814661
 30
0.0
 40
5.0
100
AcDbArc
 50
135.0000000000008
 51
180.0
  0
LINE
  5
36C
330
55D
100
AcDbEntity
  8
1外形線
  6
Continuous
100
AcDbLine
 10
74.78811169540962
 20
777.2017265319735
 30
0.0
 11
80.4596845706634
 21
771.5301536567197
 31
0.0
  0
LINE
  5
36D
330
55D
100
AcDbEntity
  8
1外形線
  6
Continuous
100
AcDbLine
 10
80.44496594490214
 20
782.8585807814662
 30
0.0
 11
86.11653882015591
 21
777.1870079062124
 31
0.0
  0
ARC
  5
36E
330
55D
100
AcDbEntity
  8
1外形線
100
AcDbCircle
 10
79.7881116954097
 20
777.8585807814662
 30
0.0
 40
5.0
100
AcDbArc
 50
90.0
 51
134.9999999999985
  0
ARC
  5
36F
330
55D
100
AcDbEntity
  8
1外形線
100
AcDbCircle
 10
83.28811169540969
 20
774.3585807814662
 30
0.0
 40
1.7
100
AcDbArc
 50
314.9999999999985
 51
135.0000000000011
  0
ARC
  5
370
330
55D
100
AcDbEntity
  8
1外形線
100
AcDbCircle
 10
83.28811169540957
 20
774.3585807814661
 30
0.0
 40
1.7
100
AcDbArc
 50
134.9999999999982
 51
315.0000000000008
  0
ARC
  5
371
330
55D
100
AcDbEntity
  8
1外形線
100
AcDbCircle
 10
92.55556804555858
 20
765.0911244313173
 30
0.0
 40
2.0
100
AcDbArc
 50
90.0
 51
135.0000000000006
  0
ARC
  5
372
330
55D
100
AcDbEntity
  8
1外形線
100
AcDbCircle
 10
92.55556804555851
 20
765.0911244313171
 30
0.0
 40
2.0
100
AcDbArc
 50
134.9999999999988
 51
180.0
  0
LINE
  5
373
330
55D
100
AcDbEntity
  8
C4
100
AcDbLine
 10
279.7881116954097
 20
738.8585807814661
 30
0.0
 11
279.7881116954097
 21
716.8585807814658
 31
0.0
  0
LINE
  5
374
330
55D
100
AcDbEntity
  8
C4
100
AcDbLine
 10
277.7881116954097
 20
782.358580781466
 30
0.0
 11
277.7881116954097
 21
717.3585807814661
 31
0.0
  0
LINE
  5
375
330
55D
100
AcDbEntity
  8
1外形線
100
AcDbLine
 10
154.7881116954096
 20
716.3585807814661
 30
0.0
 11
154.7881116954096
 21
738.8585807814661
 31
0.0
  0
LINE
  5
376
330
55D
100
AcDbEntity
  8
1外形線
100
AcDbLine
 10
156.7881116954098
 20
782.358580781466
 30
0.0
 11
156.7881116954096
 21
717.3585807814661
 31
0.0
  0
ARC
  5
377
330
55D
100
AcDbEntity
  8
C4
100
AcDbCircle
 10
212.2881116954098
 20
741.8585807814661
 30
0.0
 40
25.5
100
AcDbArc
 50
180.0
 51
270.0
  0
LINE
  5
378
330
55D
100
AcDbEntity
  8
C4
100
AcDbLine
 10
186.7881116954098
 20
757.8585807814661
 30
0.0
 11
186.7881116954098
 21
701.8585807814661
 31
0.0
  0
ARC
  5
379
330
55D
100
AcDbEntity
  8
C4
100
AcDbCircle
 10
210.7879231569753
 20
741.7675002919801
 30
0.0
 40
22.0
100
AcDbArc
 50
179.7627935204093
 51
264.7845844917805
  0
ARC
  5
37A
330
55D
100
AcDbEntity
  8
C4
100
AcDbCircle
 10
225.2881116954098
 20
738.8585807814661
 30
0.0
 40
22.5
100
AcDbArc
 50
270.0
 51
0.0
  0
ARC
  5
37B
330
55D
100
AcDbEntity
  8
C4
100
AcDbCircle
 10
226.7881116954098
 20
738.8585807814661
 30
0.0
 40
19.0
100
AcDbArc
 50
270.0
 51
0.0
  0
LINE
  5
37C
330
55D
100
AcDbEntity
  8
C4
100
AcDbLine
 10
247.7881116954098
 20
701.8585807814661
 30
0.0
 11
247.7881116954098
 21
738.8585807814661
 31
0.0
  0
LINE
  5
37D
330
55D
100
AcDbEntity
  8
C4
100
AcDbLine
 10
244.7881116954098
 20
766.941343311764
 30
0.0
 11
244.7881116954098
 21
732.7758182511679
 31
0.0
  0
LINE
  5
37E
330
55D
100
AcDbEntity
  8
C4
100
AcDbLine
 10
201.7881116954133
 20
515.8654981007772
 30
0.0
 11
229.7881116954134
 21
515.8654981007781
 31
0.0
  0
LINE
  5
37F
330
55D
100
AcDbEntity
  8
C4
100
AcDbLine
 10
229.7881116954134
 20
513.8654981007781
 30
0.0
 11
202.7881116954134
 21
513.8654981007772
 31
0.0
  0
ARC
  5
380
330
55D
100
AcDbEntity
  8
C4
100
AcDbCircle
 10
227.2881116954134
 20
585.0017713704342
 30
0.0
 40
23.0
100
AcDbArc
 50
96.24013109825821
 51
180.0
  0
ARC
  5
381
330
55D
100
AcDbEntity
  8
C4
100
AcDbCircle
 10
228.2881116954134
 20
584.8654981007816
 30
0.0
 40
26.5
100
AcDbArc
 50
90.0
 51
180.0
  0
ARC
  5
382
330
55D
100
AcDbEntity
  8
C4
100
AcDbCircle
 10
228.2881116954134
 20
555.8654981007816
 30
0.0
 40
26.5
100
AcDbArc
 50
180.0
 51
270.0
  0
ARC
  5
383
330
55D
100
AcDbEntity
  8
C4
100
AcDbCircle
 10
227.2881116954134
 20
555.729224831129
 30
0.0
 40
23.0
100
AcDbArc
 50
180.0
 51
263.7598689017417
  0
LINE
  5
384
330
55D
100
AcDbEntity
  8
C4
100
AcDbLine
 10
212.2881116954098
 20
716.3585807814659
 30
0.0
 11
225.2881116954098
 21
716.3585807814659
 31
0.0
  0
LINE
  5
385
330
55D
100
AcDbEntity
  8
C4
100
AcDbLine
 10
226.7881116954098
 20
719.858580781466
 30
0.0
 11
208.7881116954096
 21
719.858580781466
 31
0.0
  0
LINE
  5
386
330
55D
100
AcDbEntity
  8
C4
100
AcDbLine
 10
187.7881116954098
 20
700.8585807814661
 30
0.0
 11
246.7881116954098
 21
700.8585807814661
 31
0.0
  0
LINE
  5
387
330
55D
100
AcDbEntity
  8
C4
100
AcDbLine
 10
247.7881116954098
 20
702.8585807814661
 30
0.0
 11
186.7881116954098
 21
702.8585807814661
 31
0.0
  0
LINE
  5
388
330
55D
100
AcDbEntity
  8
1外形線
100
AcDbLine
 10
169.7881116954135
 20
588.8585807814657
 30
0.0
 11
169.7881116954136
 21
611.3585807814659
 31
0.0
  0
LINE
  5
389
330
55D
100
AcDbEntity
  8
1外形線
100
AcDbLine
 10
171.7881116954136
 20
610.3585807814659
 30
0.0
 11
171.7881116954135
 21
570.3585807814659
 31
0.0
  0
ARC
  5
38A
330
55D
100
AcDbEntity
  8
1外形線
100
AcDbCircle
 10
157.78811169541
 20
527.8585807814659
 30
0.0
 40
9.94441621471037
100
AcDbArc
 50
158.7180224050225
 51
180.0000000000066
  0
ARC
  5
38B
330
55D
100
AcDbEntity
  8
1外形線
100
AcDbCircle
 10
157.78811169541
 20
527.8585807814659
 30
0.0
 40
18.16965313313143
100
AcDbArc
 50
135.0000000000017
 51
180.0000000000066
  0
LINE
  5
38C
330
55D
100
AcDbEntity
  8
1外形線
  6
Continuous
100
AcDbLine
 10
147.4596845706668
 20
532.5301536567146
 30
0.0
 11
155.7881116954142
 21
524.2017265319701
 31
0.0
  0
ARC
  5
38D
330
55D
100
AcDbEntity
  8
1外形線
100
AcDbCircle
 10
157.78811169541
 20
527.8585807814659
 30
0.0
 40
2.0
100
AcDbArc
 50
90.0
 51
135.0000000000017
  0
ARC
  5
38E
330
55D
100
AcDbEntity
  8
1外形線
100
AcDbCircle
 10
170.7881116954134
 20
530.3585807814657
 30
0.0
 40
1.0
100
AcDbArc
 50
270.0
 51
0.0
  0
LINE
  5
38F
330
55D
100
AcDbEntity
  8
1外形線
100
AcDbLine
 10
169.7881116954134
 20
551.8585807814657
 30
0.0
 11
169.7881116954134
 21
529.3585807814658
 31
0.0
  0
LINE
  5
390
330
55D
100
AcDbEntity
  8
1外形線
100
AcDbLine
 10
133.7881116954117
 20
515.858580781459
 30
0.0
 11
156.2881116954115
 21
515.8585807814623
 31
0.0
  0
LINE
  5
391
330
55D
100
AcDbEntity
  8
1外形線
100
AcDbLine
 10
139.6184585622801
 20
515.8585807814599
 30
0.0
 11
139.6184585622785
 21
527.8585807814634
 31
0.0
  0
LINE
  5
392
330
55D
100
AcDbEntity
  8
1外形線
100
AcDbLine
 10
147.8436954807011
 20
515.8585807814611
 30
0.0
 11
147.8436954806996
 21
527.8585807814644
 31
0.0
  0
LINE
  5
393
330
55D
100
AcDbEntity
  8
1外形線
100
AcDbLine
 10
156.2881116954115
 20
515.8585807814623
 30
0.0
 11
156.2881116954118
 21
514.8585807814623
 31
0.0
  0
ARC
  5
394
330
55D
100
AcDbEntity
  8
1外形線
100
AcDbCircle
 10
155.2881116954118
 20
514.8585807814621
 30
0.0
 40
1.0
100
AcDbArc
 50
270.0000000000077
 51
0.0000000000065138
  0
ARC
  5
395
330
55D
100
AcDbEntity
  8
1外形線
100
AcDbCircle
 10
157.78811169541
 20
527.8585807814659
 30
0.0
 40
2.0
100
AcDbArc
 50
135.0000000000017
 51
180.0000000000066
  0
LINE
  5
396
330
55D
100
AcDbEntity
  8
1外形線
100
AcDbLine
 10
155.7881116954099
 20
527.8585807814656
 30
0.0
 11
155.7881116954115
 21
515.8585807814623
 31
0.0
  0
LINE
  5
397
330
55D
100
AcDbEntity
  8
1外形線
100
AcDbLine
 10
154.9654966707674
 20
515.858580781462
 30
0.0
 11
154.9654966707661
 21
525.0243415566179
 31
0.0
  0
LINE
  5
398
330
55D
100
AcDbEntity
  8
1外形線
100
AcDbLine
 10
169.7881116954134
 20
529.3585807814658
 30
0.0
 11
170.7881116954134
 21
529.3585807814658
 31
0.0
  0
ARC
  5
399
330
55D
100
AcDbEntity
  8
1外形線
100
AcDbCircle
 10
157.78811169541
 20
527.8585807814659
 30
0.0
 40
18.16965313313143
100
AcDbArc
 50
90.0
 51
135.0000000000017
  0
LINE
  5
39A
330
55D
100
AcDbEntity
  8
1外形線
  6
Continuous
100
AcDbLine
 10
153.1165388201596
 20
538.1870079062085
 30
0.0
 11
161.4449659449055
 21
529.8585807814624
 31
0.0
  0
ARC
  5
39B
330
55D
100
AcDbEntity
  8
1外形線
100
AcDbCircle
 10
150.2881116954134
 20
535.3585807814623
 30
0.0
 40
4.0
100
AcDbArc
 50
45.00000000000029
 51
134.9999999999997
  0
ARC
  5
39C
330
55D
100
AcDbEntity
  8
1外形線
100
AcDbCircle
 10
150.2881116954126
 20
535.3585807814615
 30
0.0
 40
4.0
100
AcDbArc
 50
135.000000000008
 51
225.0000000000089
  0
ARC
  5
39D
330
55D
100
AcDbEntity
  8
1外形線
100
AcDbCircle
 10
150.2881116954126
 20
535.3585807814615
 30
0.0
 40
1.7
100
AcDbArc
 50
135.0000000000069
 51
315.0000000000092
  0
ARC
  5
39E
330
55D
100
AcDbEntity
  8
1外形線
100
AcDbCircle
 10
150.2881116954134
 20
535.3585807814623
 30
0.0
 40
1.7
100
AcDbArc
 50
314.9999999999985
 51
135.0000000000011
  0
LINE
  5
39F
330
55D
100
AcDbEntity
  8
1外形線
100
AcDbLine
 10
171.7881116954134
 20
530.3585807814657
 30
0.0
 11
171.7881116954135
 21
570.3585807814659
 31
0.0
  0
LINE
  5
3A0
330
55D
100
AcDbEntity
  8
1外形線
100
AcDbLine
 10
169.7881116954134
 20
546.0282339145972
 30
0.0
 11
157.78811169541
 21
546.0282339145972
 31
0.0
  0
LINE
  5
3A1
330
55D
100
AcDbEntity
  8
1外形線
100
AcDbLine
 10
169.7881116954134
 20
537.8029969961763
 30
0.0
 11
157.78811169541
 21
537.8029969961763
 31
0.0
  0
LINE
  5
3A2
330
55D
100
AcDbEntity
  8
1外形線
100
AcDbLine
 10
169.7881116954134
 20
530.68119580611
 30
0.0
 11
160.6223509202576
 21
530.68119580611
 31
0.0
  0
LINE
  5
3A3
330
55D
100
AcDbEntity
  8
1外形線
100
AcDbLine
 10
157.78811169541
 20
529.8585807814657
 30
0.0
 11
169.7881116954134
 21
529.8585807814657
 31
0.0
  0
ARC
  5
3A4
330
55D
100
AcDbEntity
  8
1外形線
100
AcDbCircle
 10
157.78811169541
 20
527.8585807814659
 30
0.0
 40
9.94441621471037
100
AcDbArc
 50
90.0
 51
111.2819775949868
  0
LINE
  5
3A5
330
55D
100
AcDbEntity
  8
1外形線
100
AcDbLine
 10
203.884547742372
 20
545.5351512339082
 30
0.0
 11
203.884547742372
 21
515.8654981007773
 31
0.0
  0
LINE
  5
3A6
330
55D
100
AcDbEntity
  8
1外形線
100
AcDbLine
 10
209.3688011797763
 20
537.3099143154883
 30
0.0
 11
209.3688011797763
 21
515.8654981007774
 31
0.0
  0
LINE
  5
3A7
330
55D
100
AcDbEntity
  8
C4
100
AcDbLine
 10
201.7881116954135
 20
514.8654981007772
 30
0.0
 11
201.7881116954133
 21
570.3654981007818
 31
0.0
  0
ARC
  5
3A8
330
55D
100
AcDbEntity
  8
C4
100
AcDbCircle
 10
202.7881116954134
 20
514.8654981007772
 30
0.0
 40
1.0
100
AcDbArc
 50
180.0
 51
270.0000000000016
  0
LINE
  5
3A9
330
55D
100
AcDbEntity
  8
C4
100
AcDbLine
 10
204.2881116954134
 20
555.8654981007816
 30
0.0
 11
204.2881116954134
 21
570.3654981007818
 31
0.0
  0
LINE
  5
3AA
330
55D
100
AcDbEntity
  8
C4
100
AcDbLine
 10
204.2881116954134
 20
584.8654981007816
 30
0.0
 11
204.2881116954134
 21
570.3654981007818
 31
0.0
  0
LINE
  5
3AB
330
55D
100
AcDbEntity
  8
C4
100
AcDbLine
 10
201.7881116954133
 20
584.8654981007816
 30
0.0
 11
201.7881116954133
 21
570.3654981007818
 31
0.0
  0
LINE
  5
3AC
330
55D
100
AcDbEntity
  8
1外形線
100
AcDbLine
 10
169.7881116954136
 20
611.3585807814659
 30
0.0
 11
170.7881116954136
 21
611.3585807814659
 31
0.0
  0
ARC
  5
3AD
330
55D
100
AcDbEntity
  8
1外形線
100
AcDbCircle
 10
170.7881116954136
 20
610.3585807814659
 30
0.0
 40
1.0
100
AcDbArc
 50
0.0
 51
90.0
  0
LINE
  5
3AE
330
55D
100
AcDbEntity
  8
1外形線
100
AcDbLine
 10
154.7881116954096
 20
719.2678677151448
 30
0.0
 11
144.0356790112234
 21
719.2678677151448
 31
0.0
  0
LINE
  5
3AF
330
55D
100
AcDbEntity
  8
1外形線
100
AcDbLine
 10
154.7881116954096
 20
716.8585807814661
 30
0.0
 11
142.7881116954096
 21
716.8585807814661
 31
0.0
  0
LINE
  5
3B0
330
55D
100
AcDbEntity
  8
1外形線
100
AcDbLine
 10
154.7881116954096
 20
732.6260371316148
 30
0.0
 11
142.7881116954097
 21
732.626037131615
 31
0.0
  0
LINE
  5
3B1
330
55D
100
AcDbEntity
  8
1外形線
100
AcDbLine
 10
154.7881116954096
 20
724.7876422845462
 30
0.0
 11
138.5159044418219
 21
724.7876422845462
 31
0.0
  0
LINE
  5
3B2
330
55D
100
AcDbEntity
  8
1外形線
100
AcDbLine
 10
141.2881116954096
 20
701.8585807814661
 30
0.0
 11
141.2881116954096
 21
702.8585807814661
 31
0.0
  0
ARC
  5
3B3
330
55D
100
AcDbEntity
  8
1外形線
100
AcDbCircle
 10
140.2881116954096
 20
701.8585807814661
 30
0.0
 40
1.0
100
AcDbArc
 50
270.0
 51
0.0
  0
ARC
  5
3B4
330
55D
100
AcDbEntity
  8
1外形線
100
AcDbCircle
 10
142.7881116954096
 20
714.8585807814661
 30
0.0
 40
2.0
100
AcDbArc
 50
90.0
 51
135.0000000000014
  0
LINE
  5
3B5
330
55D
100
AcDbEntity
  8
1外形線
  6
Continuous
100
AcDbLine
 10
138.1165388201559
 20
725.1870079062123
 30
0.0
 11
146.4449659449018
 21
716.8585807814661
 31
0.0
  0
LINE
  5
3B6
330
55D
100
AcDbEntity
  8
1外形線
  6
Continuous
100
AcDbLine
 10
132.4596845706633
 20
719.5301536567198
 30
0.0
 11
140.7881116954096
 21
711.2017265319736
 31
0.0
  0
LINE
  5
3B7
330
55D
100
AcDbEntity
  8
1外形線
100
AcDbLine
 10
132.8590501923293
 20
702.8585807814661
 30
0.0
 11
132.8590501923293
 21
719.1307880350536
 31
0.0
  0
LINE
  5
3B8
330
55D
100
AcDbEntity
  8
1外形線
100
AcDbLine
 10
140.7881116954096
 20
702.8585807814661
 30
0.0
 11
140.7881116954096
 21
714.8585807814661
 31
0.0
  0
LINE
  5
3B9
330
55D
100
AcDbEntity
  8
1外形線
100
AcDbLine
 10
138.3788247617309
 20
702.8585807814661
 30
0.0
 11
138.3788247617309
 21
713.6110134656521
 31
0.0
  0
ARC
  5
3BA
330
55D
100
AcDbEntity
  8
1外形線
100
AcDbCircle
 10
142.7881116954096
 20
714.8585807814661
 30
0.0
 40
2.0
100
AcDbArc
 50
134.9999999999979
 51
180.0
  0
ARC
  5
3BB
330
55D
100
AcDbEntity
  8
1外形線
100
AcDbCircle
 10
135.2881116954097
 20
722.3585807814661
 30
0.0
 40
4.0
100
AcDbArc
 50
45.00000000000029
 51
134.9999999999997
  0
ARC
  5
3BC
330
55D
100
AcDbEntity
  8
1外形線
100
AcDbCircle
 10
135.2881116954097
 20
722.3585807814661
 30
0.0
 40
1.7
100
AcDbArc
 50
314.9999999999985
 51
135.0000000000011
  0
ARC
  5
3BD
330
55D
100
AcDbEntity
  8
1外形線
100
AcDbCircle
 10
135.2881116954096
 20
722.3585807814661
 30
0.0
 40
1.7
100
AcDbArc
 50
134.9999999999982
 51
315.0000000000008
  0
LINE
  5
3BE
330
55D
100
AcDbEntity
  8
1外形線
100
AcDbLine
 10
155.7881116954096
 20
716.3585807814659
 30
0.0
 11
154.7881116954096
 21
716.3585807814661
 31
0.0
  0
ARC
  5
3BF
330
55D
100
AcDbEntity
  8
1外形線
100
AcDbCircle
 10
155.7881116954096
 20
717.3585807814661
 30
0.0
 40
1.0
100
AcDbArc
 50
270.0
 51
0.0
  0
ARC
  5
3C0
330
55D
100
AcDbEntity
  8
C4
100
AcDbCircle
 10
187.7881116954098
 20
701.8585807814661
 30
0.0
 40
1.0
100
AcDbArc
 50
180.0
 51
270.0
  0
LINE
  5
3C1
330
55D
100
AcDbEntity
  8
C4
100
AcDbLine
 10
193.8080651495413
 20
702.8585807814661
 30
0.0
 11
193.8080651495413
 21
724.2876422845462
 31
0.0
  0
LINE
  5
3C2
330
55D
100
AcDbEntity
  8
C4
100
AcDbLine
 10
188.7184788152875
 20
702.8585807814661
 30
0.0
 11
188.7184788152875
 21
732.1260371316148
 31
0.0
  0
LINE
  5
3C3
330
55D
100
AcDbEntity
  8
C4
100
AcDbLine
 10
213.7881116954098
 20
700.8585807814661
 30
0.0
 11
213.7881116954098
 21
718.3585807814661
 31
0.0
  0
LINE
  5
3C4
330
55D
100
AcDbEntity
  8
C4
100
AcDbLine
 10
213.7881116954098
 20
718.3585807814661
 30
0.0
 11
208.7881116954098
 21
718.3585807814661
 31
0.0
  0
LINE
  5
3C5
330
55D
100
AcDbEntity
  8
C4
100
AcDbLine
 10
208.7881116954098
 20
719.858580781466
 30
0.0
 11
208.7881116954098
 21
718.3585807814661
 31
0.0
  0
LINE
  5
3C6
330
55D
100
AcDbEntity
  8
C4
100
AcDbLine
 10
201.4682701952386
 20
702.8585807814661
 30
0.0
 11
201.4682701952386
 21
718.7678677151447
 31
0.0
  0
LINE
  5
3C7
330
55D
100
AcDbEntity
  8
1外形線
100
AcDbLine
 10
301.7881116954134
 20
586.8585807814659
 30
0.0
 11
301.7881116954133
 21
611.3585807814659
 31
0.0
  0
LINE
  5
3C8
330
55D
100
AcDbEntity
  8
1外形線
100
AcDbLine
 10
299.7881116954133
 20
610.3585807814659
 30
0.0
 11
299.7881116954134
 21
570.3585807814659
 31
0.0
  0
ARC
  5
3C9
330
55D
100
AcDbEntity
  8
C4
100
AcDbCircle
 10
246.2881116954134
 20
586.8654981007818
 30
0.0
 40
21.0
100
AcDbArc
 50
0.0
 51
90.0
  0
ARC
  5
3CA
330
55D
100
AcDbEntity
  8
C4
100
AcDbCircle
 10
245.2881116954134
 20
586.8654981007818
 30
0.0
 40
24.5
100
AcDbArc
 50
0.0
 51
90.0
  0
ARC
  5
3CB
330
55D
100
AcDbEntity
  8
C4
100
AcDbCircle
 10
245.2881116954134
 20
553.8654981007818
 30
0.0
 40
24.5
100
AcDbArc
 50
270.0
 51
0.0
  0
ARC
  5
3CC
330
55D
100
AcDbEntity
  8
C4
100
AcDbCircle
 10
246.2881116954134
 20
553.8654981007818
 30
0.0
 40
21.0
100
AcDbArc
 50
270.0
 51
0.0
  0
LINE
  5
3CD
330
55D
100
AcDbEntity
  8
C4
100
AcDbLine
 10
269.7881116954134
 20
515.8654981007782
 30
0.0
 11
229.7881116954134
 21
515.8654981007781
 31
0.0
  0
LINE
  5
3CE
330
55D
100
AcDbEntity
  8
C4
100
AcDbLine
 10
229.7881116954134
 20
513.8654981007781
 30
0.0
 11
268.7881116954134
 21
513.8654981007784
 31
0.0
  0
LINE
  5
3CF
330
55D
100
AcDbEntity
  8
1外形線
100
AcDbLine
 10
262.8604238967334
 20
536.7931858994617
 30
0.0
 11
262.8604238967334
 21
515.8654981007781
 31
0.0
  0
LINE
  5
3D0
330
55D
100
AcDbEntity
  8
1外形線
100
AcDbLine
 10
251.4350519598082
 20
530.1491508823342
 30
0.0
 11
251.4350519598082
 21
515.8654981007781
 31
0.0
  0
LINE
  5
3D1
330
55D
100
AcDbEntity
  8
1外形線
100
AcDbLine
 10
221.7366308836136
 20
530.1881131254248
 30
0.0
 11
221.7366308836136
 21
515.865498100778
 31
0.0
  0
LINE
  5
3D2
330
55D
100
AcDbEntity
  8
C4
100
AcDbLine
 10
229.7881116954134
 20
513.8654981007781
 30
0.0
 11
229.7881116954134
 21
531.3654981007816
 31
0.0
  0
LINE
  5
3D3
330
55D
100
AcDbEntity
  8
C4
100
AcDbLine
 10
228.2881116954134
 20
529.3654981007818
 30
0.0
 11
245.2881116954134
 21
529.3654981007818
 31
0.0
  0
LINE
  5
3D4
330
55D
100
AcDbEntity
  8
C4
100
AcDbLine
 10
246.2881116954134
 20
532.8654981007818
 30
0.0
 11
224.7881116954133
 21
532.8654981007818
 31
0.0
  0
LINE
  5
3D5
330
55D
100
AcDbEntity
  8
C4
100
AcDbLine
 10
229.7881116954134
 20
531.3654981007816
 30
0.0
 11
224.7881116954133
 21
531.3654981007816
 31
0.0
  0
LINE
  5
3D6
330
55D
100
AcDbEntity
  8
C4
100
AcDbLine
 10
224.7881116954133
 20
532.8654981007818
 30
0.0
 11
224.7881116954133
 21
531.3654981007816
 31
0.0
  0
ARC
  5
3D7
330
55D
100
AcDbEntity
  8
1外形線
100
AcDbCircle
 10
300.7881116954135
 20
530.3585807814657
 30
0.0
 40
1.0
100
AcDbArc
 50
180.0
 51
270.0
  0
LINE
  5
3D8
330
55D
100
AcDbEntity
  8
1外形線
100
AcDbLine
 10
301.7881116954134
 20
553.8585807814659
 30
0.0
 11
301.7881116954135
 21
529.3585807814658
 31
0.0
  0
LINE
  5
3D9
330
55D
100
AcDbEntity
  8
1外形線
100
AcDbLine
 10
267.8927117187873
 20
544.416579761454
 30
0.0
 11
267.8927117187873
 21
515.8654981007782
 31
0.0
  0
LINE
  5
3DA
330
55D
100
AcDbEntity
  8
C4
100
AcDbLine
 10
269.7881116954134
 20
514.8654981007783
 30
0.0
 11
269.7881116954134
 21
553.8654981007818
 31
0.0
  0
ARC
  5
3DB
330
55D
100
AcDbEntity
  8
C4
100
AcDbCircle
 10
268.7881116954134
 20
514.8654981007783
 30
0.0
 40
1.0
100
AcDbArc
 50
270.0
 51
0.0
  0
LINE
  5
3DC
330
55D
100
AcDbEntity
  8
1外形線
100
AcDbLine
 10
301.7881116954135
 20
529.3585807814658
 30
0.0
 11
300.7881116954135
 21
529.3585807814658
 31
0.0
  0
LINE
  5
3DD
330
55D
100
AcDbEntity
  8
C4
100
AcDbLine
 10
266.2881116954134
 20
547.4623738633489
 30
0.0
 11
266.2881116954133
 21
570.3654981007818
 31
0.0
  0
LINE
  5
3DE
330
55D
100
AcDbEntity
  8
C4
100
AcDbLine
 10
267.2881116954134
 20
553.8654981007818
 30
0.0
 11
267.2881116954133
 21
570.3654981007818
 31
0.0
  0
LINE
  5
3DF
330
55D
100
AcDbEntity
  8
C4
100
AcDbLine
 10
269.7881116954134
 20
553.8654981007818
 30
0.0
 11
269.7881116954134
 21
570.3654981007818
 31
0.0
  0
LINE
  5
3E0
330
55D
100
AcDbEntity
  8
C4
100
AcDbLine
 10
266.2881116954134
 20
593.2686223382145
 30
0.0
 11
266.2881116954133
 21
570.3654981007818
 31
0.0
  0
LINE
  5
3E1
330
55D
100
AcDbEntity
  8
C4
100
AcDbLine
 10
267.2881116954134
 20
586.8654981007818
 30
0.0
 11
267.2881116954133
 21
570.3654981007818
 31
0.0
  0
LINE
  5
3E2
330
55D
100
AcDbEntity
  8
C4
100
AcDbLine
 10
269.7881116954134
 20
586.8654981007818
 30
0.0
 11
269.7881116954134
 21
570.3654981007818
 31
0.0
  0
LINE
  5
3E3
330
55D
100
AcDbEntity
  8
1外形線
100
AcDbLine
 10
299.7881116954135
 20
530.3585807814657
 30
0.0
 11
299.7881116954134
 21
570.3585807814659
 31
0.0
  0
LINE
  5
3E4
330
55D
100
AcDbEntity
  8
C4
100
AcDbLine
 10
246.2881116954134
 20
607.8654981007818
 30
0.0
 11
224.7881116954133
 21
607.8654981007818
 31
0.0
  0
LINE
  5
3E5
330
55D
100
AcDbEntity
  8
C4
100
AcDbLine
 10
228.2881116954134
 20
611.3654981007818
 30
0.0
 11
245.2881116954134
 21
611.3654981007818
 31
0.0
  0
LINE
  5
3E6
330
55D
100
AcDbEntity
  8
C4
100
AcDbLine
 10
229.7881116954134
 20
609.3654981007817
 30
0.0
 11
224.7881116954133
 21
609.3654981007817
 31
0.0
  0
LINE
  5
3E7
330
55D
100
AcDbEntity
  8
C4
100
AcDbLine
 10
224.7881116954133
 20
607.8654981007818
 30
0.0
 11
224.7881116954133
 21
609.3654981007817
 31
0.0
  0
LINE
  5
3E8
330
55D
100
AcDbEntity
  8
C4
100
AcDbLine
 10
229.7881116954134
 20
609.3654981007817
 30
0.0
 11
229.7881116954134
 21
611.3654981007818
 31
0.0
  0
LINE
  5
3E9
330
55D
100
AcDbEntity
  8
C4
100
AcDbLine
 10
241.6901555891992
 20
702.8585807814661
 30
0.0
 11
241.6901555891992
 21
723.4565368876767
 31
0.0
  0
LINE
  5
3EA
330
55D
100
AcDbEntity
  8
C4
100
AcDbLine
 10
234.9899003353292
 20
702.8585807814661
 30
0.0
 11
234.9899003353292
 21
718.5577114112559
 31
0.0
  0
ARC
  5
3EB
330
55D
100
AcDbEntity
  8
C4
100
AcDbCircle
 10
246.7881116954098
 20
701.8585807814661
 30
0.0
 40
1.0
100
AcDbArc
 50
270.0
 51
0.0
  0
LINE
  5
3EC
330
55D
100
AcDbEntity
  8
C4
100
AcDbLine
 10
246.1180364647633
 20
702.8585807814661
 30
0.0
 11
246.1180364647633
 21
730.3518637823485
 31
0.0
  0
LINE
  5
3ED
330
55D
100
AcDbEntity
  8
1外形線
100
AcDbLine
 10
301.7881116954133
 20
611.3585807814659
 30
0.0
 11
300.7881116954132
 21
611.3585807814659
 31
0.0
  0
ARC
  5
3EE
330
55D
100
AcDbEntity
  8
1外形線
100
AcDbCircle
 10
300.7881116954132
 20
610.3585807814659
 30
0.0
 40
1.0
100
AcDbArc
 50
90.0
 51
180.0
  0
LINE
  5
3EF
330
55D
100
AcDbEntity
  8
1外形線
100
AcDbLine
 10
279.7881116954097
 20
730.3518637823485
 30
0.0
 11
291.7881116954097
 21
730.3518637823485
 31
0.0
  0
LINE
  5
3F0
330
55D
100
AcDbEntity
  8
1外形線
100
AcDbLine
 10
279.7881116954097
 20
723.4565368876767
 30
0.0
 11
291.7881116954097
 21
723.4565368876767
 31
0.0
  0
LINE
  5
3F1
330
55D
100
AcDbEntity
  8
1外形線
100
AcDbLine
 10
279.7881116954097
 20
718.5577114112559
 30
0.0
 11
291.7881116954097
 21
718.5577114112559
 31
0.0
  0
LINE
  5
3F2
330
55D
100
AcDbEntity
  8
C4
100
AcDbLine
 10
279.7881116954097
 20
716.8585807814658
 30
0.0
 11
291.7881116954097
 21
716.8585807814658
 31
0.0
  0
LINE
  5
3F3
330
55D
100
AcDbEntity
  8
C4
100
AcDbLine
 10
278.7881116954097
 20
716.3585807814659
 30
0.0
 11
279.7881116954097
 21
716.3585807814659
 31
0.0
  0
LINE
  5
3F4
330
55D
100
AcDbEntity
  8
C4
100
AcDbLine
 10
279.7881116954097
 20
716.8585807814658
 30
0.0
 11
279.7881116954097
 21
716.3585807814659
 31
0.0
  0
ARC
  5
3F5
330
55D
100
AcDbEntity
  8
C4
100
AcDbCircle
 10
278.7881116954097
 20
717.3585807814661
 30
0.0
 40
1.0
100
AcDbArc
 50
180.0
 51
270.0
  0
LINE
  5
3F6
330
55D
100
AcDbEntity
  8
C4
100
AcDbLine
 10
293.2881116954117
 20
701.8585807814661
 30
0.0
 11
293.2881116954115
 21
702.8585807814661
 31
0.0
  0
ARC
  5
3F7
330
55D
100
AcDbEntity
  8
C4
100
AcDbCircle
 10
294.2881116954117
 20
701.8585807814662
 30
0.0
 40
1.0
100
AcDbArc
 50
180.0000000000066
 51
270.0000000000077
  0
ARC
  5
3F8
330
55D
100
AcDbEntity
  8
C4
100
AcDbCircle
 10
291.7881116954097
 20
714.8585807814659
 30
0.0
 40
8.597956106210915
100
AcDbArc
 50
0.0000000000065138
 51
45.0000000000023
  0
ARC
  5
3F9
330
55D
100
AcDbEntity
  8
C4
100
AcDbCircle
 10
291.7881116954097
 20
714.8585807814661
 30
0.0
 40
15.49328300088271
100
AcDbArc
 50
45.00000000000201
 51
90.0
  0
ARC
  5
3FA
330
55D
100
AcDbEntity
  8
C4
100
AcDbCircle
 10
291.7881116954097
 20
714.8585807814661
 30
0.0
 40
3.699130629790047
100
AcDbArc
 50
45.00000000000201
 51
90.0
  0
ARC
  5
3FB
330
55D
100
AcDbEntity
  8
C4
100
AcDbCircle
 10
291.7881116954097
 20
714.8585807814661
 30
0.0
 40
2.0
100
AcDbArc
 50
45.00000000000201
 51
90.0
  0
ARC
  5
3FC
330
55D
100
AcDbEntity
  8
C4
100
AcDbCircle
 10
291.7881116954097
 20
714.8585807814659
 30
0.0
 40
2.0
100
AcDbArc
 50
0.0000000000065138
 51
45.0000000000023
  0
LINE
  5
3FD
330
55D
100
AcDbEntity
  8
C4
100
AcDbLine
 10
293.7881116954115
 20
702.8585807814662
 30
0.0
 11
293.2881116954115
 21
702.8585807814661
 31
0.0
  0
LINE
  5
3FE
330
55D
100
AcDbEntity
  8
C4
100
AcDbLine
 10
293.7881116954115
 20
702.8585807814662
 30
0.0
 11
293.7881116954097
 21
714.8585807814662
 31
0.0
  0
LINE
  5
3FF
330
55D
100
AcDbEntity
  8
1外形線
100
AcDbLine
 10
295.4872423252016
 20
702.8585807814663
 30
0.0
 11
295.4872423251999
 21
714.8585807814663
 31
0.0
  0
ARC
  5
400
330
55D
100
AcDbEntity
  8
C4
100
AcDbCircle
 10
291.7881116954097
 20
714.8585807814659
 30
0.0
 40
3.699130629790047
100
AcDbArc
 50
0.0000000000065138
 51
45.0000000000023
  0
ARC
  5
401
330
55D
100
AcDbEntity
  8
C4
100
AcDbCircle
 10
291.7881116954097
 20
714.8585807814661
 30
0.0
 40
8.597956106210915
100
AcDbArc
 50
45.00000000000201
 51
90.0
  0
ARC
  5
402
330
55D
100
AcDbEntity
  8
C4
100
AcDbCircle
 10
291.7881116954097
 20
714.8585807814659
 30
0.0
 40
15.49328300088271
100
AcDbArc
 50
0.0000000000065138
 51
45.0000000000023
  0
LINE
  5
403
330
55D
100
AcDbEntity
  8
1外形線
100
AcDbLine
 10
300.3860678016224
 20
702.858580781467
 30
0.0
 11
300.3860678016208
 21
714.858580781467
 31
0.0
  0
LINE
  5
404
330
55D
100
AcDbEntity
  8
1外形線
100
AcDbLine
 10
307.2813946962942
 20
702.8585807814681
 30
0.0
 11
307.2813946962926
 21
714.8585807814681
 31
0.0
  0
LINE
  5
405
330
55D
100
AcDbEntity
  8
C4
100
AcDbLine
 10
225.2881116954098
 20
783.3585807814661
 30
0.0
 11
212.2881116954098
 21
783.3585807814661
 31
0.0
  0
LINE
  5
406
330
55D
100
AcDbEntity
  8
C4
100
AcDbLine
 10
208.7881116954098
 20
779.8585807814661
 30
0.0
 11
226.7881116954098
 21
779.8585807814661
 31
0.0
  0
LINE
  5
407
330
55D
100
AcDbEntity
  8
1外形線
100
AcDbLine
 10
154.7881116954096
 20
760.8585807814661
 30
0.0
 11
154.7881116954098
 21
783.3585807814658
 31
0.0
  0
LINE
  5
408
330
55D
100
AcDbEntity
  8
1外形線
100
AcDbLine
 10
154.7881116954098
 20
783.3585807814658
 30
0.0
 11
155.7881116954098
 21
783.3585807814658
 31
0.0
  0
ARC
  5
409
330
55D
100
AcDbEntity
  8
1外形線
100
AcDbCircle
 10
155.7881116954098
 20
782.358580781466
 30
0.0
 40
1.0
100
AcDbArc
 50
0.0
 51
90.0
  0
ARC
  5
40A
330
55D
100
AcDbEntity
  8
C4
100
AcDbCircle
 10
212.2881116954098
 20
757.8585807814661
 30
0.0
 40
25.5
100
AcDbArc
 50
90.0
 51
180.0
  0
ARC
  5
40B
330
55D
100
AcDbEntity
  8
C4
100
AcDbCircle
 10
210.7879231569753
 20
757.9496612709516
 30
0.0
 40
22.0
100
AcDbArc
 50
95.21541550821943
 51
180.2372064795907
  0
LINE
  5
40C
330
55D
100
AcDbEntity
  8
C4
100
AcDbLine
 10
188.7881116954098
 20
741.8585807814661
 30
0.0
 11
188.7881116954098
 21
757.8585807814661
 31
0.0
  0
LINE
  5
40D
330
55D
100
AcDbEntity
  8
C4
100
AcDbLine
 10
213.7881116954098
 20
781.3585807814661
 30
0.0
 11
208.7881116954098
 21
781.3585807814661
 31
0.0
  0
LINE
  5
40E
330
55D
100
AcDbEntity
  8
C4
100
AcDbLine
 10
208.7881116954098
 20
779.8585807814661
 30
0.0
 11
208.7881116954098
 21
781.3585807814661
 31
0.0
  0
LINE
  5
40F
330
55D
100
AcDbEntity
  8
C4
100
AcDbLine
 10
213.7881116954098
 20
783.3585807814661
 30
0.0
 11
213.7881116954098
 21
781.3585807814661
 31
0.0
  0
ARC
  5
410
330
55D
100
AcDbEntity
  8
C4
100
AcDbCircle
 10
225.2881116954098
 20
760.8585807814661
 30
0.0
 40
22.5
100
AcDbArc
 50
0.0
 51
90.0
  0
ARC
  5
411
330
55D
100
AcDbEntity
  8
C4
100
AcDbCircle
 10
226.7881116954098
 20
760.8585807814661
 30
0.0
 40
19.0
100
AcDbArc
 50
0.0
 51
90.0
  0
LINE
  5
412
330
55D
100
AcDbEntity
  8
C4
100
AcDbLine
 10
247.7881116954097
 20
738.8585807814661
 30
0.0
 11
247.7881116954098
 21
760.8585807814661
 31
0.0
  0
LINE
  5
413
330
55D
100
AcDbEntity
  8
C4
100
AcDbLine
 10
245.7881116954098
 20
760.8585807814661
 30
0.0
 11
245.7881116954098
 21
738.8585807814661
 31
0.0
  0
LINE
  5
414
330
55D
100
AcDbEntity
  8
C4
100
AcDbLine
 10
279.7881116954097
 20
782.8585807814659
 30
0.0
 11
279.7881116954097
 21
760.8585807814661
 31
0.0
  0
LINE
  5
415
330
55D
100
AcDbEntity
  8
C4
100
AcDbLine
 10
278.7881116954097
 20
783.3585807814658
 30
0.0
 11
279.7881116954097
 21
783.3585807814658
 31
0.0
  0
LINE
  5
416
330
55D
100
AcDbEntity
  8
C4
100
AcDbLine
 10
279.7881116954097
 20
783.3585807814658
 30
0.0
 11
279.7881116954097
 21
782.8585807814659
 31
0.0
  0
ARC
  5
417
330
55D
100
AcDbEntity
  8
C4
100
AcDbCircle
 10
278.7881116954097
 20
782.358580781466
 30
0.0
 40
1.0
100
AcDbArc
 50
90.0
 51
180.0
  0
LINE
  5
418
330
55D
100
AcDbEntity
  8
1外形線
100
AcDbLine
 10
447.0560735676972
 20
483.858580781451
 30
0.0
 11
447.0560735676972
 21
842.8585807814663
 31
0.0
  0
LINE
  5
477
330
55D
100
AcDbEntity
  8
1外形線
100
AcDbLine
 10
346.294828694529
 20
702.8585807814732
 30
0.0
 11
346.2948286945203
 21
767.3652977805907
 31
0.0
  0
LINE
  5
478
330
55D
100
AcDbEntity
  8
C4
100
AcDbLine
 10
359.7881116954115
 20
702.858580781475
 30
0.0
 11
359.7881116954013
 21
777.8585807814748
 31
0.0
  0
LINE
  5
479
330
55D
100
AcDbEntity
  8
1外形線
100
AcDbLine
 10
358.0889810656217
 20
702.8585807814748
 30
0.0
 11
358.0889810656117
 21
777.159450151685
 31
0.0
  0
LINE
  5
47A
330
55D
100
AcDbEntity
  8
1外形線
100
AcDbLine
 10
353.1901555892009
 20
702.8585807814741
 30
0.0
 11
353.1901555891913
 21
773.2606246752633
 31
0.0
  0
LINE
  5
47B
330
55D
100
AcDbEntity
  8
1外形線
100
AcDbLine
 10
396.7881116954178
 20
605.8585807814656
 30
0.0
 11
396.7881116954188
 21
515.8585807814614
 31
0.0
  0
LINE
  5
47C
330
55D
100
AcDbEntity
  8
1外形線
100
AcDbLine
 10
396.0044589138663
 20
515.8585807814618
 30
0.0
 11
396.0044589138651
 21
606.0749279999298
 31
0.0
  0
LINE
  5
47D
330
55D
100
AcDbEntity
  8
1外形線
100
AcDbLine
 10
389.3604238967388
 20
515.8585807814618
 30
0.0
 11
389.3604238967376
 21
600.4308929827933
 31
0.0
  0
ARC
  5
47E
330
55D
100
AcDbEntity
  8
1外形線
100
AcDbCircle
 10
354.288111695414
 20
568.3585807814611
 30
0.0
 40
2.0
100
AcDbArc
 50
225.0000000000008
 51
45.00000000000087
  0
LINE
  5
47F
330
55D
100
AcDbEntity
  8
1外形線
100
AcDbLine
 10
316.2881116954188
 20
513.8585807814608
 30
0.0
 11
356.2881116954188
 21
513.8585807814612
 31
0.0
  0
ARC
  5
480
330
55D
100
AcDbEntity
  8
1外形線
100
AcDbCircle
 10
354.2881116954134
 20
568.3585807814616
 30
0.0
 40
2.0
100
AcDbArc
 50
45.0
 51
225.0
  0
ARC
  5
481
330
55D
100
AcDbEntity
  8
1外形線
100
AcDbCircle
 10
313.7881116954186
 20
527.8585807814642
 30
0.0
 40
9.427687798680016
100
AcDbArc
 50
0.0
 51
45.00000000000257
  0
ARC
  5
482
330
55D
100
AcDbEntity
  8
1外形線
100
AcDbCircle
 10
313.7881116954186
 20
527.8585807814642
 30
0.0
 40
17.05108166067696
100
AcDbArc
 50
0.0
 51
45.00000000000257
  0
ARC
  5
483
330
55D
100
AcDbEntity
  8
1外形線
100
AcDbCircle
 10
313.7881116954186
 20
527.8585807814642
 30
0.0
 40
2.783652781552483
100
AcDbArc
 50
0.0
 51
45.00000000000257
  0
ARC
  5
484
330
55D
100
AcDbEntity
  8
1外形線
100
AcDbCircle
 10
313.7881116954169
 20
527.8585807814659
 30
0.0
 40
2.783652781552483
100
AcDbArc
 50
44.99999999999827
 51
90.0
  0
ARC
  5
485
330
55D
100
AcDbEntity
  8
1外形線
100
AcDbCircle
 10
313.7881116954169
 20
527.8585807814659
 30
0.0
 40
2.0
100
AcDbArc
 50
44.99999999999827
 51
90.0
  0
LINE
  5
486
330
55D
100
AcDbEntity
  8
1外形線
100
AcDbLine
 10
339.7881116954188
 20
515.858580781461
 30
0.0
 11
315.2881116954188
 21
515.8585807814607
 31
0.0
  0
ARC
  5
487
330
55D
100
AcDbEntity
  8
1外形線
100
AcDbCircle
 10
316.2881116954188
 20
514.8585807814607
 30
0.0
 40
1.0
100
AcDbArc
 50
180.0
 51
270.0000000000004
  0
ARC
  5
488
330
55D
100
AcDbEntity
  8
1外形線
100
AcDbCircle
 10
313.7881116954186
 20
527.8585807814642
 30
0.0
 40
2.0
100
AcDbArc
 50
0.0
 51
45.00000000000257
  0
LINE
  5
489
330
55D
100
AcDbEntity
  8
1外形線
100
AcDbLine
 10
315.2881116954188
 20
515.8585807814607
 30
0.0
 11
315.2881116954188
 21
514.8585807814607
 31
0.0
  0
LINE
  5
48A
330
55D
100
AcDbEntity
  8
1外形線
100
AcDbLine
 10
315.7881116954186
 20
527.8585807814642
 30
0.0
 11
315.7881116954188
 21
515.8585807814607
 31
0.0
  0
LINE
  5
48B
330
55D
100
AcDbEntity
  8
1外形線
100
AcDbLine
 10
316.5717644769712
 20
515.8585807814607
 30
0.0
 11
316.5717644769712
 21
527.8585807814642
 31
0.0
  0
LINE
  5
48C
330
55D
100
AcDbEntity
  8
1外形線
100
AcDbLine
 10
323.2157994940989
 20
515.8585807814609
 30
0.0
 11
323.2157994940987
 21
527.8585807814643
 31
0.0
  0
LINE
  5
48D
330
55D
100
AcDbEntity
  8
1外形線
100
AcDbLine
 10
330.8391933560957
 20
515.8585807814609
 30
0.0
 11
330.8391933560956
 21
527.8585807814644
 31
0.0
  0
ARC
  5
48E
330
55D
100
AcDbEntity
  8
1外形線
100
AcDbCircle
 10
313.7881116954169
 20
527.8585807814659
 30
0.0
 40
17.05108166067696
100
AcDbArc
 50
44.99999999999827
 51
90.0
  0
ARC
  5
48F
330
55D
100
AcDbEntity
  8
1外形線
100
AcDbCircle
 10
313.7881116954169
 20
527.8585807814659
 30
0.0
 40
9.427687798680016
100
AcDbArc
 50
44.99999999999827
 51
90.0
  0
LINE
  5
490
330
55D
100
AcDbEntity
  8
1外形線
100
AcDbLine
 10
381.7370300347418
 20
515.8585807814614
 30
0.0
 11
381.7370300347408
 21
593.8074991207855
 31
0.0
  0
LINE
  5
491
330
55D
100
AcDbEntity
  8
1外形線
100
AcDbLine
 10
372.7881116954189
 20
515.8585807814614
 30
0.0
 11
397.2881116954189
 21
515.8585807814614
 31
0.0
  0
LINE
  5
492
330
55D
100
AcDbEntity
  8
1外形線
100
AcDbLine
 10
396.2881116954189
 20
513.8585807814616
 30
0.0
 11
356.2881116954188
 21
513.8585807814612
 31
0.0
  0
LINE
  5
493
330
55D
100
AcDbEntity
  8
1外形線
100
AcDbLine
 10
397.2881116954189
 20
515.8585807814614
 30
0.0
 11
397.2881116954189
 21
514.8585807814614
 31
0.0
  0
ARC
  5
494
330
55D
100
AcDbEntity
  8
1外形線
100
AcDbCircle
 10
396.2881116954189
 20
514.8585807814614
 30
0.0
 40
1.0
100
AcDbArc
 50
270.0000000000004
 51
0.0
  0
ARC
  5
495
330
55D
100
AcDbEntity
  8
1外形線
100
AcDbCircle
 10
379.7370300347408
 20
593.8074991207855
 30
0.0
 40
2.0
100
AcDbArc
 50
0.0
 51
45.00000000006505
  0
ARC
  5
496
330
55D
100
AcDbEntity
  8
1外形線
100
AcDbCircle
 10
379.7370300347375
 20
593.8074991207887
 30
0.0
 40
2.0
100
AcDbArc
 50
44.99999999993579
 51
90.0
  0
LINE
  5
497
330
55D
100
AcDbEntity
  8
C4
100
AcDbLine
 10
359.7881116954115
 20
702.858580781475
 30
0.0
 11
337.7881116954116
 21
702.8585807814721
 31
0.0
  0
ARC
  5
498
330
55D
100
AcDbEntity
  8
1外形線
100
AcDbCircle
 10
386.3604238967451
 20
600.4308929827858
 30
0.0
 40
3.0
100
AcDbArc
 50
45.00000000010045
 51
90.0
  0
ARC
  5
499
330
55D
100
AcDbEntity
  8
1外形線
100
AcDbCircle
 10
392.0044589138815
 20
606.0749279999132
 30
0.0
 40
4.0
100
AcDbArc
 50
45.00000000016496
 51
90.0
  0
ARC
  5
49A
330
55D
100
AcDbEntity
  8
1外形線
100
AcDbCircle
 10
391.7881116954172
 20
605.8585807814661
 30
0.0
 40
5.0
100
AcDbArc
 50
45.00000000000142
 51
90.0
  0
ARC
  5
49B
330
55D
100
AcDbEntity
  8
1外形線
100
AcDbCircle
 10
386.3604238967377
 20
600.4308929827932
 30
0.0
 40
3.0
100
AcDbArc
 50
0.0
 51
44.99999999990039
  0
ARC
  5
49C
330
55D
100
AcDbEntity
  8
1外形線
100
AcDbCircle
 10
391.7881116954178
 20
605.8585807814655
 30
0.0
 40
5.0
100
AcDbArc
 50
0.0
 51
44.99999999999942
  0
ARC
  5
49D
330
55D
100
AcDbEntity
  8
1外形線
100
AcDbCircle
 10
392.0044589138651
 20
606.0749279999297
 30
0.0
 40
4.0
100
AcDbArc
 50
0.0
 51
44.9999999998359
  0
LINE
  5
49E
330
55D
100
AcDbEntity
  8
C4
100
AcDbLine
 10
360.2881116954116
 20
701.858580781475
 30
0.0
 11
360.2881116954114
 21
702.8585807814752
 31
0.0
  0
ARC
  5
49F
330
55D
100
AcDbEntity
  8
C4
100
AcDbCircle
 10
359.2881116954116
 20
701.858580781475
 30
0.0
 40
1.0
100
AcDbArc
 50
270.0000000000077
 51
0.0000000000065138
  0
LINE
  5
4A0
330
55D
100
AcDbEntity
  8
C4
100
AcDbLine
 10
360.2881116954114
 20
702.8585807814752
 30
0.0
 11
359.7881116954115
 21
702.858580781475
 31
0.0
  0
ARC
  5
4A1
330
55D
100
AcDbEntity
  8
C4
100
AcDbCircle
 10
324.7881116954054
 20
747.8585807814702
 30
0.0
 40
2.0
100
AcDbArc
 50
225.0000000000091
 51
45.00000000000833
  0
ARC
  5
4A2
330
55D
100
AcDbEntity
  8
C4
100
AcDbCircle
 10
324.7881116954097
 20
747.8585807814661
 30
0.0
 40
2.0
100
AcDbArc
 50
45.00000000000057
 51
224.9999999999996
  0
ARC
  5
4A3
330
55D
100
AcDbEntity
  8
1外形線
100
AcDbCircle
 10
344.2948286945203
 20
767.3652977805907
 30
0.0
 40
2.0
100
AcDbArc
 50
0.0000000000065138
 51
45.00000000000892
  0
ARC
  5
4A4
330
55D
100
AcDbEntity
  8
1外形線
100
AcDbCircle
 10
344.2948286945274
 20
767.3652977805835
 30
0.0
 40
2.0
100
AcDbArc
 50
45.0
 51
90.0
  0
ARC
  5
4A5
330
55D
100
AcDbEntity
  8
1外形線
100
AcDbCircle
 10
350.1901555891913
 20
773.2606246752632
 30
0.0
 40
3.0
100
AcDbArc
 50
0.0000000000065138
 51
45.00000000000892
  0
ARC
  5
4A6
330
55D
100
AcDbEntity
  8
1外形線
100
AcDbCircle
 10
350.1901555891992
 20
773.2606246752554
 30
0.0
 40
3.0
100
AcDbArc
 50
45.0
 51
90.0
  0
ARC
  5
4A7
330
55D
100
AcDbEntity
  8
C4
100
AcDbCircle
 10
354.7881116954012
 20
777.8585807814743
 30
0.0
 40
5.0
100
AcDbArc
 50
0.0000000000065138
 51
45.00000000000865
  0
ARC
  5
4A8
330
55D
100
AcDbEntity
  8
1外形線
100
AcDbCircle
 10
354.0889810656117
 20
777.1594501516846
 30
0.0
 40
4.0
100
AcDbArc
 50
0.0000000000065138
 51
45.00000000000948
  0
ARC
  5
4A9
330
55D
100
AcDbEntity
  8
1外形線
100
AcDbCircle
 10
354.08898106562
 20
777.1594501516761
 30
0.0
 40
4.0
100
AcDbArc
 50
44.99999999999942
 51
90.0
  0
ARC
  5
4AA
330
55D
100
AcDbEntity
  8
C4
100
AcDbCircle
 10
354.7881116954098
 20
777.8585807814661
 30
0.0
 40
5.0
100
AcDbArc
 50
45.00000000000057
 51
90.0
  0
LINE
  5
4B1
330
55D
100
AcDbEntity
  8
1外形線
100
AcDbLine
 10
24.78811169540961
 20
483.858580781451
 30
0.0
 11
24.78811169540961
 21
842.8585807814663
 31
0.0
  0
ENDSEC
  0
SECTION
  2
OBJECTS
  0
DICTIONARY
  5
4FE
330
0
100
AcDbDictionary
281
     1
  3
ACAD_CIP_PREVIOUS_PRODUCT_INFO
350
571
  3
ACAD_COLOR
350
554
  3
ACAD_GROUP
350
4FF
  3
ACAD_LAYOUT
350
553
  3
ACAD_MATERIAL
350
502
  3
ACAD_MLEADERSTYLE
350
557
  3
ACAD_MLINESTYLE
350
550
  3
ACAD_PLOTSETTINGS
350
552
  3
ACAD_PLOTSTYLENAME
350
500
  3
ACAD_SCALELIST
350
534
  3
ACAD_TABLESTYLE
350
555
  3
ACAD_VISUALSTYLE
350
51B
  3
ACDB_RECOMPOSE_DATA
350
583
  3
AcDbVariableDictionary
350
578
  3
DWGPROPS
350
584
  0
DICTIONARY
  5
572
330
546
100
AcDbDictionary
280
     1
281
     1
  3
ADSK_XREC_LAYER_RECONCILED
360
573
  0
DICTIONARY
  5
574
330
562
100
AcDbDictionary
280
     1
281
     1
  3
ADSK_XREC_LAYER_RECONCILED
360
575
  0
DICTIONARY
  5
576
330
563
100
AcDbDictionary
280
     1
281
     1
  3
ADSK_XREC_LAYER_RECONCILED
360
577
  0
XRECORD
  5
571
102
{ACAD_REACTORS
330
4FE
102
}
330
4FE
100
AcDbXrecord
280
     1
300
ACDLT
300
2012
300
ACDLT_F_S
  0
DICTIONARY
  5
554
102
{ACAD_REACTORS
330
4FE
102
}
330
4FE
100
AcDbDictionary
281
     1
  0
DICTIONARY
  5
4FF
102
{ACAD_REACTORS
330
4FE
102
}
330
4FE
100
AcDbDictionary
281
     1
  0
DICTIONARY
  5
553
102
{ACAD_REACTORS
330
4FE
102
}
330
4FE
100
AcDbDictionary
281
     1
  3
Model
350
560
  3
レイアウト1
350
55C
  0
DICTIONARY
  5
502
102
{ACAD_REACTORS
330
4FE
102
}
330
4FE
100
AcDbDictionary
281
     1
  3
ByBlock
350
50B
  3
ByLayer
350
503
  3
Global
350
513
  0
DICTIONARY
  5
557
102
{ACAD_REACTORS
330
4FE
102
}
330
4FE
100
AcDbDictionary
281
     1
  3
Standard
350
558
  0
DICTIONARY
  5
550
102
{ACAD_REACTORS
330
4FE
102
}
330
4FE
100
AcDbDictionary
281
     1
  3
Standard
350
551
  0
DICTIONARY
  5
552
102
{ACAD_REACTORS
330
4FE
102
}
330
4FE
100
AcDbDictionary
281
     1
  0
ACDBDICTIONARYWDFLT
  5
500
102
{ACAD_REACTORS
330
4FE
102
}
330
4FE
100
AcDbDictionary
281
     1
  3
Normal
350
501
100
AcDbDictionaryWithDefault
340
501
  0
DICTIONARY
  5
534
102
{ACAD_REACTORS
330
4FE
102
}
330
4FE
100
AcDbDictionary
281
     1
  3
A0
350
535
  3
A1
350
536
  3
A2
350
537
  3
A3
350
538
  3
A4
350
539
  3
A5
350
53A
  3
A6
350
53B
  3
A7
350
53C
  3
A8
350
53D
  3
A9
350
53E
  3
B0
350
53F
  3
B1
350
540
  3
B2
350
541
  3
B3
350
542
  3
B4
350
543
  3
B5
350
544
  3
B6
350
545
  0
DICTIONARY
  5
555
102
{ACAD_REACTORS
330
4FE
102
}
330
4FE
100
AcDbDictionary
281
     1
  3
Standard
350
556
  0
DICTIONARY
  5
51B
102
{ACAD_REACTORS
330
4FE
102
}
330
4FE
100
AcDbDictionary
281
     1
  3
2dWireframe
350
521
  3
Basic
350
520
  3
Brighten
350
527
  3
ColorChange
350
52B
  3
Conceptual
350
524
  3
Dim
350
526
  3
EdgeColorOff
350
533
  3
Facepattern
350
52A
  3
Flat
350
51C
  3
FlatWithEdges
350
51D
  3
Gouraud
350
51E
  3
GouraudWithEdges
350
51F
  3
Hidden
350
523
  3
JitterOff
350
531
  3
Linepattern
350
529
  3
OverhangOff
350
532
  3
Realistic
350
525
  3
Shaded
350
530
  3
Shaded with edges
350
52F
  3
Shades of Gray
350
52C
  3
Sketchy
350
52D
  3
Thicken
350
528
  3
Wireframe
350
522
  3
X-Ray
350
52E
  0
XRECORD
  5
583
102
{ACAD_REACTORS
330
4FE
102
}
330
4FE
100
AcDbXrecord
280
     1
 90
        1
330
556
  0
DICTIONARY
  5
578
102
{ACAD_REACTORS
330
4FE
102
}
330
4FE
100
AcDbDictionary
281
     1
  3
CANNOSCALE
350
57B
  3
CMLEADERSTYLE
350
57A
  3
CTABLESTYLE
350
579
  3
DIMASSOC
350
57E
  3
INDEXCTL
350
57D
  3
SORTENTS
350
57C
  3
XCLIPFRAME
350
57F
  0
XRECORD
  5
584
102
{ACAD_REACTORS
330
4FE
102
}
330
4FE
100
AcDbXrecord
280
     1
  1
DWGPROPS COOKIE
  2

  3

  4

  6

  7

  8
yuki.nakashima
  9

300
=
301
=
302
=
303
=
304
=
305
=
306
=
307
=
308
=
309
=
 40
0.0012720023148148
 41
2452216.487680151
 42
2457282.605983206
  1

 90
        0
  0
XRECORD
  5
573
102
{ACAD_REACTORS
330
572
102
}
330
572
100
AcDbXrecord
280
     1
290
     1
  0
XRECORD
  5
575
102
{ACAD_REACTORS
330
574
102
}
330
574
100
AcDbXrecord
280
     1
290
     1
  0
XRECORD
  5
577
102
{ACAD_REACTORS
330
576
102
}
330
576
100
AcDbXrecord
280
     1
290
     1
  0
LAYOUT
  5
560
102
{ACAD_XDICTIONARY
360
5BC
102
}
102
{ACAD_REACTORS
330
553
102
}
330
553
100
AcDbPlotSettings
  1

  2
RICOH IPSiO SP C710
  4

  6

 40
0.0
 41
0.0
 42
0.0
 43
0.0
 44
0.0
 45
0.0
 46
0.0
 47
0.0
 48
0.0
 49
0.0
140
0.0
141
0.0
142
1.0
143
1.0
 70
  1712
 72
     0
 73
     0
 74
     0
  7

 75
     0
147
1.0
148
0.0
149
0.0
100
AcDbLayout
  1
Model
 70
     1
 71
     0
 10
0.0
 20
0.0
 11
12.0
 21
9.0
 12
0.0
 22
0.0
 32
0.0
 14
0.0
 24
0.0
 34
0.0
 15
0.0
 25
0.0
 35
0.0
146
0.0
 13
0.0
 23
0.0
 33
0.0
 16
1.0
 26
0.0
 36
0.0
 17
0.0
 27
1.0
 37
0.0
 76
     0
330
55D
331
561
  0
LAYOUT
  5
55C
102
{ACAD_XDICTIONARY
360
5BA
102
}
102
{ACAD_REACTORS
330
553
102
}
330
553
100
AcDbPlotSettings
  1

  2
RICOH IPSiO SP C710
  4

  6

 40
0.0
 41
0.0
 42
0.0
 43
0.0
 44
0.0
 45
0.0
 46
0.0
 47
0.0
 48
0.0
 49
0.0
140
0.0
141
0.0
142
1.0
143
1.0
 70
   688
 72
     0
 73
     0
 74
     5
  7

 75
    16
147
1.0
148
0.0
149
0.0
100
AcDbLayout
  1
レイアウト1
 70
     1
 71
     1
 10
0.0
 20
0.0
 11
420.0
 21
297.0
 12
0.0
 22
0.0
 32
0.0
 14
1.000000000000000E+20
 24
1.000000000000000E+20
 34
1.000000000000000E+20
 15
-1.000000000000000E+20
 25
-1.000000000000000E+20
 35
-1.000000000000000E+20
146
0.0
 13
0.0
 23
0.0
 33
0.0
 16
1.0
 26
0.0
 36
0.0
 17
0.0
 27
1.0
 37
0.0
 76
     0
330
559
  0
MATERIAL
  5
50B
102
{ACAD_XDICTIONARY
360
50C
102
}
102
{ACAD_REACTORS
330
502
102
}
330
502
100
AcDbMaterial
  1
ByBlock
 72
     0
 43
0.0208333333333333
 43
0.0
 43
0.0
 43
0.0
 43
0.0
 43
0.0208333333333333
 43
0.0
 43
0.0
 43
0.0
 43
0.0
 43
1.0
 43
0.0
 43
0.0
 43
0.0
 43
0.0
 43
1.0
 77
     0
 47
0.0208333333333333
 47
0.0
 47
0.0
 47
0.0
 47
0.0
 47
0.0208333333333333
 47
0.0
 47
0.0
 47
0.0
 47
0.0
 47
1.0
 47
0.0
 47
0.0
 47
0.0
 47
0.0
 47
1.0
171
     0
 49
0.0208333333333333
 49
0.0
 49
0.0
 49
0.0
 49
0.0
 49
0.0208333333333333
 49
0.0
 49
0.0
 49
0.0
 49
0.0
 49
1.0
 49
0.0
 49
0.0
 49
0.0
 49
0.0
 49
1.0
175
     0
142
0.0208333333333333
142
0.0
142
0.0
142
0.0
142
0.0
142
0.0208333333333333
142
0.0
142
0.0
142
0.0
142
0.0
142
1.0
142
0.0
142
0.0
142
0.0
142
0.0
142
1.0
179
     0
144
0.0208333333333333
144
0.0
144
0.0
144
0.0
144
0.0
144
0.0208333333333333
144
0.0
144
0.0
144
0.0
144
0.0
144
1.0
144
0.0
144
0.0
144
0.0
144
0.0
144
1.0
147
0.0208333333333333
147
0.0
147
0.0
147
0.0
147
0.0
147
0.0208333333333333
147
0.0
147
0.0
147
0.0
147
0.0
147
1.0
147
0.0
147
0.0
147
0.0
147
0.0
147
1.0
  0
MATERIAL
  5
503
102
{ACAD_XDICTIONARY
360
504
102
}
102
{ACAD_REACTORS
330
502
102
}
330
502
100
AcDbMaterial
  1
ByLayer
 72
     0
 43
0.0208333333333333
 43
0.0
 43
0.0
 43
0.0
 43
0.0
 43
0.0208333333333333
 43
0.0
 43
0.0
 43
0.0
 43
0.0
 43
1.0
 43
0.0
 43
0.0
 43
0.0
 43
0.0
 43
1.0
 77
     0
 47
0.0208333333333333
 47
0.0
 47
0.0
 47
0.0
 47
0.0
 47
0.0208333333333333
 47
0.0
 47
0.0
 47
0.0
 47
0.0
 47
1.0
 47
0.0
 47
0.0
 47
0.0
 47
0.0
 47
1.0
171
     0
 49
0.0208333333333333
 49
0.0
 49
0.0
 49
0.0
 49
0.0
 49
0.0208333333333333
 49
0.0
 49
0.0
 49
0.0
 49
0.0
 49
1.0
 49
0.0
 49
0.0
 49
0.0
 49
0.0
 49
1.0
175
     0
142
0.0208333333333333
142
0.0
142
0.0
142
0.0
142
0.0
142
0.0208333333333333
142
0.0
142
0.0
142
0.0
142
0.0
142
1.0
142
0.0
142
0.0
142
0.0
142
0.0
142
1.0
179
     0
144
0.0208333333333333
144
0.0
144
0.0
144
0.0
144
0.0
144
0.0208333333333333
144
0.0
144
0.0
144
0.0
144
0.0
144
1.0
144
0.0
144
0.0
144
0.0
144
0.0
144
1.0
147
0.0208333333333333
147
0.0
147
0.0
147
0.0
147
0.0
147
0.0208333333333333
147
0.0
147
0.0
147
0.0
147
0.0
147
1.0
147
0.0
147
0.0
147
0.0
147
0.0
147
1.0
  0
MATERIAL
  5
513
102
{ACAD_XDICTIONARY
360
514
102
}
102
{ACAD_REACTORS
330
502
102
}
330
502
100
AcDbMaterial
  1
Global
 72
     0
 43
0.0208333333333333
 43
0.0
 43
0.0
 43
0.0
 43
0.0
 43
0.0208333333333333
 43
0.0
 43
0.0
 43
0.0
 43
0.0
 43
1.0
 43
0.0
 43
0.0
 43
0.0
 43
0.0
 43
1.0
 77
     0
 47
0.0208333333333333
 47
0.0
 47
0.0
 47
0.0
 47
0.0
 47
0.0208333333333333
 47
0.0
 47
0.0
 47
0.0
 47
0.0
 47
1.0
 47
0.0
 47
0.0
 47
0.0
 47
0.0
 47
1.0
171
     0
 49
0.0208333333333333
 49
0.0
 49
0.0
 49
0.0
 49
0.0
 49
0.0208333333333333
 49
0.0
 49
0.0
 49
0.0
 49
0.0
 49
1.0
 49
0.0
 49
0.0
 49
0.0
 49
0.0
 49
1.0
175
     0
142
0.0208333333333333
142
0.0
142
0.0
142
0.0
142
0.0
142
0.0208333333333333
142
0.0
142
0.0
142
0.0
142
0.0
142
1.0
142
0.0
142
0.0
142
0.0
142
0.0
142
1.0
179
     0
144
0.0208333333333333
144
0.0
144
0.0
144
0.0
144
0.0
144
0.0208333333333333
144
0.0
144
0.0
144
0.0
144
0.0
144
1.0
144
0.0
144
0.0
144
0.0
144
0.0
144
1.0
147
0.0208333333333333
147
0.0
147
0.0
147
0.0
147
0.0
147
0.0208333333333333
147
0.0
147
0.0
147
0.0
147
0.0
147
1.0
147
0.0
147
0.0
147
0.0
147
0.0
147
1.0
  0
MLEADERSTYLE
  5
558
102
{ACAD_REACTORS
330
557
102
}
330
557
100
AcDbMLeaderStyle
170
     2
171
     1
172
     0
 90
        2
 40
0.0
 41
0.0
173
     1
 91
-1056964608
340
54C
 92
       -2
290
     1
 42
0.09
291
     1
 43
0.36
  3
Standard
 44
0.18
300

342
547
174
     1
178
     6
175
     1
176
     0
 93
-1056964608
 45
0.18
292
     0
297
     0
 46
0.18
 94
-1056964608
 47
1.0
 49
1.0
140
1.0
293
     1
141
0.0
294
     1
177
     0
142
1.0
295
     0
296
     0
143
0.125
1001
ACAD_MLEADERVER
1070
     2
  0
MLINESTYLE
  5
551
102
{ACAD_REACTORS
330
550
102
}
330
550
100
AcDbMlineStyle
  2
STANDARD
 70
     0
  3

 62
   256
 51
90.0
 52
90.0
 71
     2
 49
0.5
 62
   256
  6
BYLAYER
 49
-0.5
 62
   256
  6
BYLAYER
  0
ACDBPLACEHOLDER
  5
501
102
{ACAD_REACTORS
330
500
102
}
330
500
  0
SCALE
  5
535
102
{ACAD_REACTORS
330
534
102
}
330
534
100
AcDbScale
 70
     0
300
1:1
140
1.0
141
1.0
290
     1
  0
SCALE
  5
536
102
{ACAD_REACTORS
330
534
102
}
330
534
100
AcDbScale
 70
     0
300
1/128" = 1'-0"
140
0.0078125
141
12.0
290
     0
  0
SCALE
  5
537
102
{ACAD_REACTORS
330
534
102
}
330
534
100
AcDbScale
 70
     0
300
1/64" = 1'-0"
140
0.015625
141
12.0
290
     0
  0
SCALE
  5
538
102
{ACAD_REACTORS
330
534
102
}
330
534
100
AcDbScale
 70
     0
300
1/32" = 1'-0"
140
0.03125
141
12.0
290
     0
  0
SCALE
  5
539
102
{ACAD_REACTORS
330
534
102
}
330
534
100
AcDbScale
 70
     0
300
1/16" = 1'-0"
140
0.0625
141
12.0
290
     0
  0
SCALE
  5
53A
102
{ACAD_REACTORS
330
534
102
}
330
534
100
AcDbScale
 70
     0
300
3/32" = 1'-0"
140
0.09375
141
12.0
290
     0
  0
SCALE
  5
53B
102
{ACAD_REACTORS
330
534
102
}
330
534
100
AcDbScale
 70
     0
300
1/8" = 1'-0"
140
0.125
141
12.0
290
     0
  0
SCALE
  5
53C
102
{ACAD_REACTORS
330
534
102
}
330
534
100
AcDbScale
 70
     0
300
3/16" = 1'-0"
140
0.1875
141
12.0
290
     0
  0
SCALE
  5
53D
102
{ACAD_REACTORS
330
534
102
}
330
534
100
AcDbScale
 70
     0
300
1/4" = 1'-0"
140
0.25
141
12.0
290
     0
  0
SCALE
  5
53E
102
{ACAD_REACTORS
330
534
102
}
330
534
100
AcDbScale
 70
     0
300
3/8" = 1'-0"
140
0.375
141
12.0
290
     0
  0
SCALE
  5
53F
102
{ACAD_REACTORS
330
534
102
}
330
534
100
AcDbScale
 70
     0
300
1/2" = 1'-0"
140
0.5
141
12.0
290
     0
  0
SCALE
  5
540
102
{ACAD_REACTORS
330
534
102
}
330
534
100
AcDbScale
 70
     0
300
3/4" = 1'-0"
140
0.75
141
12.0
290
     0
  0
SCALE
  5
541
102
{ACAD_REACTORS
330
534
102
}
330
534
100
AcDbScale
 70
     0
300
1" = 1'-0"
140
1.0
141
12.0
290
     0
  0
SCALE
  5
542
102
{ACAD_REACTORS
330
534
102
}
330
534
100
AcDbScale
 70
     0
300
1-1/2" = 1'-0"
140
1.5
141
12.0
290
     0
  0
SCALE
  5
543
102
{ACAD_REACTORS
330
534
102
}
330
534
100
AcDbScale
 70
     0
300
3" = 1'-0"
140
3.0
141
12.0
290
     0
  0
SCALE
  5
544
102
{ACAD_REACTORS
330
534
102
}
330
534
100
AcDbScale
 70
     0
300
6" = 1'-0"
140
6.0
141
12.0
290
     0
  0
SCALE
  5
545
102
{ACAD_REACTORS
330
534
102
}
330
534
100
AcDbScale
 70
     0
300
1'-0" = 1'-0"
140
12.0
141
12.0
290
     0
  0
TABLESTYLE
  5
556
102
{ACAD_XDICTIONARY
360
581
102
}
102
{ACAD_REACTORS
330
555
102
}
330
555
100
AcDbTableStyle
  3
Standard
 70
     0
 71
     0
 40
0.06
 41
0.06
280
     0
281
     0
  7
STANDARD
140
0.18
170
     2
 62
     0
 63
     7
283
     0
274
    -2
284
     1
 64
     0
275
    -2
285
     1
 65
     0
276
    -2
286
     1
 66
     0
277
    -2
287
     1
 67
     0
278
    -2
288
     1
 68
     0
279
    -2
289
     1
 69
     0
  7
STANDARD
140
0.25
170
     5
 62
     0
 63
     7
283
     0
274
    -2
284
     1
 64
     0
275
    -2
285
     1
 65
     0
276
    -2
286
     1
 66
     0
277
    -2
287
     1
 67
     0
278
    -2
288
     1
 68
     0
279
    -2
289
     1
 69
     0
  7
STANDARD
140
0.18
170
     5
 62
     0
 63
     7
283
     0
274
    -2
284
     1
 64
     0
275
    -2
285
     1
 65
     0
276
    -2
286
     1
 66
     0
277
    -2
287
     1
 67
     0
278
    -2
288
     1
 68
     0
279
    -2
289
     1
 69
     0
  0
VISUALSTYLE
  5
521
102
{ACAD_XDICTIONARY
360
592
102
}
102
{ACAD_REACTORS
330
51B
102
}
330
51B
100
AcDbVisualStyle
  2
2dWireframe
 70
     4
 71
     0
 72
     2
 73
     0
 90
        0
 40
-0.6
 41
-30.0
 62
     5
 63
     7
 74
     1
 91
        4
 64
     7
 65
   257
 75
     1
175
     1
 42
1.0
 92
        0
 66
   257
 43
1.0
 76
     1
 77
     6
 78
     2
 67
     7
 79
     5
170
     0
171
     0
290
     0
174
     0
 93
        1
 44
0.0
173
     0
291
     0
 45
0.0
1001
ACAD
1000
AcDbSavedByObjectVersion
1070
     0
  0
VISUALSTYLE
  5
520
102
{ACAD_XDICTIONARY
360
590
102
}
102
{ACAD_REACTORS
330
51B
102
}
330
51B
100
AcDbVisualStyle
  2
Basic
 70
     7
 71
     1
 72
     0
 73
     1
 90
        0
 40
-0.6
 41
-30.0
 62
     5
 63
     7
 74
     0
 91
        4
 64
     7
 65
   257
 75
     1
175
     1
 42
1.0
 92
        8
 66
     7
 43
1.0
 76
     1
 77
     6
 78
     2
 67
     7
 79
     5
170
     0
171
     0
290
     0
174
     0
 93
        1
 44
0.0
173
     0
291
     1
 45
0.0
1001
ACAD
1000
AcDbSavedByObjectVersion
1070
     0
  0
VISUALSTYLE
  5
527
102
{ACAD_XDICTIONARY
360
59E
102
}
102
{ACAD_REACTORS
330
51B
102
}
330
51B
100
AcDbVisualStyle
  2
Brighten
 70
    12
 71
     2
 72
     2
 73
     0
 90
        0
 40
-0.6
 41
-30.0
 62
     5
 63
     7
 74
     1
 91
        4
 64
     7
 65
   257
 75
     1
175
     1
 42
1.0
 92
        8
 66
     7
 43
1.0
 76
     1
 77
     6
 78
     2
 67
     7
 79
     5
170
     0
171
     0
290
     0
174
     0
 93
        1
 44
50.0
173
     0
291
     1
 45
0.0
1001
ACAD
1000
AcDbSavedByObjectVersion
1070
     0
  0
VISUALSTYLE
  5
52B
102
{ACAD_XDICTIONARY
360
5A6
102
}
102
{ACAD_REACTORS
330
51B
102
}
330
51B
100
AcDbVisualStyle
  2
ColorChange
 70
    16
 71
     2
 72
     2
 73
     3
 90
        0
 40
-0.6
 41
-30.0
 62
     5
 63
     8
 74
     1
 91
        4
 64
     7
 65
   257
 75
     1
175
     1
 42
1.0
 92
        8
 66
     8
 43
1.0
 76
     1
 77
     6
 78
     2
 67
     7
 79
     5
170
     0
171
     0
290
     0
174
     0
 93
        1
 44
0.0
173
     0
291
     1
 45
0.0
1001
ACAD
1000
AcDbSavedByObjectVersion
1070
     0
  0
VISUALSTYLE
  5
524
102
{ACAD_XDICTIONARY
360
598
102
}
102
{ACAD_REACTORS
330
51B
102
}
330
51B
100
AcDbVisualStyle
  2
Conceptual
 70
     9
 71
     3
 72
     2
 73
     0
 90
        0
 40
-0.6
 41
-30.0
 62
     5
 63
     7
 74
     2
 91
        2
 64
     7
 65
   257
 75
     1
175
     1
 42
179.0
 92
        8
 66
     7
 43
1.0
 76
     1
 77
     6
 78
     2
 67
     7
 79
     3
170
     0
171
     0
290
     0
174
     0
 93
        1
 44
0.0
173
     0
291
     0
 45
0.0
1001
ACAD
1000
AcDbSavedByObjectVersion
1070
     0
  0
VISUALSTYLE
  5
526
102
{ACAD_XDICTIONARY
360
59C
102
}
102
{ACAD_REACTORS
330
51B
102
}
330
51B
100
AcDbVisualStyle
  2
Dim
 70
    11
 71
     2
 72
     2
 73
     0
 90
        0
 40
-0.6
 41
-30.0
 62
     5
 63
     7
 74
     1
 91
        4
 64
     7
 65
   257
 75
     1
175
     1
 42
1.0
 92
        8
 66
     7
 43
1.0
 76
     1
 77
     6
 78
     2
 67
     7
 79
     5
170
     0
171
     0
290
     0
174
     0
 93
        1
 44
-50.0
173
     0
291
     1
 45
0.0
1001
ACAD
1000
AcDbSavedByObjectVersion
1070
     0
  0
VISUALSTYLE
  5
533
102
{ACAD_XDICTIONARY
360
5B6
102
}
102
{ACAD_REACTORS
330
51B
102
}
330
51B
100
AcDbVisualStyle
  2
EdgeColorOff
 70
    22
 71
     2
 72
     2
 73
     0
 90
        0
 40
-0.6
 41
-30.0
 62
     5
 63
     7
 74
     1
 91
        4
 64
     7
 65
   257
 75
     1
175
     1
 42
1.0
 92
        8
 66
     7
 43
1.0
 76
     1
 77
     6
 78
     2
 67
     7
 79
     5
170
     0
171
     0
290
     0
174
     0
 93
        1
 44
0.0
173
     0
291
     1
 45
0.0
1001
ACAD
1000
AcDbSavedByObjectVersion
1070
     0
  0
VISUALSTYLE
  5
52A
102
{ACAD_XDICTIONARY
360
5A4
102
}
102
{ACAD_REACTORS
330
51B
102
}
330
51B
100
AcDbVisualStyle
  2
Facepattern
 70
    15
 71
     2
 72
     2
 73
     0
 90
        0
 40
-0.6
 41
-30.0
 62
     5
 63
     7
 74
     1
 91
        4
 64
     7
 65
   257
 75
     1
175
     1
 42
1.0
 92
        8
 66
     7
 43
1.0
 76
     1
 77
     6
 78
     2
 67
     7
 79
     5
170
     0
171
     0
290
     0
174
     0
 93
        1
 44
0.0
173
     0
291
     1
 45
0.0
1001
ACAD
1000
AcDbSavedByObjectVersion
1070
     0
  0
VISUALSTYLE
  5
51C
102
{ACAD_XDICTIONARY
360
588
102
}
102
{ACAD_REACTORS
330
51B
102
}
330
51B
100
AcDbVisualStyle
  2
Flat
 70
     0
 71
     2
 72
     1
 73
     1
 90
        2
 40
-0.6
 41
30.0
 62
     5
 63
     7
 74
     0
 91
        0
 64
     7
 65
   257
 75
     1
175
     1
 42
1.0
 92
        8
 66
     7
 43
1.0
 76
     1
 77
     6
 78
     2
 67
     7
 79
     5
170
     0
171
     0
290
     0
174
     0
 93
       13
 44
0.0
173
     0
291
     1
 45
0.0
1001
ACAD
1000
AcDbSavedByObjectVersion
1070
     0
  0
VISUALSTYLE
  5
51D
102
{ACAD_XDICTIONARY
360
58A
102
}
102
{ACAD_REACTORS
330
51B
102
}
330
51B
100
AcDbVisualStyle
  2
FlatWithEdges
 70
     1
 71
     2
 72
     1
 73
     1
 90
        2
 40
-0.6
 41
30.0
 62
     5
 63
     7
 74
     1
 91
        0
 64
     7
 65
   257
 75
     1
175
     1
 42
1.0
 92
        0
 66
   257
 43
1.0
 76
     1
 77
     6
 78
     2
 67
     7
 79
     5
170
     0
171
     0
290
     0
174
     0
 93
       13
 44
0.0
173
     0
291
     1
 45
0.0
1001
ACAD
1000
AcDbSavedByObjectVersion
1070
     0
  0
VISUALSTYLE
  5
51E
102
{ACAD_XDICTIONARY
360
58C
102
}
102
{ACAD_REACTORS
330
51B
102
}
330
51B
100
AcDbVisualStyle
  2
Gouraud
 70
     2
 71
     2
 72
     2
 73
     1
 90
        2
 40
-0.6
 41
30.0
 62
     5
 63
     7
 74
     0
 91
        0
 64
     7
 65
   257
 75
     1
175
     1
 42
1.0
 92
        0
 66
     7
 43
1.0
 76
     1
 77
     6
 78
     2
 67
     7
 79
     5
170
     0
171
     0
290
     0
174
     0
 93
       13
 44
0.0
173
     0
291
     1
 45
0.0
1001
ACAD
1000
AcDbSavedByObjectVersion
1070
     0
  0
VISUALSTYLE
  5
51F
102
{ACAD_XDICTIONARY
360
58E
102
}
102
{ACAD_REACTORS
330
51B
102
}
330
51B
100
AcDbVisualStyle
  2
GouraudWithEdges
 70
     3
 71
     2
 72
     2
 73
     1
 90
        2
 40
-0.6
 41
30.0
 62
     5
 63
     7
 74
     1
 91
        0
 64
     7
 65
   257
 75
     1
175
     1
 42
1.0
 92
        0
 66
   257
 43
1.0
 76
     1
 77
     6
 78
     2
 67
     7
 79
     5
170
     0
171
     0
290
     0
174
     0
 93
       13
 44
0.0
173
     0
291
     1
 45
0.0
1001
ACAD
1000
AcDbSavedByObjectVersion
1070
     0
  0
VISUALSTYLE
  5
523
102
{ACAD_XDICTIONARY
360
596
102
}
102
{ACAD_REACTORS
330
51B
102
}
330
51B
100
AcDbVisualStyle
  2
Hidden
 70
     6
 71
     1
 72
     2
 73
     2
 90
        0
 40
-0.6
 41
-30.0
 62
     5
 63
     7
 74
     2
 91
        2
 64
     7
 65
   257
 75
     2
175
     1
 42
40.0
 92
        0
 66
   257
 43
1.0
 76
     1
 77
     6
 78
     2
 67
     7
 79
     3
170
     0
171
     0
290
     0
174
     0
 93
        1
 44
0.0
173
     0
291
     0
 45
0.0
1001
ACAD
1000
AcDbSavedByObjectVersion
1070
     0
  0
VISUALSTYLE
  5
531
102
{ACAD_XDICTIONARY
360
5B2
102
}
102
{ACAD_REACTORS
330
51B
102
}
330
51B
100
AcDbVisualStyle
  2
JitterOff
 70
    20
 71
     2
 72
     2
 73
     0
 90
        0
 40
-0.6
 41
-30.0
 62
     5
 63
     7
 74
     1
 91
        4
 64
     7
 65
   257
 75
     1
175
     1
 42
1.0
 92
       10
 66
     7
 43
1.0
 76
     1
 77
     6
 78
     2
 67
     7
 79
     5
170
     0
171
     0
290
     0
174
     0
 93
        1
 44
0.0
173
     0
291
     1
 45
0.0
1001
ACAD
1000
AcDbSavedByObjectVersion
1070
     0
  0
VISUALSTYLE
  5
529
102
{ACAD_XDICTIONARY
360
5A2
102
}
102
{ACAD_REACTORS
330
51B
102
}
330
51B
100
AcDbVisualStyle
  2
Linepattern
 70
    14
 71
     2
 72
     2
 73
     0
 90
        0
 40
-0.6
 41
-30.0
 62
     5
 63
     7
 74
     1
 91
        4
 64
     7
 65
   257
 75
     7
175
     7
 42
1.0
 92
        8
 66
     7
 43
1.0
 76
     1
 77
     6
 78
     2
 67
     7
 79
     5
170
     0
171
     0
290
     0
174
     0
 93
        1
 44
0.0
173
     0
291
     1
 45
0.0
1001
ACAD
1000
AcDbSavedByObjectVersion
1070
     0
  0
VISUALSTYLE
  5
532
102
{ACAD_XDICTIONARY
360
5B4
102
}
102
{ACAD_REACTORS
330
51B
102
}
330
51B
100
AcDbVisualStyle
  2
OverhangOff
 70
    21
 71
     2
 72
     2
 73
     0
 90
        0
 40
-0.6
 41
-30.0
 62
     5
 63
     7
 74
     1
 91
        4
 64
     7
 65
   257
 75
     1
175
     1
 42
1.0
 92
        9
 66
     7
 43
1.0
 76
     1
 77
     6
 78
     2
 67
     7
 79
     5
170
     0
171
     0
290
     0
174
     0
 93
        1
 44
0.0
173
     0
291
     1
 45
0.0
1001
ACAD
1000
AcDbSavedByObjectVersion
1070
     0
  0
VISUALSTYLE
  5
525
102
{ACAD_XDICTIONARY
360
59A
102
}
102
{ACAD_REACTORS
330
51B
102
}
330
51B
100
AcDbVisualStyle
  2
Realistic
 70
     8
 71
     2
 72
     3
 73
     0
 90
        2
 40
-0.6
 41
30.0
 62
     5
 63
     7
 74
     0
 91
        0
 64
     7
 65
   257
 75
     1
175
     1
 42
1.0
 92
        8
 66
   257
 43
1.0
 76
     1
 77
     6
 78
     2
 67
     7
 79
     3
170
     0
171
     0
290
     0
174
     0
 93
       13
 44
0.0
173
     0
291
     0
 45
0.0
1001
ACAD
1000
AcDbSavedByObjectVersion
1070
     0
  0
VISUALSTYLE
  5
530
102
{ACAD_XDICTIONARY
360
5B0
102
}
102
{ACAD_REACTORS
330
51B
102
}
330
51B
100
AcDbVisualStyle
  2
Shaded
 70
    27
 71
     2
 72
     2
 73
     1
 90
        2
 40
-0.6
 41
30.0
 62
     5
 63
     7
 74
     0
 91
        4
 64
     7
 65
   257
 75
     1
175
     1
 42
1.0
 92
        8
 66
   257
 43
1.0
 76
     1
 77
     6
 78
     2
 67
     8
 79
     3
170
     0
171
     0
290
     0
174
     0
 93
        5
 44
0.0
173
     0
291
     0
 45
0.0
1001
ACAD
1000
AcDbSavedByObjectVersion
1070
     0
  0
VISUALSTYLE
  5
52F
102
{ACAD_XDICTIONARY
360
5AE
102
}
102
{ACAD_REACTORS
330
51B
102
}
330
51B
100
AcDbVisualStyle
  2
Shaded with edges
 70
    26
 71
     2
 72
     2
 73
     1
 90
        2
 40
-0.6
 41
30.0
 62
     5
 63
     7
 74
     1
 91
       10
 64
     7
 65
   257
 75
     2
175
     1
 42
1.0
 92
        8
 66
   257
 43
1.0
 76
     1
 77
     6
 78
     2
 67
     7
 79
     3
170
     0
171
     0
290
     0
174
     0
 93
        5
 44
0.0
173
     0
291
     0
 45
0.0
1001
ACAD
1000
AcDbSavedByObjectVersion
1070
     0
  0
VISUALSTYLE
  5
52C
102
{ACAD_XDICTIONARY
360
5A8
102
}
102
{ACAD_REACTORS
330
51B
102
}
330
51B
100
AcDbVisualStyle
  2
Shades of Gray
 70
    23
 71
     2
 72
     2
 73
     3
 90
        0
 40
-0.6
 41
-30.0
 62
     5
 63
     7
 74
     2
 91
        2
 64
     7
 65
     7
 75
     1
175
     1
 42
40.0
 92
        8
 66
     7
 43
1.0
 76
     1
 77
     6
 78
     2
 67
     7
 79
     3
170
     0
171
     0
290
     0
174
     0
 93
        1
 44
0.0
173
     0
291
     0
 45
0.0
1001
ACAD
1000
AcDbSavedByObjectVersion
1070
     0
  0
VISUALSTYLE
  5
52D
102
{ACAD_XDICTIONARY
360
5AA
102
}
102
{ACAD_REACTORS
330
51B
102
}
330
51B
100
AcDbVisualStyle
  2
Sketchy
 70
    24
 71
     1
 72
     2
 73
     2
 90
        0
 40
-0.6
 41
-30.0
 62
     5
 63
     7
 74
     2
 91
        2
 64
     7
 65
     7
 75
     1
175
     1
 42
40.0
 92
       11
 66
     7
 43
1.0
 76
     1
 77
     6
 78
     2
 67
     7
 79
     6
170
     0
171
     0
290
     0
174
     0
 93
        1
 44
0.0
173
     0
291
     0
 45
0.0
1001
ACAD
1000
AcDbSavedByObjectVersion
1070
     0
  0
VISUALSTYLE
  5
528
102
{ACAD_XDICTIONARY
360
5A0
102
}
102
{ACAD_REACTORS
330
51B
102
}
330
51B
100
AcDbVisualStyle
  2
Thicken
 70
    13
 71
     2
 72
     2
 73
     0
 90
        0
 40
-0.6
 41
-30.0
 62
     5
 63
     7
 74
     1
 91
        4
 64
     7
 65
   257
 75
     1
175
     1
 42
1.0
 92
       12
 66
     7
 43
1.0
 76
     1
 77
     6
 78
     2
 67
     7
 79
     5
170
     0
171
     0
290
     0
174
     0
 93
        1
 44
0.0
173
     0
291
     1
 45
0.0
1001
ACAD
1000
AcDbSavedByObjectVersion
1070
     0
  0
VISUALSTYLE
  5
522
102
{ACAD_XDICTIONARY
360
594
102
}
102
{ACAD_REACTORS
330
51B
102
}
330
51B
100
AcDbVisualStyle
  2
Wireframe
 70
     5
 71
     0
 72
     2
 73
     0
 90
        0
 40
-0.6
 41
-30.0
 62
     5
 63
     7
 74
     1
 91
        4
 64
     7
 65
   257
 75
     1
175
     1
 42
1.0
 92
        0
 66
   257
 43
1.0
 76
     1
 77
     6
 78
     2
 67
     7
 79
     3
170
     0
171
     0
290
     0
174
     0
 93
        1
 44
0.0
173
     0
291
     0
 45
0.0
1001
ACAD
1000
AcDbSavedByObjectVersion
1070
     0
  0
VISUALSTYLE
  5
52E
102
{ACAD_XDICTIONARY
360
5AC
102
}
102
{ACAD_REACTORS
330
51B
102
}
330
51B
100
AcDbVisualStyle
  2
X-Ray
 70
    25
 71
     2
 72
     2
 73
     1
 90
        1
 40
0.5
 41
-30.0
 62
     5
 63
     7
 74
     1
 91
        0
 64
     7
 65
   257
 75
     1
175
     1
 42
1.0
 92
        8
 66
     7
 43
1.0
 76
     1
 77
     6
 78
     2
 67
     7
 79
     3
170
     0
171
     0
290
     0
174
     0
 93
       13
 44
0.0
173
     0
291
     0
 45
0.0
1001
ACAD
1000
AcDbSavedByObjectVersion
1070
     0
  0
DICTIONARYVAR
  5
57B
102
{ACAD_REACTORS
330
578
102
}
330
578
100
DictionaryVariables
280
     0
  1
1:1
  0
DICTIONARYVAR
  5
57A
102
{ACAD_REACTORS
330
578
102
}
330
578
100
DictionaryVariables
280
     0
  1
STANDARD
  0
DICTIONARYVAR
  5
579
102
{ACAD_REACTORS
330
578
102
}
330
578
100
DictionaryVariables
280
     0
  1
STANDARD
  0
DICTIONARYVAR
  5
57E
102
{ACAD_REACTORS
330
578
102
}
330
578
100
DictionaryVariables
280
     0
  1
1
  0
DICTIONARYVAR
  5
57D
102
{ACAD_REACTORS
330
578
102
}
330
578
100
DictionaryVariables
280
     0
  1
0
  0
DICTIONARYVAR
  5
57C
102
{ACAD_REACTORS
330
578
102
}
330
578
100
DictionaryVariables
280
     0
  1
127
  0
DICTIONARYVAR
  5
57F
102
{ACAD_REACTORS
330
578
102
}
330
578
100
DictionaryVariables
280
     0
  1
2
  0
DICTIONARY
  5
5BC
330
560
100
AcDbDictionary
280
     1
281
     1
  3
ACAD_XREC_ROUNDTRIP
360
5BD
  0
DICTIONARY
  5
5BA
330
55C
100
AcDbDictionary
280
     1
281
     1
  3
ACAD_XREC_ROUNDTRIP
360
5BB
  0
DICTIONARY
  5
50C
330
50B
100
AcDbDictionary
280
     1
281
     1
  3
ACAD_XREC_ROUNDTRIP
360
586
  3
BUMPTILE
360
50E
  3
DIFFUSETILE
360
50D
  3
OPACITYTILE
360
511
  3
REFLECTIONTILE
360
510
  3
REFRACTIONTILE
360
512
  3
SPECULARTILE
360
50F
  0
DICTIONARY
  5
504
330
503
100
AcDbDictionary
280
     1
281
     1
  3
ACAD_XREC_ROUNDTRIP
360
585
  3
BUMPTILE
360
506
  3
DIFFUSETILE
360
505
  3
OPACITYTILE
360
509
  3
REFLECTIONTILE
360
508
  3
REFRACTIONTILE
360
50A
  3
SPECULARTILE
360
507
  0
DICTIONARY
  5
514
330
513
100
AcDbDictionary
280
     1
281
     1
  3
ACAD_XREC_ROUNDTRIP
360
587
  3
BUMPTILE
360
516
  3
DIFFUSETILE
360
515
  3
OPACITYTILE
360
519
  3
REFLECTIONTILE
360
518
  3
REFRACTIONTILE
360
51A
  3
SPECULARTILE
360
517
  0
DICTIONARY
  5
581
330
556
100
AcDbDictionary
280
     1
281
     1
  3
ACAD_ROUNDTRIP_2008_TABLESTYLE_CELLSTYLEMAP
360
582
  3
ACAD_XREC_ROUNDTRIP
360
5B8
  0
DICTIONARY
  5
592
330
521
100
AcDbDictionary
280
     1
281
     1
  3
ACAD_XREC_ROUNDTRIP
360
593
  0
DICTIONARY
  5
590
330
520
100
AcDbDictionary
280
     1
281
     1
  3
ACAD_XREC_ROUNDTRIP
360
591
  0
DICTIONARY
  5
59E
330
527
100
AcDbDictionary
280
     1
281
     1
  3
ACAD_XREC_ROUNDTRIP
360
59F
  0
DICTIONARY
  5
5A6
330
52B
100
AcDbDictionary
280
     1
281
     1
  3
ACAD_XREC_ROUNDTRIP
360
5A7
  0
DICTIONARY
  5
598
330
524
100
AcDbDictionary
280
     1
281
     1
  3
ACAD_XREC_ROUNDTRIP
360
599
  0
DICTIONARY
  5
59C
330
526
100
AcDbDictionary
280
     1
281
     1
  3
ACAD_XREC_ROUNDTRIP
360
59D
  0
DICTIONARY
  5
5B6
330
533
100
AcDbDictionary
280
     1
281
     1
  3
ACAD_XREC_ROUNDTRIP
360
5B7
  0
DICTIONARY
  5
5A4
330
52A
100
AcDbDictionary
280
     1
281
     1
  3
ACAD_XREC_ROUNDTRIP
360
5A5
  0
DICTIONARY
  5
588
330
51C
100
AcDbDictionary
280
     1
281
     1
  3
ACAD_XREC_ROUNDTRIP
360
589
  0
DICTIONARY
  5
58A
330
51D
100
AcDbDictionary
280
     1
281
     1
  3
ACAD_XREC_ROUNDTRIP
360
58B
  0
DICTIONARY
  5
58C
330
51E
100
AcDbDictionary
280
     1
281
     1
  3
ACAD_XREC_ROUNDTRIP
360
58D
  0
DICTIONARY
  5
58E
330
51F
100
AcDbDictionary
280
     1
281
     1
  3
ACAD_XREC_ROUNDTRIP
360
58F
  0
DICTIONARY
  5
596
330
523
100
AcDbDictionary
280
     1
281
     1
  3
ACAD_XREC_ROUNDTRIP
360
597
  0
DICTIONARY
  5
5B2
330
531
100
AcDbDictionary
280
     1
281
     1
  3
ACAD_XREC_ROUNDTRIP
360
5B3
  0
DICTIONARY
  5
5A2
330
529
100
AcDbDictionary
280
     1
281
     1
  3
ACAD_XREC_ROUNDTRIP
360
5A3
  0
DICTIONARY
  5
5B4
330
532
100
AcDbDictionary
280
     1
281
     1
  3
ACAD_XREC_ROUNDTRIP
360
5B5
  0
DICTIONARY
  5
59A
330
525
100
AcDbDictionary
280
     1
281
     1
  3
ACAD_XREC_ROUNDTRIP
360
59B
  0
DICTIONARY
  5
5B0
330
530
100
AcDbDictionary
280
     1
281
     1
  3
ACAD_XREC_ROUNDTRIP
360
5B1
  0
DICTIONARY
  5
5AE
330
52F
100
AcDbDictionary
280
     1
281
     1
  3
ACAD_XREC_ROUNDTRIP
360
5AF
  0
DICTIONARY
  5
5A8
330
52C
100
AcDbDictionary
280
     1
281
     1
  3
ACAD_XREC_ROUNDTRIP
360
5A9
  0
DICTIONARY
  5
5AA
330
52D
100
AcDbDictionary
280
     1
281
     1
  3
ACAD_XREC_ROUNDTRIP
360
5AB
  0
DICTIONARY
  5
5A0
330
528
100
AcDbDictionary
280
     1
281
     1
  3
ACAD_XREC_ROUNDTRIP
360
5A1
  0
DICTIONARY
  5
594
330
522
100
AcDbDictionary
280
     1
281
     1
  3
ACAD_XREC_ROUNDTRIP
360
595
  0
DICTIONARY
  5
5AC
330
52E
100
AcDbDictionary
280
     1
281
     1
  3
ACAD_XREC_ROUNDTRIP
360
5AD
  0
XRECORD
  5
5BD
102
{ACAD_REACTORS
330
5BC
102
}
330
5BC
100
AcDbXrecord
280
     1
102
SHADEPLOT
 70
     0
102
SHADEPLOTRESLEVEL
 70
     2
102
SHADEPLOTCUSTOMDPI
 70
   300
  0
XRECORD
  5
5BB
102
{ACAD_REACTORS
330
5BA
102
}
330
5BA
100
AcDbXrecord
280
     1
102
SHADEPLOT
 70
     0
102
SHADEPLOTRESLEVEL
 70
     2
102
SHADEPLOTCUSTOMDPI
 70
   300
  0
XRECORD
  5
586
102
{ACAD_REACTORS
330
50C
102
}
330
50C
100
AcDbXrecord
280
     1
102
MATERIAL
148
0.0
149
0.0
149
0.0
 93
        0
 94
      127
282
     0
 72
     0
 77
     0
171
     0
175
     0
179
     0
273
     0
  0
XRECORD
  5
50E
102
{ACAD_REACTORS
330
50C
102
}
330
50C
100
AcDbXrecord
280
     1
270
     1
271
     1
  0
XRECORD
  5
50D
102
{ACAD_REACTORS
330
50C
102
}
330
50C
100
AcDbXrecord
280
     1
270
     1
271
     1
  0
XRECORD
  5
511
102
{ACAD_REACTORS
330
50C
102
}
330
50C
100
AcDbXrecord
280
     1
270
     1
271
     1
  0
XRECORD
  5
510
102
{ACAD_REACTORS
330
50C
102
}
330
50C
100
AcDbXrecord
280
     1
270
     1
271
     1
  0
XRECORD
  5
512
102
{ACAD_REACTORS
330
50C
102
}
330
50C
100
AcDbXrecord
280
     1
270
     1
271
     1
  0
XRECORD
  5
50F
102
{ACAD_REACTORS
330
50C
102
}
330
50C
100
AcDbXrecord
280
     1
270
     1
271
     1
  0
XRECORD
  5
585
102
{ACAD_REACTORS
330
504
102
}
330
504
100
AcDbXrecord
280
     1
102
MATERIAL
148
0.0
149
0.0
149
0.0
 93
        0
 94
      127
282
     0
 72
     0
 77
     0
171
     0
175
     0
179
     0
273
     0
  0
XRECORD
  5
506
102
{ACAD_REACTORS
330
504
102
}
330
504
100
AcDbXrecord
280
     1
270
     1
271
     1
  0
XRECORD
  5
505
102
{ACAD_REACTORS
330
504
102
}
330
504
100
AcDbXrecord
280
     1
270
     1
271
     1
  0
XRECORD
  5
509
102
{ACAD_REACTORS
330
504
102
}
330
504
100
AcDbXrecord
280
     1
270
     1
271
     1
  0
XRECORD
  5
508
102
{ACAD_REACTORS
330
504
102
}
330
504
100
AcDbXrecord
280
     1
270
     1
271
     1
  0
XRECORD
  5
50A
102
{ACAD_REACTORS
330
504
102
}
330
504
100
AcDbXrecord
280
     1
270
     1
271
     1
  0
XRECORD
  5
507
102
{ACAD_REACTORS
330
504
102
}
330
504
100
AcDbXrecord
280
     1
270
     1
271
     1
  0
XRECORD
  5
587
102
{ACAD_REACTORS
330
514
102
}
330
514
100
AcDbXrecord
280
     1
102
MATERIAL
148
0.0
149
0.0
149
0.0
 93
        0
 94
      127
282
     0
 72
     0
 77
     0
171
     0
175
     0
179
     0
273
     0
  0
XRECORD
  5
516
102
{ACAD_REACTORS
330
514
102
}
330
514
100
AcDbXrecord
280
     1
270
     1
271
     1
  0
XRECORD
  5
515
102
{ACAD_REACTORS
330
514
102
}
330
514
100
AcDbXrecord
280
     1
270
     1
271
     1
  0
XRECORD
  5
519
102
{ACAD_REACTORS
330
514
102
}
330
514
100
AcDbXrecord
280
     1
270
     1
271
     1
  0
XRECORD
  5
518
102
{ACAD_REACTORS
330
514
102
}
330
514
100
AcDbXrecord
280
     1
270
     1
271
     1
  0
XRECORD
  5
51A
102
{ACAD_REACTORS
330
514
102
}
330
514
100
AcDbXrecord
280
     1
270
     1
271
     1
  0
XRECORD
  5
517
102
{ACAD_REACTORS
330
514
102
}
330
514
100
AcDbXrecord
280
     1
270
     1
271
     1
  0
CELLSTYLEMAP
  5
582
102
{ACAD_REACTORS
330
581
102
}
330
581
100
AcDbCellStyleMap
 90
        3
300
CELLSTYLE
  1
TABLEFORMAT_BEGIN
 90
        5
170
     1
 91
        0
 92
    32768
 62
   257
 93
        1
300
CONTENTFORMAT
  1
CONTENTFORMAT_BEGIN
 90
        0
 91
        0
 92
      512
 93
        0
300

 40
0.0
140
1.0
 94
        5
 62
     0
340
547
144
0.25
309
CONTENTFORMAT_END
171
     0
 94
        0
309
TABLEFORMAT_END
  1
CELLSTYLE_BEGIN
 90
        1
 91
        1
300
_TITLE
309
CELLSTYLE_END
300
CELLSTYLE
  1
TABLEFORMAT_BEGIN
 90
        5
170
     1
 91
        0
 92
        0
 62
   257
 93
        1
300
CONTENTFORMAT
  1
CONTENTFORMAT_BEGIN
 90
        0
 91
        0
 92
      512
 93
        0
300

 40
0.0
140
1.0
 94
        5
 62
     0
340
547
144
0.18
309
CONTENTFORMAT_END
171
     0
 94
        0
309
TABLEFORMAT_END
  1
CELLSTYLE_BEGIN
 90
        2
 91
        1
300
_HEADER
309
CELLSTYLE_END
300
CELLSTYLE
  1
TABLEFORMAT_BEGIN
 90
        5
170
     1
 91
        0
 92
        0
 62
   257
 93
        1
300
CONTENTFORMAT
  1
CONTENTFORMAT_BEGIN
 90
        0
 91
        0
 92
      512
 93
        0
300

 40
0.0
140
1.0
 94
        2
 62
     0
340
547
144
0.18
309
CONTENTFORMAT_END
171
     0
 94
        0
309
TABLEFORMAT_END
  1
CELLSTYLE_BEGIN
 90
        3
 91
        2
300
_DATA
309
CELLSTYLE_END
  0
XRECORD
  5
5B8
102
{ACAD_REACTORS
330
581
102
}
330
581
100
AcDbXrecord
280
     1
102
ACAD_ROUNDTRIP_PRE2007_TABLESTYLE
 90
      512
 91
        0
  1

 92
      512
 93
        0
  2

 94
      512
 95
        0
  3

  0
XRECORD
  5
593
102
{ACAD_REACTORS
330
592
102
}
330
592
100
AcDbXrecord
280
     1
102
RTVSPropertyOp0
 70
     1
102
RTVSPropertyOp1
 70
     1
102
RTVSPropertyOp2
 70
     1
102
RTVSPropertyOp3
 70
     1
102
RTVSPropertyOp4
 70
     1
102
RTVSPropertyOp5
 70
     1
102
RTVSPropertyOp6
 70
     1
102
RTVSPropertyOp7
 70
     1
102
RTVSPropertyOp8
 70
     1
102
RTVSPropertyOp9
 70
     1
102
RTVSPropertyOp10
 70
     1
102
RTVSPropertyOp11
 70
     1
102
RTVSPropertyOp12
 70
     1
102
RTVSPropertyOp13
 70
     1
102
RTVSPropertyOp14
 70
     1
102
RTVSPropertyOp15
 70
     1
102
RTVSPropertyOp16
 70
     1
102
RTVSPropertyOp17
 70
     1
102
RTVSPropertyOp18
 70
     1
102
RTVSPropertyOp19
 70
     1
102
RTVSPropertyOp20
 70
     1
102
RTVSPropertyOp21
 70
     1
102
RTVSPropertyOp22
 70
     1
102
RTVSPropertyOp23
 70
     1
102
RTVSPropertyOp24
 70
     1
102
RTVSPropertyOp25
 70
     1
102
RTVSPropertyOp26
 70
     1
102
RTVSPropertyOp27
 70
     1
102
RTVSPropertyOp28
 70
     1
102
RTVSPropertyOp29
 70
     1
102
RTVSPropertyOp30
 70
     1
102
RTVSPropertyOp31
 70
     1
102
RTVSPropertyOp32
 70
     1
  0
XRECORD
  5
591
102
{ACAD_REACTORS
330
590
102
}
330
590
100
AcDbXrecord
280
     1
102
RTVSPropertyOp0
 70
     1
102
RTVSPropertyOp1
 70
     1
102
RTVSPropertyOp2
 70
     1
102
RTVSPropertyOp3
 70
     1
102
RTVSPropertyOp4
 70
     1
102
RTVSPropertyOp5
 70
     1
102
RTVSPropertyOp6
 70
     1
102
RTVSPropertyOp7
 70
     1
102
RTVSPropertyOp8
 70
     1
102
RTVSPropertyOp9
 70
     1
102
RTVSPropertyOp10
 70
     1
102
RTVSPropertyOp11
 70
     1
102
RTVSPropertyOp12
 70
     1
102
RTVSPropertyOp13
 70
     1
102
RTVSPropertyOp14
 70
     1
102
RTVSPropertyOp15
 70
     1
102
RTVSPropertyOp16
 70
     1
102
RTVSPropertyOp17
 70
     1
102
RTVSPropertyOp18
 70
     1
102
RTVSPropertyOp19
 70
     1
102
RTVSPropertyOp20
 70
     1
102
RTVSPropertyOp21
 70
     1
102
RTVSPropertyOp22
 70
     1
102
RTVSPropertyOp23
 70
     1
102
RTVSPropertyOp24
 70
     1
102
RTVSPropertyOp25
 70
     1
102
RTVSPropertyOp26
 70
     1
102
RTVSPropertyOp27
 70
     1
102
RTVSPropertyOp28
 70
     1
102
RTVSPropertyOp29
 70
     1
102
RTVSPropertyOp30
 70
     1
102
RTVSPropertyOp31
 70
     1
102
RTVSPropertyOp32
 70
     1
  0
XRECORD
  5
59F
102
{ACAD_REACTORS
330
59E
102
}
330
59E
100
AcDbXrecord
280
     1
102
RTVSPropertyOp0
 70
     1
102
RTVSPropertyOp1
 70
     1
102
RTVSPropertyOp2
 70
     1
102
RTVSPropertyOp3
 70
     1
102
RTVSPropertyOp4
 70
     1
102
RTVSPropertyOp5
 70
     1
102
RTVSPropertyOp6
 70
     1
102
RTVSPropertyOp7
 70
     1
102
RTVSPropertyOp8
 70
     1
102
RTVSPropertyOp9
 70
     1
102
RTVSPropertyOp10
 70
     1
102
RTVSPropertyOp11
 70
     1
102
RTVSPropertyOp12
 70
     1
102
RTVSPropertyOp13
 70
     1
102
RTVSPropertyOp14
 70
     1
102
RTVSPropertyOp15
 70
     1
102
RTVSPropertyOp16
 70
     1
102
RTVSPropertyOp17
 70
     1
102
RTVSPropertyOp18
 70
     1
102
RTVSPropertyOp19
 70
     1
102
RTVSPropertyOp20
 70
     1
102
RTVSPropertyOp21
 70
     1
102
RTVSPropertyOp22
 70
     1
102
RTVSPropertyOp23
 70
     1
102
RTVSPropertyOp24
 70
     1
102
RTVSPropertyOp25
 70
     1
102
RTVSPropertyOp26
 70
     1
102
RTVSPropertyOp27
 70
     1
102
RTVSPropertyOp28
 70
     1
102
RTVSPropertyOp29
 70
     1
102
RTVSPropertyOp30
 70
     1
102
RTVSPropertyOp31
 70
     1
102
RTVSPropertyOp32
 70
     1
  0
XRECORD
  5
5A7
102
{ACAD_REACTORS
330
5A6
102
}
330
5A6
100
AcDbXrecord
280
     1
102
RTVSPropertyOp0
 70
     1
102
RTVSPropertyOp1
 70
     1
102
RTVSPropertyOp2
 70
     1
102
RTVSPropertyOp3
 70
     1
102
RTVSPropertyOp4
 70
     1
102
RTVSPropertyOp5
 70
     1
102
RTVSPropertyOp6
 70
     1
102
RTVSPropertyOp7
 70
     1
102
RTVSPropertyOp8
 70
     1
102
RTVSPropertyOp9
 70
     1
102
RTVSPropertyOp10
 70
     1
102
RTVSPropertyOp11
 70
     1
102
RTVSPropertyOp12
 70
     1
102
RTVSPropertyOp13
 70
     1
102
RTVSPropertyOp14
 70
     1
102
RTVSPropertyOp15
 70
     1
102
RTVSPropertyOp16
 70
     1
102
RTVSPropertyOp17
 70
     1
102
RTVSPropertyOp18
 70
     1
102
RTVSPropertyOp19
 70
     1
102
RTVSPropertyOp20
 70
     1
102
RTVSPropertyOp21
 70
     1
102
RTVSPropertyOp22
 70
     1
102
RTVSPropertyOp23
 70
     1
102
RTVSPropertyOp24
 70
     1
102
RTVSPropertyOp25
 70
     1
102
RTVSPropertyOp26
 70
     1
102
RTVSPropertyOp27
 70
     1
102
RTVSPropertyOp28
 70
     1
102
RTVSPropertyOp29
 70
     1
102
RTVSPropertyOp30
 70
     1
102
RTVSPropertyOp31
 70
     1
102
RTVSPropertyOp32
 70
     1
  0
XRECORD
  5
599
102
{ACAD_REACTORS
330
598
102
}
330
598
100
AcDbXrecord
280
     1
102
RTVSPropertyOp0
 70
     1
102
RTVSPropertyOp1
 70
     1
102
RTVSPropertyOp2
 70
     1
102
RTVSPropertyOp3
 70
     1
102
RTVSPropertyOp4
 70
     1
102
RTVSPropertyOp5
 70
     1
102
RTVSPropertyOp6
 70
     1
102
RTVSPropertyOp7
 70
     1
102
RTVSPropertyOp8
 70
     1
102
RTVSPropertyOp9
 70
     1
102
RTVSPropertyOp10
 70
     1
102
RTVSPropertyOp11
 70
     1
102
RTVSPropertyOp12
 70
     1
102
RTVSPropertyOp13
 70
     1
102
RTVSPropertyOp14
 70
     1
102
RTVSPropertyOp15
 70
     1
102
RTVSPropertyOp16
 70
     1
102
RTVSPropertyOp17
 70
     1
102
RTVSPropertyOp18
 70
     1
102
RTVSPropertyOp19
 70
     1
102
RTVSPropertyOp20
 70
     1
102
RTVSPropertyOp21
 70
     1
102
RTVSPropertyOp22
 70
     1
102
RTVSPropertyOp23
 70
     1
102
RTVSPropertyOp24
 70
     1
102
RTVSPropertyOp25
 70
     1
102
RTVSPropertyOp26
 70
     1
102
RTVSPropertyOp27
 70
     1
102
RTVSPropertyOp28
 70
     1
102
RTVSPropertyOp29
 70
     1
102
RTVSPropertyOp30
 70
     1
102
RTVSPropertyOp31
 70
     1
102
RTVSPropertyOp32
 70
     1
  0
XRECORD
  5
59D
102
{ACAD_REACTORS
330
59C
102
}
330
59C
100
AcDbXrecord
280
     1
102
RTVSPropertyOp0
 70
     1
102
RTVSPropertyOp1
 70
     1
102
RTVSPropertyOp2
 70
     1
102
RTVSPropertyOp3
 70
     1
102
RTVSPropertyOp4
 70
     1
102
RTVSPropertyOp5
 70
     1
102
RTVSPropertyOp6
 70
     1
102
RTVSPropertyOp7
 70
     1
102
RTVSPropertyOp8
 70
     1
102
RTVSPropertyOp9
 70
     1
102
RTVSPropertyOp10
 70
     1
102
RTVSPropertyOp11
 70
     1
102
RTVSPropertyOp12
 70
     1
102
RTVSPropertyOp13
 70
     1
102
RTVSPropertyOp14
 70
     1
102
RTVSPropertyOp15
 70
     1
102
RTVSPropertyOp16
 70
     1
102
RTVSPropertyOp17
 70
     1
102
RTVSPropertyOp18
 70
     1
102
RTVSPropertyOp19
 70
     1
102
RTVSPropertyOp20
 70
     1
102
RTVSPropertyOp21
 70
     1
102
RTVSPropertyOp22
 70
     1
102
RTVSPropertyOp23
 70
     1
102
RTVSPropertyOp24
 70
     1
102
RTVSPropertyOp25
 70
     1
102
RTVSPropertyOp26
 70
     1
102
RTVSPropertyOp27
 70
     1
102
RTVSPropertyOp28
 70
     1
102
RTVSPropertyOp29
 70
     1
102
RTVSPropertyOp30
 70
     1
102
RTVSPropertyOp31
 70
     1
102
RTVSPropertyOp32
 70
     1
  0
XRECORD
  5
5B7
102
{ACAD_REACTORS
330
5B6
102
}
330
5B6
100
AcDbXrecord
280
     1
102
RTVSPropertyOp0
 70
     0
102
RTVSPropertyOp1
 70
     0
102
RTVSPropertyOp2
 70
     0
102
RTVSPropertyOp3
 70
     0
102
RTVSPropertyOp4
 70
     0
102
RTVSPropertyOp5
 70
     0
102
RTVSPropertyOp6
 70
     0
102
RTVSPropertyOp7
 70
     0
102
RTVSPropertyOp8
 70
     0
102
RTVSPropertyOp9
 70
     0
102
RTVSPropertyOp10
 70
     0
102
RTVSPropertyOp11
 70
     0
102
RTVSPropertyOp12
 70
     0
102
RTVSPropertyOp13
 70
     0
102
RTVSPropertyOp14
 70
     2
102
RTVSPropertyOp15
 70
     0
102
RTVSPropertyOp16
 70
     0
102
RTVSPropertyOp17
 70
     0
102
RTVSPropertyOp18
 70
     0
102
RTVSPropertyOp19
 70
     0
102
RTVSPropertyOp20
 70
     0
102
RTVSPropertyOp21
 70
     0
102
RTVSPropertyOp22
 70
     0
102
RTVSPropertyOp23
 70
     0
102
RTVSPropertyOp24
 70
     0
102
RTVSPropertyOp25
 70
     0
102
RTVSPropertyOp26
 70
     0
102
RTVSPropertyOp27
 70
     0
102
RTVSPropertyOp28
 70
     0
102
RTVSPropertyOp29
 70
     0
102
RTVSPropertyOp30
 70
     0
102
RTVSPropertyOp31
 70
     0
102
RTVSPropertyOp32
 70
     0
  0
XRECORD
  5
5A5
102
{ACAD_REACTORS
330
5A4
102
}
330
5A4
100
AcDbXrecord
280
     1
102
RTVSPropertyOp0
 70
     1
102
RTVSPropertyOp1
 70
     1
102
RTVSPropertyOp2
 70
     1
102
RTVSPropertyOp3
 70
     1
102
RTVSPropertyOp4
 70
     1
102
RTVSPropertyOp5
 70
     1
102
RTVSPropertyOp6
 70
     1
102
RTVSPropertyOp7
 70
     1
102
RTVSPropertyOp8
 70
     1
102
RTVSPropertyOp9
 70
     1
102
RTVSPropertyOp10
 70
     1
102
RTVSPropertyOp11
 70
     1
102
RTVSPropertyOp12
 70
     1
102
RTVSPropertyOp13
 70
     1
102
RTVSPropertyOp14
 70
     1
102
RTVSPropertyOp15
 70
     1
102
RTVSPropertyOp16
 70
     1
102
RTVSPropertyOp17
 70
     1
102
RTVSPropertyOp18
 70
     1
102
RTVSPropertyOp19
 70
     1
102
RTVSPropertyOp20
 70
     1
102
RTVSPropertyOp21
 70
     1
102
RTVSPropertyOp22
 70
     1
102
RTVSPropertyOp23
 70
     1
102
RTVSPropertyOp24
 70
     1
102
RTVSPropertyOp25
 70
     1
102
RTVSPropertyOp26
 70
     1
102
RTVSPropertyOp27
 70
     1
102
RTVSPropertyOp28
 70
     1
102
RTVSPropertyOp29
 70
     1
102
RTVSPropertyOp30
 70
     1
102
RTVSPropertyOp31
 70
     1
102
RTVSPropertyOp32
 70
     1
  0
XRECORD
  5
589
102
{ACAD_REACTORS
330
588
102
}
330
588
100
AcDbXrecord
280
     1
102
RTVSPropertyOp0
 70
     1
102
RTVSPropertyOp1
 70
     1
102
RTVSPropertyOp2
 70
     1
102
RTVSPropertyOp3
 70
     1
102
RTVSPropertyOp4
 70
     1
102
RTVSPropertyOp5
 70
     1
102
RTVSPropertyOp6
 70
     1
102
RTVSPropertyOp7
 70
     1
102
RTVSPropertyOp8
 70
     1
102
RTVSPropertyOp9
 70
     1
102
RTVSPropertyOp10
 70
     1
102
RTVSPropertyOp11
 70
     1
102
RTVSPropertyOp12
 70
     1
102
RTVSPropertyOp13
 70
     1
102
RTVSPropertyOp14
 70
     1
102
RTVSPropertyOp15
 70
     1
102
RTVSPropertyOp16
 70
     1
102
RTVSPropertyOp17
 70
     1
102
RTVSPropertyOp18
 70
     1
102
RTVSPropertyOp19
 70
     1
102
RTVSPropertyOp20
 70
     1
102
RTVSPropertyOp21
 70
     1
102
RTVSPropertyOp22
 70
     1
102
RTVSPropertyOp23
 70
     1
102
RTVSPropertyOp24
 70
     1
102
RTVSPropertyOp25
 70
     1
102
RTVSPropertyOp26
 70
     1
102
RTVSPropertyOp27
 70
     1
102
RTVSPropertyOp28
 70
     1
102
RTVSPropertyOp29
 70
     1
102
RTVSPropertyOp30
 70
     1
102
RTVSPropertyOp31
 70
     1
102
RTVSPropertyOp32
 70
     1
  0
XRECORD
  5
58B
102
{ACAD_REACTORS
330
58A
102
}
330
58A
100
AcDbXrecord
280
     1
102
RTVSPropertyOp0
 70
     1
102
RTVSPropertyOp1
 70
     1
102
RTVSPropertyOp2
 70
     1
102
RTVSPropertyOp3
 70
     1
102
RTVSPropertyOp4
 70
     1
102
RTVSPropertyOp5
 70
     1
102
RTVSPropertyOp6
 70
     1
102
RTVSPropertyOp7
 70
     1
102
RTVSPropertyOp8
 70
     1
102
RTVSPropertyOp9
 70
     1
102
RTVSPropertyOp10
 70
     1
102
RTVSPropertyOp11
 70
     1
102
RTVSPropertyOp12
 70
     1
102
RTVSPropertyOp13
 70
     1
102
RTVSPropertyOp14
 70
     1
102
RTVSPropertyOp15
 70
     1
102
RTVSPropertyOp16
 70
     1
102
RTVSPropertyOp17
 70
     1
102
RTVSPropertyOp18
 70
     1
102
RTVSPropertyOp19
 70
     1
102
RTVSPropertyOp20
 70
     1
102
RTVSPropertyOp21
 70
     1
102
RTVSPropertyOp22
 70
     1
102
RTVSPropertyOp23
 70
     1
102
RTVSPropertyOp24
 70
     1
102
RTVSPropertyOp25
 70
     1
102
RTVSPropertyOp26
 70
     1
102
RTVSPropertyOp27
 70
     1
102
RTVSPropertyOp28
 70
     1
102
RTVSPropertyOp29
 70
     1
102
RTVSPropertyOp30
 70
     1
102
RTVSPropertyOp31
 70
     1
102
RTVSPropertyOp32
 70
     1
  0
XRECORD
  5
58D
102
{ACAD_REACTORS
330
58C
102
}
330
58C
100
AcDbXrecord
280
     1
102
RTVSPropertyOp0
 70
     1
102
RTVSPropertyOp1
 70
     1
102
RTVSPropertyOp2
 70
     1
102
RTVSPropertyOp3
 70
     1
102
RTVSPropertyOp4
 70
     1
102
RTVSPropertyOp5
 70
     1
102
RTVSPropertyOp6
 70
     1
102
RTVSPropertyOp7
 70
     1
102
RTVSPropertyOp8
 70
     1
102
RTVSPropertyOp9
 70
     1
102
RTVSPropertyOp10
 70
     1
102
RTVSPropertyOp11
 70
     1
102
RTVSPropertyOp12
 70
     1
102
RTVSPropertyOp13
 70
     1
102
RTVSPropertyOp14
 70
     1
102
RTVSPropertyOp15
 70
     1
102
RTVSPropertyOp16
 70
     1
102
RTVSPropertyOp17
 70
     1
102
RTVSPropertyOp18
 70
     1
102
RTVSPropertyOp19
 70
     1
102
RTVSPropertyOp20
 70
     1
102
RTVSPropertyOp21
 70
     1
102
RTVSPropertyOp22
 70
     1
102
RTVSPropertyOp23
 70
     1
102
RTVSPropertyOp24
 70
     1
102
RTVSPropertyOp25
 70
     1
102
RTVSPropertyOp26
 70
     1
102
RTVSPropertyOp27
 70
     1
102
RTVSPropertyOp28
 70
     1
102
RTVSPropertyOp29
 70
     1
102
RTVSPropertyOp30
 70
     1
102
RTVSPropertyOp31
 70
     1
102
RTVSPropertyOp32
 70
     1
  0
XRECORD
  5
58F
102
{ACAD_REACTORS
330
58E
102
}
330
58E
100
AcDbXrecord
280
     1
102
RTVSPropertyOp0
 70
     1
102
RTVSPropertyOp1
 70
     1
102
RTVSPropertyOp2
 70
     1
102
RTVSPropertyOp3
 70
     1
102
RTVSPropertyOp4
 70
     1
102
RTVSPropertyOp5
 70
     1
102
RTVSPropertyOp6
 70
     1
102
RTVSPropertyOp7
 70
     1
102
RTVSPropertyOp8
 70
     1
102
RTVSPropertyOp9
 70
     1
102
RTVSPropertyOp10
 70
     1
102
RTVSPropertyOp11
 70
     1
102
RTVSPropertyOp12
 70
     1
102
RTVSPropertyOp13
 70
     1
102
RTVSPropertyOp14
 70
     1
102
RTVSPropertyOp15
 70
     1
102
RTVSPropertyOp16
 70
     1
102
RTVSPropertyOp17
 70
     1
102
RTVSPropertyOp18
 70
     1
102
RTVSPropertyOp19
 70
     1
102
RTVSPropertyOp20
 70
     1
102
RTVSPropertyOp21
 70
     1
102
RTVSPropertyOp22
 70
     1
102
RTVSPropertyOp23
 70
     1
102
RTVSPropertyOp24
 70
     1
102
RTVSPropertyOp25
 70
     1
102
RTVSPropertyOp26
 70
     1
102
RTVSPropertyOp27
 70
     1
102
RTVSPropertyOp28
 70
     1
102
RTVSPropertyOp29
 70
     1
102
RTVSPropertyOp30
 70
     1
102
RTVSPropertyOp31
 70
     1
102
RTVSPropertyOp32
 70
     1
  0
XRECORD
  5
597
102
{ACAD_REACTORS
330
596
102
}
330
596
100
AcDbXrecord
280
     1
102
RTVSPropertyOp0
 70
     1
102
RTVSPropertyOp1
 70
     1
102
RTVSPropertyOp2
 70
     1
102
RTVSPropertyOp3
 70
     1
102
RTVSPropertyOp4
 70
     1
102
RTVSPropertyOp5
 70
     1
102
RTVSPropertyOp6
 70
     1
102
RTVSPropertyOp7
 70
     1
102
RTVSPropertyOp8
 70
     1
102
RTVSPropertyOp9
 70
     1
102
RTVSPropertyOp10
 70
     1
102
RTVSPropertyOp11
 70
     1
102
RTVSPropertyOp12
 70
     1
102
RTVSPropertyOp13
 70
     1
102
RTVSPropertyOp14
 70
     1
102
RTVSPropertyOp15
 70
     1
102
RTVSPropertyOp16
 70
     1
102
RTVSPropertyOp17
 70
     1
102
RTVSPropertyOp18
 70
     1
102
RTVSPropertyOp19
 70
     1
102
RTVSPropertyOp20
 70
     1
102
RTVSPropertyOp21
 70
     1
102
RTVSPropertyOp22
 70
     1
102
RTVSPropertyOp23
 70
     1
102
RTVSPropertyOp24
 70
     1
102
RTVSPropertyOp25
 70
     1
102
RTVSPropertyOp26
 70
     1
102
RTVSPropertyOp27
 70
     1
102
RTVSPropertyOp28
 70
     1
102
RTVSPropertyOp29
 70
     1
102
RTVSPropertyOp30
 70
     1
102
RTVSPropertyOp31
 70
     1
102
RTVSPropertyOp32
 70
     1
  0
XRECORD
  5
5B3
102
{ACAD_REACTORS
330
5B2
102
}
330
5B2
100
AcDbXrecord
280
     1
102
RTVSPropertyOp0
 70
     0
102
RTVSPropertyOp1
 70
     0
102
RTVSPropertyOp2
 70
     0
102
RTVSPropertyOp3
 70
     0
102
RTVSPropertyOp4
 70
     0
102
RTVSPropertyOp5
 70
     0
102
RTVSPropertyOp6
 70
     0
102
RTVSPropertyOp7
 70
     0
102
RTVSPropertyOp8
 70
     0
102
RTVSPropertyOp9
 70
     0
102
RTVSPropertyOp10
 70
     0
102
RTVSPropertyOp11
 70
     0
102
RTVSPropertyOp12
 70
     0
102
RTVSPropertyOp13
 70
     0
102
RTVSPropertyOp14
 70
     2
102
RTVSPropertyOp15
 70
     0
102
RTVSPropertyOp16
 70
     0
102
RTVSPropertyOp17
 70
     0
102
RTVSPropertyOp18
 70
     0
102
RTVSPropertyOp19
 70
     0
102
RTVSPropertyOp20
 70
     0
102
RTVSPropertyOp21
 70
     0
102
RTVSPropertyOp22
 70
     0
102
RTVSPropertyOp23
 70
     0
102
RTVSPropertyOp24
 70
     0
102
RTVSPropertyOp25
 70
     0
102
RTVSPropertyOp26
 70
     0
102
RTVSPropertyOp27
 70
     0
102
RTVSPropertyOp28
 70
     0
102
RTVSPropertyOp29
 70
     0
102
RTVSPropertyOp30
 70
     0
102
RTVSPropertyOp31
 70
     0
102
RTVSPropertyOp32
 70
     0
  0
XRECORD
  5
5A3
102
{ACAD_REACTORS
330
5A2
102
}
330
5A2
100
AcDbXrecord
280
     1
102
RTVSPropertyOp0
 70
     1
102
RTVSPropertyOp1
 70
     1
102
RTVSPropertyOp2
 70
     1
102
RTVSPropertyOp3
 70
     1
102
RTVSPropertyOp4
 70
     1
102
RTVSPropertyOp5
 70
     1
102
RTVSPropertyOp6
 70
     1
102
RTVSPropertyOp7
 70
     1
102
RTVSPropertyOp8
 70
     1
102
RTVSPropertyOp9
 70
     1
102
RTVSPropertyOp10
 70
     1
102
RTVSPropertyOp11
 70
     1
102
RTVSPropertyOp12
 70
     1
102
RTVSPropertyOp13
 70
     1
102
RTVSPropertyOp14
 70
     1
102
RTVSPropertyOp15
 70
     1
102
RTVSPropertyOp16
 70
     1
102
RTVSPropertyOp17
 70
     1
102
RTVSPropertyOp18
 70
     1
102
RTVSPropertyOp19
 70
     1
102
RTVSPropertyOp20
 70
     1
102
RTVSPropertyOp21
 70
     1
102
RTVSPropertyOp22
 70
     1
102
RTVSPropertyOp23
 70
     1
102
RTVSPropertyOp24
 70
     1
102
RTVSPropertyOp25
 70
     1
102
RTVSPropertyOp26
 70
     1
102
RTVSPropertyOp27
 70
     1
102
RTVSPropertyOp28
 70
     1
102
RTVSPropertyOp29
 70
     1
102
RTVSPropertyOp30
 70
     1
102
RTVSPropertyOp31
 70
     1
102
RTVSPropertyOp32
 70
     1
  0
XRECORD
  5
5B5
102
{ACAD_REACTORS
330
5B4
102
}
330
5B4
100
AcDbXrecord
280
     1
102
RTVSPropertyOp0
 70
     0
102
RTVSPropertyOp1
 70
     0
102
RTVSPropertyOp2
 70
     0
102
RTVSPropertyOp3
 70
     0
102
RTVSPropertyOp4
 70
     0
102
RTVSPropertyOp5
 70
     0
102
RTVSPropertyOp6
 70
     0
102
RTVSPropertyOp7
 70
     0
102
RTVSPropertyOp8
 70
     0
102
RTVSPropertyOp9
 70
     0
102
RTVSPropertyOp10
 70
     0
102
RTVSPropertyOp11
 70
     0
102
RTVSPropertyOp12
 70
     0
102
RTVSPropertyOp13
 70
     0
102
RTVSPropertyOp14
 70
     2
102
RTVSPropertyOp15
 70
     0
102
RTVSPropertyOp16
 70
     0
102
RTVSPropertyOp17
 70
     0
102
RTVSPropertyOp18
 70
     0
102
RTVSPropertyOp19
 70
     0
102
RTVSPropertyOp20
 70
     0
102
RTVSPropertyOp21
 70
     0
102
RTVSPropertyOp22
 70
     0
102
RTVSPropertyOp23
 70
     0
102
RTVSPropertyOp24
 70
     0
102
RTVSPropertyOp25
 70
     0
102
RTVSPropertyOp26
 70
     0
102
RTVSPropertyOp27
 70
     0
102
RTVSPropertyOp28
 70
     0
102
RTVSPropertyOp29
 70
     0
102
RTVSPropertyOp30
 70
     0
102
RTVSPropertyOp31
 70
     0
102
RTVSPropertyOp32
 70
     0
  0
XRECORD
  5
59B
102
{ACAD_REACTORS
330
59A
102
}
330
59A
100
AcDbXrecord
280
     1
102
RTVSPropertyOp0
 70
     1
102
RTVSPropertyOp1
 70
     1
102
RTVSPropertyOp2
 70
     1
102
RTVSPropertyOp3
 70
     1
102
RTVSPropertyOp4
 70
     1
102
RTVSPropertyOp5
 70
     1
102
RTVSPropertyOp6
 70
     1
102
RTVSPropertyOp7
 70
     1
102
RTVSPropertyOp8
 70
     1
102
RTVSPropertyOp9
 70
     1
102
RTVSPropertyOp10
 70
     1
102
RTVSPropertyOp11
 70
     1
102
RTVSPropertyOp12
 70
     1
102
RTVSPropertyOp13
 70
     1
102
RTVSPropertyOp14
 70
     1
102
RTVSPropertyOp15
 70
     1
102
RTVSPropertyOp16
 70
     1
102
RTVSPropertyOp17
 70
     1
102
RTVSPropertyOp18
 70
     1
102
RTVSPropertyOp19
 70
     1
102
RTVSPropertyOp20
 70
     1
102
RTVSPropertyOp21
 70
     1
102
RTVSPropertyOp22
 70
     1
102
RTVSPropertyOp23
 70
     1
102
RTVSPropertyOp24
 70
     1
102
RTVSPropertyOp25
 70
     1
102
RTVSPropertyOp26
 70
     1
102
RTVSPropertyOp27
 70
     1
102
RTVSPropertyOp28
 70
     1
102
RTVSPropertyOp29
 70
     1
102
RTVSPropertyOp30
 70
     1
102
RTVSPropertyOp31
 70
     1
102
RTVSPropertyOp32
 70
     1
  0
XRECORD
  5
5B1
102
{ACAD_REACTORS
330
5B0
102
}
330
5B0
100
AcDbXrecord
280
     1
102
RTVSPropertyOp0
 70
     1
102
RTVSPropertyOp1
 70
     1
102
RTVSPropertyOp2
 70
     1
102
RTVSPropertyOp3
 70
     1
102
RTVSPropertyOp4
 70
     1
102
RTVSPropertyOp5
 70
     1
102
RTVSPropertyOp6
 70
     1
102
RTVSPropertyOp7
 70
     1
102
RTVSPropertyOp8
 70
     1
102
RTVSPropertyOp9
 70
     1
102
RTVSPropertyOp10
 70
     1
102
RTVSPropertyOp11
 70
     1
102
RTVSPropertyOp12
 70
     1
102
RTVSPropertyOp13
 70
     1
102
RTVSPropertyOp14
 70
     1
102
RTVSPropertyOp15
 70
     1
102
RTVSPropertyOp16
 70
     1
102
RTVSPropertyOp17
 70
     1
102
RTVSPropertyOp18
 70
     1
102
RTVSPropertyOp19
 70
     1
102
RTVSPropertyOp20
 70
     1
102
RTVSPropertyOp21
 70
     1
102
RTVSPropertyOp22
 70
     1
102
RTVSPropertyOp23
 70
     1
102
RTVSPropertyOp24
 70
     1
102
RTVSPropertyOp25
 70
     1
102
RTVSPropertyOp26
 70
     1
102
RTVSPropertyOp27
 70
     1
102
RTVSPropertyOp28
 70
     1
102
RTVSPropertyOp29
 70
     1
102
RTVSPropertyOp30
 70
     1
102
RTVSPropertyOp31
 70
     1
102
RTVSPropertyOp32
 70
     1
  0
XRECORD
  5
5AF
102
{ACAD_REACTORS
330
5AE
102
}
330
5AE
100
AcDbXrecord
280
     1
102
RTVSPropertyOp0
 70
     1
102
RTVSPropertyOp1
 70
     1
102
RTVSPropertyOp2
 70
     1
102
RTVSPropertyOp3
 70
     1
102
RTVSPropertyOp4
 70
     1
102
RTVSPropertyOp5
 70
     1
102
RTVSPropertyOp6
 70
     1
102
RTVSPropertyOp7
 70
     1
102
RTVSPropertyOp8
 70
     1
102
RTVSPropertyOp9
 70
     1
102
RTVSPropertyOp10
 70
     1
102
RTVSPropertyOp11
 70
     1
102
RTVSPropertyOp12
 70
     1
102
RTVSPropertyOp13
 70
     1
102
RTVSPropertyOp14
 70
     1
102
RTVSPropertyOp15
 70
     1
102
RTVSPropertyOp16
 70
     1
102
RTVSPropertyOp17
 70
     1
102
RTVSPropertyOp18
 70
     1
102
RTVSPropertyOp19
 70
     1
102
RTVSPropertyOp20
 70
     1
102
RTVSPropertyOp21
 70
     1
102
RTVSPropertyOp22
 70
     1
102
RTVSPropertyOp23
 70
     1
102
RTVSPropertyOp24
 70
     1
102
RTVSPropertyOp25
 70
     1
102
RTVSPropertyOp26
 70
     1
102
RTVSPropertyOp27
 70
     1
102
RTVSPropertyOp28
 70
     1
102
RTVSPropertyOp29
 70
     1
102
RTVSPropertyOp30
 70
     1
102
RTVSPropertyOp31
 70
     1
102
RTVSPropertyOp32
 70
     1
  0
XRECORD
  5
5A9
102
{ACAD_REACTORS
330
5A8
102
}
330
5A8
100
AcDbXrecord
280
     1
102
RTVSPropertyOp0
 70
     1
102
RTVSPropertyOp1
 70
     1
102
RTVSPropertyOp2
 70
     1
102
RTVSPropertyOp3
 70
     1
102
RTVSPropertyOp4
 70
     1
102
RTVSPropertyOp5
 70
     1
102
RTVSPropertyOp6
 70
     1
102
RTVSPropertyOp7
 70
     1
102
RTVSPropertyOp8
 70
     1
102
RTVSPropertyOp9
 70
     1
102
RTVSPropertyOp10
 70
     1
102
RTVSPropertyOp11
 70
     1
102
RTVSPropertyOp12
 70
     1
102
RTVSPropertyOp13
 70
     1
102
RTVSPropertyOp14
 70
     1
102
RTVSPropertyOp15
 70
     1
102
RTVSPropertyOp16
 70
     1
102
RTVSPropertyOp17
 70
     1
102
RTVSPropertyOp18
 70
     1
102
RTVSPropertyOp19
 70
     1
102
RTVSPropertyOp20
 70
     1
102
RTVSPropertyOp21
 70
     1
102
RTVSPropertyOp22
 70
     1
102
RTVSPropertyOp23
 70
     1
102
RTVSPropertyOp24
 70
     1
102
RTVSPropertyOp25
 70
     1
102
RTVSPropertyOp26
 70
     1
102
RTVSPropertyOp27
 70
     1
102
RTVSPropertyOp28
 70
     1
102
RTVSPropertyOp29
 70
     1
102
RTVSPropertyOp30
 70
     1
102
RTVSPropertyOp31
 70
     1
102
RTVSPropertyOp32
 70
     1
  0
XRECORD
  5
5AB
102
{ACAD_REACTORS
330
5AA
102
}
330
5AA
100
AcDbXrecord
280
     1
102
RTVSPropertyOp0
 70
     1
102
RTVSPropertyOp1
 70
     1
102
RTVSPropertyOp2
 70
     1
102
RTVSPropertyOp3
 70
     1
102
RTVSPropertyOp4
 70
     1
102
RTVSPropertyOp5
 70
     1
102
RTVSPropertyOp6
 70
     1
102
RTVSPropertyOp7
 70
     1
102
RTVSPropertyOp8
 70
     1
102
RTVSPropertyOp9
 70
     1
102
RTVSPropertyOp10
 70
     1
102
RTVSPropertyOp11
 70
     1
102
RTVSPropertyOp12
 70
     1
102
RTVSPropertyOp13
 70
     1
102
RTVSPropertyOp14
 70
     1
102
RTVSPropertyOp15
 70
     1
102
RTVSPropertyOp16
 70
     1
102
RTVSPropertyOp17
 70
     1
102
RTVSPropertyOp18
 70
     1
102
RTVSPropertyOp19
 70
     1
102
RTVSPropertyOp20
 70
     1
102
RTVSPropertyOp21
 70
     1
102
RTVSPropertyOp22
 70
     1
102
RTVSPropertyOp23
 70
     1
102
RTVSPropertyOp24
 70
     1
102
RTVSPropertyOp25
 70
     1
102
RTVSPropertyOp26
 70
     1
102
RTVSPropertyOp27
 70
     1
102
RTVSPropertyOp28
 70
     1
102
RTVSPropertyOp29
 70
     1
102
RTVSPropertyOp30
 70
     1
102
RTVSPropertyOp31
 70
     1
102
RTVSPropertyOp32
 70
     1
  0
XRECORD
  5
5A1
102
{ACAD_REACTORS
330
5A0
102
}
330
5A0
100
AcDbXrecord
280
     1
102
RTVSPropertyOp0
 70
     1
102
RTVSPropertyOp1
 70
     1
102
RTVSPropertyOp2
 70
     1
102
RTVSPropertyOp3
 70
     1
102
RTVSPropertyOp4
 70
     1
102
RTVSPropertyOp5
 70
     1
102
RTVSPropertyOp6
 70
     1
102
RTVSPropertyOp7
 70
     1
102
RTVSPropertyOp8
 70
     1
102
RTVSPropertyOp9
 70
     1
102
RTVSPropertyOp10
 70
     1
102
RTVSPropertyOp11
 70
     1
102
RTVSPropertyOp12
 70
     1
102
RTVSPropertyOp13
 70
     1
102
RTVSPropertyOp14
 70
     1
102
RTVSPropertyOp15
 70
     1
102
RTVSPropertyOp16
 70
     1
102
RTVSPropertyOp17
 70
     1
102
RTVSPropertyOp18
 70
     1
102
RTVSPropertyOp19
 70
     1
102
RTVSPropertyOp20
 70
     1
102
RTVSPropertyOp21
 70
     1
102
RTVSPropertyOp22
 70
     1
102
RTVSPropertyOp23
 70
     1
102
RTVSPropertyOp24
 70
     1
102
RTVSPropertyOp25
 70
     1
102
RTVSPropertyOp26
 70
     1
102
RTVSPropertyOp27
 70
     1
102
RTVSPropertyOp28
 70
     1
102
RTVSPropertyOp29
 70
     1
102
RTVSPropertyOp30
 70
     1
102
RTVSPropertyOp31
 70
     1
102
RTVSPropertyOp32
 70
     1
  0
XRECORD
  5
595
102
{ACAD_REACTORS
330
594
102
}
330
594
100
AcDbXrecord
280
     1
102
RTVSPropertyOp0
 70
     1
102
RTVSPropertyOp1
 70
     1
102
RTVSPropertyOp2
 70
     1
102
RTVSPropertyOp3
 70
     1
102
RTVSPropertyOp4
 70
     1
102
RTVSPropertyOp5
 70
     1
102
RTVSPropertyOp6
 70
     1
102
RTVSPropertyOp7
 70
     1
102
RTVSPropertyOp8
 70
     1
102
RTVSPropertyOp9
 70
     1
102
RTVSPropertyOp10
 70
     1
102
RTVSPropertyOp11
 70
     1
102
RTVSPropertyOp12
 70
     1
102
RTVSPropertyOp13
 70
     1
102
RTVSPropertyOp14
 70
     1
102
RTVSPropertyOp15
 70
     1
102
RTVSPropertyOp16
 70
     1
102
RTVSPropertyOp17
 70
     1
102
RTVSPropertyOp18
 70
     1
102
RTVSPropertyOp19
 70
     1
102
RTVSPropertyOp20
 70
     1
102
RTVSPropertyOp21
 70
     1
102
RTVSPropertyOp22
 70
     1
102
RTVSPropertyOp23
 70
     1
102
RTVSPropertyOp24
 70
     1
102
RTVSPropertyOp25
 70
     1
102
RTVSPropertyOp26
 70
     1
102
RTVSPropertyOp27
 70
     1
102
RTVSPropertyOp28
 70
     1
102
RTVSPropertyOp29
 70
     1
102
RTVSPropertyOp30
 70
     1
102
RTVSPropertyOp31
 70
     1
102
RTVSPropertyOp32
 70
     1
  0
XRECORD
  5
5AD
102
{ACAD_REACTORS
330
5AC
102
}
330
5AC
100
AcDbXrecord
280
     1
102
RTVSPropertyOp0
 70
     1
102
RTVSPropertyOp1
 70
     1
102
RTVSPropertyOp2
 70
     1
102
RTVSPropertyOp3
 70
     1
102
RTVSPropertyOp4
 70
     1
102
RTVSPropertyOp5
 70
     1
102
RTVSPropertyOp6
 70
     1
102
RTVSPropertyOp7
 70
     1
102
RTVSPropertyOp8
 70
     1
102
RTVSPropertyOp9
 70
     1
102
RTVSPropertyOp10
 70
     1
102
RTVSPropertyOp11
 70
     1
102
RTVSPropertyOp12
 70
     1
102
RTVSPropertyOp13
 70
     1
102
RTVSPropertyOp14
 70
     1
102
RTVSPropertyOp15
 70
     1
102
RTVSPropertyOp16
 70
     1
102
RTVSPropertyOp17
 70
     1
102
RTVSPropertyOp18
 70
     1
102
RTVSPropertyOp19
 70
     1
102
RTVSPropertyOp20
 70
     1
102
RTVSPropertyOp21
 70
     1
102
RTVSPropertyOp22
 70
     1
102
RTVSPropertyOp23
 70
     1
102
RTVSPropertyOp24
 70
     1
102
RTVSPropertyOp25
 70
     1
102
RTVSPropertyOp26
 70
     1
102
RTVSPropertyOp27
 70
     1
102
RTVSPropertyOp28
 70
     1
102
RTVSPropertyOp29
 70
     1
102
RTVSPropertyOp30
 70
     1
102
RTVSPropertyOp31
 70
     1
102
RTVSPropertyOp32
 70
     1
  0
ENDSEC
  0
EOF
