  0
SECTION
  2
HEADER
  9
$ACADVER
  1
AC1009
  9
$INSBASE
 10
0.0
 20
0.0
 30
0.0
  9
$EXTMIN
 10
16.349604699199681
 20
16.343786616949611
 30
0.0
  9
$EXTMAX
 10
579.26662176359787
 20
231.34378661694959
 30
0.0
  9
$LIMMIN
 10
0.0
 20
0.0
  9
$LIMMAX
 10
420.0
 20
297.0
  9
$ORTHOMODE
 70
     0
  9
$REGENMODE
 70
     1
  9
$FILLMODE
 70
     1
  9
$QTEXTMODE
 70
     0
  9
$MIRRTEXT
 70
     1
  9
$DRAGMODE
 70
     2
  9
$LTSCALE
 40
1.0
  9
$OSMODE
 70
    37
  9
$ATTMODE
 70
     1
  9
$TEXTSIZE
 40
2.5
  9
$TRACEWID
 40
1.0
  9
$TEXTSTYLE
  7
STANDARD
  9
$CLAYER
  8
0
  9
$CELTYPE
  6
BYLAYER
  9
$CECOLOR
 62
   256
  9
$DIMSCALE
 40
1.0
  9
$DIMASZ
 40
2.5
  9
$DIMEXO
 40
0.625
  9
$DIMDLI
 40
3.75
  9
$DIMRND
 40
0.0
  9
$DIMDLE
 40
0.0
  9
$DIMEXE
 40
1.25
  9
$DIMTP
 40
0.0
  9
$DIMTM
 40
0.0
  9
$DIMTXT
 40
2.5
  9
$DIMCEN
 40
2.5
  9
$DIMTSZ
 40
0.0
  9
$DIMTOL
 70
     0
  9
$DIMLIM
 70
     0
  9
$DIMTIH
 70
     0
  9
$DIMTOH
 70
     0
  9
$DIMSE1
 70
     0
  9
$DIMSE2
 70
     0
  9
$DIMTAD
 70
     1
  9
$DIMZIN
 70
     8
  9
$DIMBLK
  1

  9
$DIMASO
 70
     1
  9
$DIMSHO
 70
     1
  9
$DIMPOST
  1

  9
$DIMAPOST
  1

  9
$DIMALT
 70
     0
  9
$DIMALTD
 70
     3
  9
$DIMALTF
 40
0.03937007874016
  9
$DIMLFAC
 40
1.0
  9
$DIMTOFL
 70
     1
  9
$DIMTVP
 40
0.0
  9
$DIMTIX
 70
     0
  9
$DIMSOXD
 70
     0
  9
$DIMSAH
 70
     0
  9
$DIMBLK1
  1

  9
$DIMBLK2
  1

  9
$DIMSTYLE
  2
ISO-25
  9
$DIMCLRD
 70
     0
  9
$DIMCLRE
 70
     0
  9
$DIMCLRT
 70
     0
  9
$DIMTFAC
 40
1.0
  9
$DIMGAP
 40
0.625
  9
$LUNITS
 70
     2
  9
$LUPREC
 70
     4
  9
$SKETCHINC
 40
1.0
  9
$FILLETRAD
 40
10.0
  9
$AUNITS
 70
     0
  9
$AUPREC
 70
     0
  9
$MENU
  1
.
  9
$ELEVATION
 40
0.0
  9
$PELEVATION
 40
0.0
  9
$THICKNESS
 40
0.0
  9
$LIMCHECK
 70
     0
  9
$BLIPMODE
 70
     0
  9
$CHAMFERA
 40
10.0
  9
$CHAMFERB
 40
10.0
  9
$SKPOLY
 70
     0
  9
$TDCREATE
 40
2452216.495110509
  9
$TDUPDATE
 40
2452216.4953711801
  9
$TDINDWG
 40
0.00026125
  9
$TDUSRTIMER
 40
0.0002611343
  9
$USRTIMER
 70
     1
  9
$ANGBASE
 50
0.0
  9
$ANGDIR
 70
     0
  9
$PDMODE
 70
     0
  9
$PDSIZE
 40
0.0
  9
$PLINEWID
 40
0.0
  9
$COORDS
 70
     1
  9
$SPLFRAME
 70
     0
  9
$SPLINETYPE
 70
     6
  9
$SPLINESEGS
 70
     8
  9
$ATTDIA
 70
     0
  9
$ATTREQ
 70
     1
  9
$HANDLING
 70
-16383
  9
$HANDSEED
  5
439
  9
$SURFTAB1
 70
     6
  9
$SURFTAB2
 70
     6
  9
$SURFTYPE
 70
     6
  9
$SURFU
 70
     6
  9
$SURFV
 70
     6
  9
$UCSNAME
  2

  9
$UCSORG
 10
0.0
 20
0.0
 30
0.0
  9
$UCSXDIR
 10
1.0
 20
0.0
 30
0.0
  9
$UCSYDIR
 10
0.0
 20
1.0
 30
0.0
  9
$PUCSNAME
  2

  9
$PUCSORG
 10
0.0
 20
0.0
 30
0.0
  9
$PUCSXDIR
 10
1.0
 20
0.0
 30
0.0
  9
$PUCSYDIR
 10
0.0
 20
1.0
 30
0.0
  9
$USERI1
 70
     0
  9
$USERI2
 70
     0
  9
$USERI3
 70
     0
  9
$USERI4
 70
     0
  9
$USERI5
 70
     0
  9
$USERR1
 40
0.0
  9
$USERR2
 40
0.0
  9
$USERR3
 40
0.0
  9
$USERR4
 40
0.0
  9
$USERR5
 40
0.0
  9
$WORLDVIEW
 70
     1
  9
$SHADEDGE
 70
     3
  9
$SHADEDIF
 70
    70
  9
$TILEMODE
 70
     1
  9
$MAXACTVP
 70
    64
  9
$PLIMCHECK
 70
     0
  9
$PEXTMIN
 10
1.0000000000000000E+020
 20
1.0000000000000000E+020
 30
1.0000000000000000E+020
  9
$PEXTMAX
 10
-1.0000000000000000E+020
 20
-1.0000000000000000E+020
 30
-1.0000000000000000E+020
  9
$PLIMMIN
 10
0.0
 20
0.0
  9
$PLIMMAX
 10
420.0
 20
297.0
  9
$UNITMODE
 70
     0
  9
$VISRETAIN
 70
     1
  9
$PLINEGEN
 70
     0
  9
$PSLTSCALE
 70
     1
  0
ENDSEC
  0
SECTION
  2
TABLES
  0
TABLE
  2
VPORT
 70
     3
  0
VPORT
  2
*ACTIVE
 70
     0
 10
0.0
 20
0.0
 11
1.0
 21
1.0
 12
212.36907582938389
 22
148.5
 13
0.0
 23
0.0
 14
10.0
 24
10.0
 15
10.0
 25
10.0
 16
0.0
 26
0.0
 36
1.0
 17
0.0
 27
0.0
 37
0.0
 40
297.0
 41
1.430094786729857
 42
50.0
 43
0.0
 44
0.0
 50
0.0
 51
0.0
 71
     0
 72
   100
 73
     1
 74
     3
 75
     0
 76
     0
 77
     0
 78
     0
  0
ENDTAB
  0
TABLE
  2
LTYPE
 70
     2
  0
LTYPE
  2
CONTINUOUS
 70
     0
  3
Solid line
 72
    65
 73
     0
 40
0.0
  0
LTYPE
  2
PHANTOM
 70
     0
  3
Phantom ______  __  __  ______  __  __  ______
 72
    65
 73
     6
 40
63.5
 49
31.75
 49
-6.3499999999999988
 49
6.3499999999999988
 49
-6.3499999999999988
 49
6.3499999999999988
 49
-6.3499999999999988
  0
ENDTAB
  0
TABLE
  2
LAYER
 70
     2
  0
LAYER
  2
0
 70
     0
 62
     7
  6
CONTINUOUS
  0
LAYER
  2
1外形線
 70
     0
 62
     3
  6
CONTINUOUS
  0
ENDTAB
  0
TABLE
  2
STYLE
 70
     2
  0
STYLE
  2
STANDARD
 70
     0
 40
0.0
 41
1.0
 50
0.0
 71
     0
 42
2.5
  3
txt
  4

  0
STYLE
  2
KANJI
 70
     0
 40
0.0
 41
1.0
 50
0.0
 71
     0
 42
2.5
  3
simplex.shx
  4
extfont.shx
  0
ENDTAB
  0
TABLE
  2
VIEW
 70
     0
  0
ENDTAB
  0
TABLE
  2
UCS
 70
     0
  0
ENDTAB
  0
TABLE
  2
APPID
 70
     1
  0
APPID
  2
ACAD
 70
     0
  0
ENDTAB
  0
TABLE
  2
DIMSTYLE
 70
     2
  0
DIMSTYLE
  2
ISO-25
 70
     0
  3

  4

  5

  6

  7

 40
1.0
 41
2.5
 42
0.625
 43
3.75
 44
1.25
 45
0.0
 46
0.0
 47
0.0
 48
0.0
140
2.5
141
2.5
142
0.0
143
0.03937007874016
144
1.0
145
0.0
146
1.0
147
0.625
 71
     0
 72
     0
 73
     0
 74
     0
 75
     0
 76
     0
 77
     1
 78
     8
170
     0
171
     3
172
     1
173
     0
174
     0
175
     0
176
     0
177
     0
178
     0
  0
DIMSTYLE
  2
STANDARD
 70
     0
  3

  4

  5

  6

  7

 40
1.0
 41
0.18
 42
0.0625
 43
0.38
 44
0.18
 45
0.0
 46
0.0
 47
0.0
 48
0.0
140
0.18
141
0.09
142
0.0
143
25.399999999999999
144
1.0
145
0.0
146
1.0
147
0.09
 71
     0
 72
     0
 73
     1
 74
     1
 75
     0
 76
     0
 77
     0
 78
     0
170
     0
171
     2
172
     0
173
     0
174
     0
175
     0
176
     0
177
     0
178
     0
  0
ENDTAB
  0
ENDSEC
  0
SECTION
  2
BLOCKS
  0
BLOCK
  8
0
  2
$MODEL_SPACE
 70
     0
 10
0.0
 20
0.0
 30
0.0
  3
$MODEL_SPACE
  1

  0
ENDBLK
  5
21
  8
0
  0
BLOCK
 67
     1
  8
0
  2
$PAPER_SPACE
 70
     0
 10
0.0
 20
0.0
 30
0.0
  3
$PAPER_SPACE
  1

  0
ENDBLK
  5
1D
 67
     1
  8
0
  0
BLOCK
  8
0
  2
2
 70
     0
 10
0.0
 20
0.0
 30
0.0
  3
2
  1

  0
INSERT
  5
2C
  8
0
  6
CONTINUOUS
  2
*U3
 10
0.0
 20
0.0
 30
0.0
1001
ACAD
1002
{
1000
R14_HATCH_DATA
1000
2C
1011
1.0
1021
-1.5631664576684357E+113
1031
0.0
1021
0.0
1031
0.0
1011
0.0
1021
-1.5631664576684357E+113
1031
0.0
1021
1.0
1031
0.0
1011
0.0
1021
-1.5631664576684357E+113
1031
0.0
1021
0.0
1031
1.0
1040
0.0
1010
0.0
1020
0.0
1030
1.0
1000
SOLID
1070
     1
1070
     1
1071
        1
1071
        7
1070
     0
1070
     1
1071
        3
1040
0.0000000000000284
1040
0.0
1040
-0.899999999998343
1040
0.2411542731875897
1040
-0.8999999999983572
1040
-0.2411542731875613
1071
        3
1005
2F
1005
2D
1005
30
1070
     0
1070
     1
1040
0.0028941747346077
1071
        1
1040
-0.5303136156475148
1040
-0.0796654556697263
1040
0.0
1002
}
  0
LINE
  5
2D
  8
0
 10
-0.8999999999983572
 20
0.2411542731879876
 30
0.0
 11
-0.8999999999983572
 21
-0.2411542731880445
 31
0.0
  0
LINE
  5
2E
  8
0
 10
-0.9999999999983515
 20
0.0
 30
0.0
 11
0.0
 21
0.0
 31
0.0
  0
LINE
  5
2F
  8
0
 10
-0.8999999999984424
 20
0.2411542731875897
 30
0.0
 11
0.0
 21
0.0
 31
0.0
  0
LINE
  5
30
  8
0
 10
-0.8999999999984424
 20
-0.2411542731875897
 30
0.0
 11
0.0
 21
0.0
 31
0.0
  0
ENDBLK
  5
32
  8
0
  0
BLOCK
  8
0
  2
*U3
 70
     1
 10
0.0
 20
0.0
 30
0.0
  3
*U3
  1

  0
SOLID
  5
404
  8
0
  6
CONTINUOUS
 10
-0.5999999999988905
 20
0.0000000000000095
 30
0.0
 11
0.0000000000000284
 21
0.0
 31
0.0
 12
-0.899999999998343
 22
0.2411542731875897
 32
0.0
 13
-0.899999999998343
 23
0.2411542731875897
 33
0.0
210
0.0
220
0.0
230
1.0
  0
SOLID
  5
405
  8
0
  6
CONTINUOUS
 10
-0.5999999999988905
 20
0.0000000000000095
 30
0.0
 11
-0.899999999998343
 21
0.2411542731875897
 31
0.0
 12
-0.8999999999983572
 22
-0.2411542731875613
 32
0.0
 13
-0.8999999999983572
 23
-0.2411542731875613
 33
0.0
  0
SOLID
  5
406
  8
0
  6
CONTINUOUS
 10
-0.5999999999988905
 20
0.0000000000000095
 30
0.0
 11
-0.8999999999983572
 21
-0.2411542731875613
 31
0.0
 12
0.0000000000000284
 22
0.0
 32
0.0
 13
0.0000000000000284
 23
0.0
 33
0.0
210
0.0
220
0.0
230
1.0
  0
ENDBLK
  5
408
  8
0
  0
ENDSEC
  0
SECTION
  2
ENTITIES
  0
LINE
  5
21C
  8
1外形線
 10
16.349604699199681
 20
231.34378661694959
 30
0.0
 11
579.26662176359787
 21
231.34378661694959
 31
0.0
  0
LINE
  5
21D
  8
1外形線
 10
16.349604699199681
 20
16.343786616949611
 30
0.0
 11
579.26662176359787
 21
16.343786616949611
 31
0.0
  0
ARC
  5
21E
  8
1外形線
 10
177.2666217635979
 20
101.3437866169496
 30
0.0
 40
10.0
 50
0.0
 51
90.0
  0
ARC
  5
21F
  8
1外形線
 10
177.2666217635979
 20
101.3437866169496
 30
0.0
 40
6.0
 50
0.0
 51
90.0
  0
LINE
  5
220
  8
1外形線
 10
183.2666217635979
 20
97.343786616949643
 30
0.0
 11
161.2666217635979
 21
97.343786616949643
 31
0.0
  0
LINE
  5
221
  8
1外形線
 10
158.2666217635979
 20
101.3437866169496
 30
0.0
 11
186.2666217635979
 21
101.3437866169496
 31
0.0
  0
LINE
  5
222
  8
1外形線
 10
16.349604699199681
 20
231.34378661694959
 30
0.0
 11
16.349604699199681
 21
16.343786616949611
 31
0.0
  0
ARC
  5
223
  8
1外形線
 10
119.3496046991996
 20
109.3437866169496
 30
0.0
 40
8.0
 50
180.0
 51
270.0
  0
LINE
  5
224
  8
1外形線
 10
66.349604699199688
 20
93.343786616949643
 30
0.0
 11
128.3496046991996
 21
93.343786616949643
 31
0.0
  0
ARC
  5
225
  8
1外形線
 10
86.349604699199688
 20
110.3437866169496
 30
0.0
 40
1.0
 50
0.0
 51
90.0
  0
LINE
  5
226
  8
1外形線
 10
86.349604699199688
 20
111.3437866169496
 30
0.0
 11
108.349602791851
 21
111.3437866169496
 31
0.0
  0
ARC
  5
227
  8
1外形線
 10
75.349604699199688
 20
109.3437866169496
 30
0.0
 40
8.0
 50
270.0
 51
0.0
  0
LINE
  5
228
  8
1外形線
 10
75.349604699199688
 20
101.3437866169496
 30
0.0
 11
67.349604699199674
 21
101.3437866169496
 31
0.0
  0
ARC
  5
229
  8
1外形線
 10
67.349604699199674
 20
100.3437866169496
 30
0.0
 40
1.0
 50
90.0
 51
180.0
  0
LINE
  5
22A
  8
1外形線
 10
66.349604699199688
 20
100.3437866169496
 30
0.0
 11
66.349604699199688
 21
93.343786616949643
 31
0.0
  0
LINE
  5
22B
  8
1外形線
 10
86.349604699199688
 20
111.3437866169496
 30
0.0
 11
84.349604699199688
 21
111.3437866169496
 31
0.0
  0
LINE
  5
22C
  8
1外形線
 10
83.349604699199674
 20
110.3437866169496
 30
0.0
 11
83.349604699199674
 21
109.3437866169496
 31
0.0
  0
ARC
  5
22D
  8
1外形線
 10
84.349604699199688
 20
110.3437866169496
 30
0.0
 40
1.0
 50
90.0
 51
180.0
  0
LINE
  5
22E
  8
1外形線
 10
107.3496046991996
 20
110.3437866169496
 30
0.0
 11
107.3496046991996
 21
101.3437866169496
 31
0.0
  0
LINE
  5
22F
  8
1外形線
 10
87.349604699199674
 20
101.3437866169496
 30
0.0
 11
87.349604699199674
 21
110.3437866169496
 31
0.0
  0
LINE
  5
230
  8
1外形線
 10
107.3496046991996
 20
101.3437866169496
 30
0.0
 11
87.349604699199674
 21
101.3437866169496
 31
0.0
  0
LINE
  5
231
  8
1外形線
 10
87.349604699199674
 20
107.3437866169496
 30
0.0
 11
107.3496046991996
 21
107.3437866169496
 31
0.0
  0
ARC
  5
232
  8
1外形線
 10
110.3496046991996
 20
110.3437866169496
 30
0.0
 40
1.0
 50
0.0
 51
90.0
  0
LINE
  5
233
  8
1外形線
 10
110.3496046991996
 20
111.3437866169496
 30
0.0
 11
108.3496046991996
 21
111.3437866169496
 31
0.0
  0
ARC
  5
234
  8
1外形線
 10
108.3496046991996
 20
110.3437866169496
 30
0.0
 40
1.0
 50
90.0
 51
180.0
  0
LINE
  5
235
  8
1外形線
 10
111.3496046991997
 20
109.3437866169496
 30
0.0
 11
111.3496046991997
 21
110.3437866169496
 31
0.0
  0
LINE
  5
236
  8
1外形線
 10
127.3496046991996
 20
101.3437866169496
 30
0.0
 11
119.3496046991996
 21
101.3437866169496
 31
0.0
  0
ARC
  5
237
  8
1外形線
 10
127.3496046991996
 20
100.3437866169496
 30
0.0
 40
1.0
 50
0.0
 51
90.0
  0
LINE
  5
238
  8
1外形線
 10
128.3496046991996
 20
93.343786616949643
 30
0.0
 11
128.3496046991996
 21
100.3437866169496
 31
0.0
  0
LINE
  5
239
  8
1外形線
 10
161.2666217635979
 20
107.3437866169496
 30
0.0
 11
161.2666217635979
 21
101.3437885242983
 31
0.0
  0
ARC
  5
23A
  8
1外形線
 10
167.2666217635979
 20
101.3437866169496
 30
0.0
 40
10.0
 50
90.0
 51
180.0
  0
ARC
  5
23B
  8
1外形線
 10
167.2666217635979
 20
101.3437866169496
 30
0.0
 40
6.0
 50
90.0
 51
180.0
  0
ARC
  5
23C
  8
1外形線
 10
158.2666217635979
 20
100.3437866169496
 30
0.0
 40
1.0
 50
90.0
 51
180.0
  0
LINE
  5
23D
  8
1外形線
 10
161.2666217635979
 20
101.3437866169496
 30
0.0
 11
161.2666217635979
 21
101.3437866169496
 31
0.0
  0
LINE
  5
23E
  8
1外形線
 10
157.2666217635979
 20
100.3437866169496
 30
0.0
 11
157.2666217635979
 21
101.3437866169496
 31
0.0
  0
LINE
  5
23F
  8
1外形線
 10
161.2666217635979
 20
93.343786616949643
 30
0.0
 11
157.2666217635979
 21
93.343786616949643
 31
0.0
  0
LINE
  5
240
  8
1外形線
 10
161.2666217635979
 20
97.343786616949643
 30
0.0
 11
161.2666217635979
 21
93.343786616949643
 31
0.0
  0
LINE
  5
241
  8
1外形線
 10
157.2666217635979
 20
93.343786616949643
 30
0.0
 11
157.2666217635979
 21
100.3437866169496
 31
0.0
  0
LINE
  5
242
  8
1外形線
 10
167.2666217635979
 20
111.3437866169496
 30
0.0
 11
177.2666217635979
 21
111.3437866169496
 31
0.0
  0
LINE
  5
243
  8
1外形線
 10
177.2666217635979
 20
107.3437866169496
 30
0.0
 11
172.2666217635979
 21
107.3437866169496
 31
0.0
  0
LINE
  5
244
  8
1外形線
 10
167.2666217635979
 20
107.3437866169496
 30
0.0
 11
172.2666217635979
 21
107.3437866169496
 31
0.0
  0
TEXT
  5
245
  8
1外形線
 10
66.349602707733936
 20
201.34378582535169
 30
0.0
 40
10.0
  1
SL-300
  7
KANJI
  0
LINE
  5
246
  8
1外形線
 10
108.3496046991996
 20
171.34378661694959
 30
0.0
 11
127.3496046991996
 21
171.34378661694959
 31
0.0
  0
TEXT
  5
247
  8
1外形線
 10
121.8996046991996
 20
161.7992122211426
 30
0.0
 40
5.0999999999999988
  1
L
 50
90.0
  0
TEXT
  5
248
  8
1外形線
 10
121.8996046991996
 20
147.21297520279839
 30
0.0
 40
5.0999999999999988
  1
S
 50
90.0
  0
CIRCLE
  5
249
  8
1外形線
 10
119.3496046991996
 20
156.34378661694959
 30
0.0
 40
4.0
  0
LINE
  5
24A
  8
1外形線
 10
127.3496046991996
 20
141.34378661694959
 30
0.0
 11
108.3496046991996
 21
141.34378661694959
 31
0.0
  0
POLYLINE
  5
24B
  8
1外形線
 66
     1
 10
0.0
 20
0.0
 30
0.0
  0
VERTEX
  5
421
  8
1外形線
 10
119.3496046991996
 20
141.34378661694959
 30
0.0
 42
-0.1200112168691451
  0
VERTEX
  5
422
  8
1外形線
 10
116.3831136822803
 20
142.0662159376167
 30
0.0
 42
-0.1049567332455672
  0
VERTEX
  5
423
  8
1外形線
 10
113.69275044970721
 20
144.27271880508411
 30
0.0
 42
-0.0889226874667001
  0
VERTEX
  5
424
  8
1外形線
 10
111.8119972305885
 20
147.73710395641109
 30
0.0
 42
-0.0965354354518603
  0
VERTEX
  5
425
  8
1外形線
 10
111.3496046992
 20
151.34378661694959
 30
0.0
 42
-0.0801668980116139
  0
SEQEND
  5
426
  8
1外形線
  0
POLYLINE
  5
24C
  8
1外形線
 66
     1
 10
0.0
 20
0.0
 30
0.0
  0
VERTEX
  5
427
  8
1外形線
 10
119.3496046991996
 20
171.3437866169497
 30
0.0
 42
0.1200112168691451
  0
VERTEX
  5
428
  8
1外形線
 10
116.3831136822803
 20
170.62135729628261
 30
0.0
 42
0.1049567332455672
  0
VERTEX
  5
429
  8
1外形線
 10
113.69275044970721
 20
168.41485442881509
 30
0.0
 42
0.0889226874667001
  0
VERTEX
  5
42A
  8
1外形線
 10
111.8119972305885
 20
164.95046927748811
 30
0.0
 42
0.0965354354518603
  0
VERTEX
  5
42B
  8
1外形線
 10
111.3496046992
 20
161.3437866169497
 30
0.0
 42
0.0801668980116139
  0
SEQEND
  5
42C
  8
1外形線
  0
ARC
  5
24D
  8
1外形線
 10
108.3496046991996
 20
170.34378661694959
 30
0.0
 40
1.0
 50
90.0
 51
180.0
  0
ARC
  5
24E
  8
1外形線
 10
86.349604699199688
 20
170.34378661694959
 30
0.0
 40
1.0
 50
0.0
 51
90.0
  0
ARC
  5
24F
  8
1外形線
 10
67.349604699199674
 20
170.34378661694959
 30
0.0
 40
1.0
 50
90.0
 51
180.0
  0
POLYLINE
  5
250
  8
1外形線
 66
     1
 10
0.0
 20
0.0
 30
0.0
  0
VERTEX
  5
42D
  8
1外形線
 10
75.349604699199631
 20
171.3437866169497
 30
0.0
 42
-0.1200112168691451
  0
VERTEX
  5
42E
  8
1外形線
 10
78.31609571611898
 20
170.62135729628261
 30
0.0
 42
-0.1049567332455672
  0
VERTEX
  5
42F
  8
1外形線
 10
81.006458948692057
 20
168.41485442881509
 30
0.0
 42
-0.0889226874667001
  0
VERTEX
  5
430
  8
1外形線
 10
82.887212167810844
 20
164.95046927748811
 30
0.0
 42
-0.0965354354518603
  0
VERTEX
  5
431
  8
1外形線
 10
83.349604699199233
 20
161.3437866169497
 30
0.0
 42
-0.0801668980116139
  0
SEQEND
  5
432
  8
1外形線
  0
ARC
  5
251
  8
1外形線
 10
86.349604699199631
 20
142.34378661694959
 30
0.0
 40
1.0
 50
270.0
 51
0.0
  0
LINE
  5
252
  8
1外形線
 10
86.349608002824425
 20
141.34378661694959
 30
0.0
 11
108.3496020018013
 21
141.34378661694959
 31
0.0
  0
POLYLINE
  5
253
  8
1外形線
 66
     1
 10
0.0
 20
0.0
 30
0.0
  0
VERTEX
  5
433
  8
1外形線
 10
75.349604699199631
 20
141.34378661694959
 30
0.0
 42
0.1200112168691451
  0
VERTEX
  5
434
  8
1外形線
 10
78.31609571611898
 20
142.0662159376167
 30
0.0
 42
0.1049567332455672
  0
VERTEX
  5
435
  8
1外形線
 10
81.006458948692057
 20
144.27271880508411
 30
0.0
 42
0.0889226874667001
  0
VERTEX
  5
436
  8
1外形線
 10
82.887212167810844
 20
147.73710395641109
 30
0.0
 42
0.0965354354518603
  0
VERTEX
  5
437
  8
1外形線
 10
83.349604699199233
 20
151.34378661694959
 30
0.0
 42
0.0801668980116139
  0
SEQEND
  5
438
  8
1外形線
  0
LINE
  5
254
  8
1外形線
 10
66.349604699199688
 20
142.34378661694959
 30
0.0
 11
66.349604699199688
 21
170.34378661694959
 31
0.0
  0
LINE
  5
255
  8
1外形線
 10
86.349604699199631
 20
141.34378661694959
 30
0.0
 11
67.349604699199674
 21
141.34378661694959
 31
0.0
  0
ARC
  5
256
  8
1外形線
 10
67.349604699199674
 20
142.34378661694959
 30
0.0
 40
1.0
 50
180.0
 51
270.0
  0
CIRCLE
  5
257
  8
1外形線
 10
75.349604699199688
 20
156.34378661694959
 30
0.0
 40
4.0
  0
LINE
  5
258
  8
1外形線
 10
83.349604699198665
 20
161.34378661694959
 30
0.0
 11
83.349604699199674
 21
151.34378661694959
 31
0.0
  0
LINE
  5
259
  8
1外形線
 10
107.3496046991996
 20
142.34378661694959
 30
0.0
 11
107.3496046991996
 21
151.34378661694959
 31
0.0
  0
LINE
  5
25A
  8
1外形線
 10
87.349604699199674
 20
151.34378661694959
 30
0.0
 11
87.349604699199631
 21
142.34378661694959
 31
0.0
  0
ARC
  5
25B
  8
1外形線
 10
108.3496046991996
 20
142.34378661694959
 30
0.0
 40
1.0
 50
180.0
 51
270.0
  0
LINE
  5
25C
  8
1外形線
 10
87.349604699199674
 20
161.34378661694959
 30
0.0
 11
107.3496046991996
 21
161.34378661694959
 31
0.0
  0
LINE
  5
25D
  8
1外形線
 10
107.3496046991996
 20
151.34378661694959
 30
0.0
 11
87.349604699199674
 21
151.34378661694959
 31
0.0
  0
LINE
  5
25E
  8
1外形線
 10
87.349604699199674
 20
170.34378661694959
 30
0.0
 11
87.349604699199674
 21
161.34378661694959
 31
0.0
  0
LINE
  5
25F
  8
1外形線
 10
111.3496046992006
 20
161.34378661694959
 30
0.0
 11
111.3496046991996
 21
151.34378661694959
 31
0.0
  0
LINE
  5
260
  8
1外形線
 10
107.3496046991996
 20
161.34378661694959
 30
0.0
 11
107.3496046991996
 21
170.34378661694959
 31
0.0
  0
LINE
  5
261
  8
1外形線
 10
83.349604699199674
 20
171.34378661694959
 30
0.0
 11
108.3496020018013
 21
171.34378661694959
 31
0.0
  0
LINE
  5
262
  8
1外形線
 10
67.349604699199674
 20
171.34378661694959
 30
0.0
 11
86.349604699199688
 21
171.34378661694959
 31
0.0
  0
ARC
  5
263
  8
1外形線
 10
127.3496046991996
 20
170.34378661694959
 30
0.0
 40
1.0
 50
0.0
 51
90.0
  0
LINE
  5
264
  8
1外形線
 10
128.3496046991996
 20
170.34378661694959
 30
0.0
 11
128.3496046991996
 21
142.34378661694959
 31
0.0
  0
ARC
  5
265
  8
1外形線
 10
127.3496046991996
 20
142.34378661694959
 30
0.0
 40
1.0
 50
270.0
 51
0.0
  0
LINE
  5
266
  8
1外形線
 10
229.2666217635979
 20
93.343786616949643
 30
0.0
 11
494.83999107532128
 21
93.343786616949643
 31
0.0
  0
LINE
  5
267
  8
1外形線
 10
229.92906834468661
 20
95.343786616949629
 30
0.0
 11
528.86662715839464
 21
95.343786616949629
 31
0.0
  0
LINE
  5
268
  8
1外形線
  6
PHANTOM
 10
499.26662176359798
 20
51.343786616949643
 30
0.0
 11
259.26662176359793
 21
51.343786616949643
 31
0.0
  0
LINE
  5
269
  8
1外形線
  6
PHANTOM
 10
259.26662176359793
 20
58.343786616949643
 30
0.0
 11
499.26662176359798
 21
58.343786616949643
 31
0.0
  0
LINE
  5
26A
  8
1外形線
 10
229.7666217635979
 20
59.343786616949643
 30
0.0
 11
499.26662176359798
 21
59.343786616949643
 31
0.0
  0
LINE
  5
26B
  8
1外形線
 10
229.76662176359841
 20
50.343786616949643
 30
0.0
 11
499.26662176359798
 21
50.343786616949643
 31
0.0
  0
LINE
  5
26C
  8
1外形線
 10
229.7666217635979
 20
151.84378661694959
 30
0.0
 11
499.26662176359798
 21
151.84378661694959
 31
0.0
  0
LINE
  5
26D
  8
1外形線
 10
229.7666217635979
 20
160.84378661694959
 30
0.0
 11
499.26662176359798
 21
160.84378661694959
 31
0.0
  0
LINE
  5
26E
  8
1外形線
 10
223.46662176359791
 20
57.8437866169497
 30
0.0
 11
223.46662176359791
 21
51.8437866169497
 31
0.0
  0
LINE
  5
26F
  8
1外形線
 10
217.2666217635979
 20
59.84378661694965
 30
0.0
 11
217.2666217635979
 21
49.84378661694965
 31
0.0
  0
LINE
  5
270
  8
1外形線
 10
221.7666217635979
 20
57.8437866169497
 30
0.0
 11
221.7666217635979
 21
51.8437866169497
 31
0.0
  0
LINE
  5
271
  8
1外形線
 10
221.2666217635979
 20
59.443786616949659
 30
0.0
 11
221.2666217635979
 21
50.24378661694967
 31
0.0
  0
ARC
  5
272
  8
1外形線
 10
225.7666217635979
 20
49.84378661694965
 30
0.0
 40
3.5
 50
270.0
 51
0.0
  0
ARC
  5
273
  8
1外形線
 10
220.76662176359801
 20
49.84378661694965
 30
0.0
 40
3.5
 50
180.0
 51
270.0
  0
LINE
  5
274
  8
1外形線
 10
225.2666217635979
 20
51.8437866169497
 30
0.0
 11
225.2666217635979
 21
50.843786616949693
 31
0.0
  0
LINE
  5
275
  8
1外形線
 10
223.466621763598
 20
50.24378661694967
 30
0.0
 11
223.466621763598
 21
50.843786616949693
 31
0.0
  0
LINE
  5
276
  8
1外形線
 10
223.466621763598
 20
50.843786616949693
 30
0.0
 11
225.2666217635979
 21
50.843786616949693
 31
0.0
  0
LINE
  5
277
  8
1外形線
 10
221.2666217635979
 20
50.24378661694967
 30
0.0
 11
223.466621763598
 21
50.24378661694967
 31
0.0
  0
LINE
  5
278
  8
1外形線
 10
221.7666217635979
 20
51.8437866169497
 30
0.0
 11
225.2666217635979
 21
51.8437866169497
 31
0.0
  0
LINE
  5
279
  8
1外形線
 10
220.76662176359801
 20
46.343786616949643
 30
0.0
 11
225.7666217635979
 21
46.343786616949643
 31
0.0
  0
ARC
  5
27A
  8
1外形線
 10
229.76662176359841
 20
49.84378661694965
 30
0.0
 40
0.5
 50
90.0
 51
180.0
  0
ARC
  5
27B
  8
1外形線
 10
225.7666217635979
 20
59.84378661694965
 30
0.0
 40
3.5
 50
0.0
 51
90.0
  0
ARC
  5
27C
  8
1外形線
 10
220.76662176359801
 20
59.84378661694965
 30
0.0
 40
3.5
 50
90.0
 51
180.0
  0
LINE
  5
27D
  8
1外形線
 10
225.2666217635979
 20
58.8437866169497
 30
0.0
 11
225.2666217635979
 21
57.8437866169497
 31
0.0
  0
LINE
  5
27E
  8
1外形線
 10
223.466621763598
 20
59.443786616949659
 30
0.0
 11
223.466621763598
 21
58.8437866169497
 31
0.0
  0
LINE
  5
27F
  8
1外形線
 10
223.466621763598
 20
58.8437866169497
 30
0.0
 11
225.2666217635979
 21
58.8437866169497
 31
0.0
  0
LINE
  5
280
  8
1外形線
 10
221.2666217635979
 20
59.443786616949659
 30
0.0
 11
223.466621763598
 21
59.443786616949659
 31
0.0
  0
LINE
  5
281
  8
1外形線
 10
225.2666217635979
 20
57.8437866169497
 30
0.0
 11
221.7666217635979
 21
57.8437866169497
 31
0.0
  0
LINE
  5
282
  8
1外形線
 10
225.7666217635979
 20
63.343786616949643
 30
0.0
 11
220.76662176359801
 21
63.343786616949643
 31
0.0
  0
ARC
  5
283
  8
1外形線
 10
229.7666217635979
 20
59.84378661694965
 30
0.0
 40
0.5
 50
180.0
 51
270.0
  0
LINE
  5
284
  8
1外形線
 10
183.2666217635979
 20
107.3437866169496
 30
0.0
 11
183.2666217635979
 21
101.3437866169496
 31
0.0
  0
LINE
  5
285
  8
1外形線
 10
187.2666217635979
 20
101.3437866169496
 30
0.0
 11
187.2666217635979
 21
100.3437866169496
 31
0.0
  0
LINE
  5
286
  8
1外形線
 10
183.2666217635979
 20
101.3437866169496
 30
0.0
 11
183.2666217635979
 21
101.3437866169496
 31
0.0
  0
ARC
  5
287
  8
1外形線
 10
186.2666217635979
 20
100.3437866169496
 30
0.0
 40
1.0
 50
0.0
 51
90.0
  0
LINE
  5
288
  8
1外形線
 10
183.2666217635979
 20
93.343786616949643
 30
0.0
 11
183.2666217635979
 21
97.343786616949643
 31
0.0
  0
LINE
  5
289
  8
1外形線
 10
187.2666217635979
 20
93.343786616949643
 30
0.0
 11
183.2666217635979
 21
93.343786616949643
 31
0.0
  0
LINE
  5
28A
  8
1外形線
 10
187.2666217635979
 20
100.3437866169496
 30
0.0
 11
187.2666217635979
 21
93.343786616949643
 31
0.0
  0
ARC
  5
28B
  8
1外形線
 10
227.1589266090115
 20
99.343786616949643
 30
0.0
 40
0.5
 50
29.999999999999751
 51
90.0
  0
LINE
  5
28C
  8
1外形線
 10
217.2666217635979
 20
93.343786616949643
 30
0.0
 11
229.2666217635979
 21
93.343786616949643
 31
0.0
  0
LINE
  5
28D
  8
1外形線
 10
219.37431691818469
 20
99.843786616949643
 30
0.0
 11
227.1589266090115
 21
99.843786616949643
 31
0.0
  0
ARC
  5
28E
  8
1外形線
 10
219.37431691818469
 20
99.343786616949643
 30
0.0
 40
0.5
 50
90.0
 51
150.0000000000002
  0
ARC
  5
28F
  8
1外形線
 10
229.7666217635979
 20
93.343786616949643
 30
0.0
 40
12.5
 50
150.0000000000002
 51
180.0
  0
ARC
  5
290
  8
1外形線
 10
229.92906834468661
 20
96.343786616949643
 30
0.0
 40
1.0
 50
192.83958840690451
 51
270.0
  0
ARC
  5
291
  8
1外形線
 10
216.7666217635979
 20
93.343786616949643
 30
0.0
 40
12.5
 50
0.0
 51
29.999999999999751
  0
LINE
  5
292
  8
1外形線
 10
272.76662176359798
 20
58.343786616949593
 30
0.0
 11
272.76662176359798
 21
51.343786616949593
 31
0.0
  0
LINE
  5
293
  8
1外形線
 10
272.42531604623548
 20
58.343786616949593
 30
0.0
 11
272.42531604623548
 21
51.343786616949593
 31
0.0
  0
LINE
  5
294
  8
1外形線
 10
271.26662176359793
 20
58.343786616949593
 30
0.0
 11
271.26662176359793
 21
51.343786616949593
 31
0.0
  0
LINE
  5
295
  8
1外形線
 10
273.92531604623559
 20
58.343786616949593
 30
0.0
 11
273.92531604623559
 21
51.343786616949593
 31
0.0
  0
LINE
  5
296
  8
1外形線
 10
263.76662176359793
 20
58.343786616949643
 30
0.0
 11
263.76662176359793
 21
51.343786616949643
 31
0.0
  0
LINE
  5
297
  8
1外形線
 10
263.42531604623559
 20
58.343786616949643
 30
0.0
 11
263.42531604623559
 21
51.343786616949643
 31
0.0
  0
LINE
  5
298
  8
1外形線
 10
266.42531604623548
 20
58.343786616949593
 30
0.0
 11
266.42531604623548
 21
51.343786616949593
 31
0.0
  0
LINE
  5
299
  8
1外形線
 10
265.26662176359793
 20
58.343786616949643
 30
0.0
 11
265.26662176359793
 21
51.343786616949643
 31
0.0
  0
LINE
  5
29A
  8
1外形線
 10
264.92531604623559
 20
58.343786616949643
 30
0.0
 11
264.92531604623559
 21
51.343786616949643
 31
0.0
  0
LINE
  5
29B
  8
1外形線
 10
268.26662176359793
 20
58.343786616949593
 30
0.0
 11
268.26662176359793
 21
51.343786616949593
 31
0.0
  0
LINE
  5
29C
  8
1外形線
 10
267.92531604623548
 20
58.343786616949593
 30
0.0
 11
267.92531604623548
 21
51.343786616949593
 31
0.0
  0
LINE
  5
29D
  8
1外形線
 10
266.76662176359793
 20
58.343786616949593
 30
0.0
 11
266.76662176359793
 21
51.343786616949593
 31
0.0
  0
LINE
  5
29E
  8
1外形線
 10
269.42531604623559
 20
58.343786616949593
 30
0.0
 11
269.42531604623559
 21
51.343786616949593
 31
0.0
  0
LINE
  5
29F
  8
1外形線
 10
269.76662176359793
 20
58.343786616949593
 30
0.0
 11
269.76662176359793
 21
51.343786616949593
 31
0.0
  0
LINE
  5
2A0
  8
1外形線
 10
270.92531604623559
 20
58.343786616949593
 30
0.0
 11
270.92531604623559
 21
51.343786616949593
 31
0.0
  0
LINE
  5
2A1
  8
1外形線
 10
260.42531604623548
 20
58.343786616949643
 30
0.0
 11
260.42531604623548
 21
51.343786616949643
 31
0.0
  0
LINE
  5
2A2
  8
1外形線
 10
260.76662176359793
 20
58.343786616949643
 30
0.0
 11
260.76662176359793
 21
51.343786616949643
 31
0.0
  0
LINE
  5
2A3
  8
1外形線
 10
261.92531604623548
 20
58.343786616949643
 30
0.0
 11
261.92531604623548
 21
51.343786616949643
 31
0.0
  0
LINE
  5
2A4
  8
1外形線
 10
262.26662176359798
 20
58.343786616949643
 30
0.0
 11
262.26662176359798
 21
51.343786616949643
 31
0.0
  0
LINE
  5
2A5
  8
1外形線
 10
259.26662176359793
 20
51.343786616949643
 30
0.0
 11
259.26662176359793
 21
58.343786616949643
 31
0.0
  0
LINE
  5
2A6
  8
1外形線
 10
304.26662176359793
 20
58.343786616949409
 30
0.0
 11
304.26662176359793
 21
51.343786616949423
 31
0.0
  0
LINE
  5
2A7
  8
1外形線
 10
303.92531604623548
 20
58.343786616949409
 30
0.0
 11
303.92531604623548
 21
51.343786616949423
 31
0.0
  0
LINE
  5
2A8
  8
1外形線
 10
302.76662176359793
 20
58.343786616949409
 30
0.0
 11
302.76662176359793
 21
51.343786616949423
 31
0.0
  0
LINE
  5
2A9
  8
1外形線
 10
293.76662176359798
 20
58.343786616949473
 30
0.0
 11
293.76662176359798
 21
51.343786616949473
 31
0.0
  0
LINE
  5
2AA
  8
1外形線
 10
293.42531604623548
 20
58.343786616949473
 30
0.0
 11
293.42531604623548
 21
51.343786616949473
 31
0.0
  0
LINE
  5
2AB
  8
1外形線
 10
292.26662176359793
 20
58.343786616949473
 30
0.0
 11
292.26662176359793
 21
51.343786616949473
 31
0.0
  0
LINE
  5
2AC
  8
1外形線
 10
302.42531604623559
 20
58.343786616949409
 30
0.0
 11
302.42531604623559
 21
51.343786616949423
 31
0.0
  0
LINE
  5
2AD
  8
1外形線
 10
301.26662176359793
 20
58.343786616949409
 30
0.0
 11
301.26662176359793
 21
51.343786616949423
 31
0.0
  0
LINE
  5
2AE
  8
1外形線
 10
300.92531604623559
 20
58.343786616949409
 30
0.0
 11
300.92531604623559
 21
51.343786616949423
 31
0.0
  0
LINE
  5
2AF
  8
1外形線
 10
298.26662176359798
 20
58.343786616949409
 30
0.0
 11
298.26662176359798
 21
51.343786616949423
 31
0.0
  0
LINE
  5
2B0
  8
1外形線
 10
299.42531604623548
 20
58.343786616949409
 30
0.0
 11
299.42531604623548
 21
51.343786616949423
 31
0.0
  0
LINE
  5
2B1
  8
1外形線
 10
299.76662176359798
 20
58.343786616949409
 30
0.0
 11
299.76662176359798
 21
51.343786616949423
 31
0.0
  0
LINE
  5
2B2
  8
1外形線
 10
296.42531604623559
 20
58.343786616949473
 30
0.0
 11
296.42531604623559
 21
51.343786616949473
 31
0.0
  0
LINE
  5
2B3
  8
1外形線
 10
296.76662176359793
 20
58.343786616949473
 30
0.0
 11
296.76662176359793
 21
51.343786616949473
 31
0.0
  0
LINE
  5
2B4
  8
1外形線
 10
297.92531604623548
 20
58.343786616949409
 30
0.0
 11
297.92531604623548
 21
51.343786616949423
 31
0.0
  0
LINE
  5
2B5
  8
1外形線
 10
294.92531604623548
 20
58.343786616949473
 30
0.0
 11
294.92531604623548
 21
51.343786616949473
 31
0.0
  0
LINE
  5
2B6
  8
1外形線
 10
295.26662176359793
 20
58.343786616949473
 30
0.0
 11
295.26662176359793
 21
51.343786616949473
 31
0.0
  0
LINE
  5
2B7
  8
1外形線
 10
283.26662176359798
 20
58.343786616949529
 30
0.0
 11
283.26662176359798
 21
51.343786616949522
 31
0.0
  0
LINE
  5
2B8
  8
1外形線
 10
282.92531604623548
 20
58.343786616949529
 30
0.0
 11
282.92531604623548
 21
51.343786616949522
 31
0.0
  0
LINE
  5
2B9
  8
1外形線
 10
281.76662176359793
 20
58.343786616949529
 30
0.0
 11
281.76662176359793
 21
51.343786616949522
 31
0.0
  0
LINE
  5
2BA
  8
1外形線
 10
291.92531604623559
 20
58.343786616949473
 30
0.0
 11
291.92531604623559
 21
51.343786616949473
 31
0.0
  0
LINE
  5
2BB
  8
1外形線
 10
290.76662176359793
 20
58.343786616949473
 30
0.0
 11
290.76662176359793
 21
51.343786616949473
 31
0.0
  0
LINE
  5
2BC
  8
1外形線
 10
290.42531604623559
 20
58.343786616949473
 30
0.0
 11
290.42531604623559
 21
51.343786616949473
 31
0.0
  0
LINE
  5
2BD
  8
1外形線
 10
287.76662176359793
 20
58.343786616949473
 30
0.0
 11
287.76662176359793
 21
51.343786616949473
 31
0.0
  0
LINE
  5
2BE
  8
1外形線
 10
288.92531604623559
 20
58.343786616949473
 30
0.0
 11
288.92531604623559
 21
51.343786616949473
 31
0.0
  0
LINE
  5
2BF
  8
1外形線
 10
289.26662176359798
 20
58.343786616949473
 30
0.0
 11
289.26662176359798
 21
51.343786616949473
 31
0.0
  0
LINE
  5
2C0
  8
1外形線
 10
285.92531604623559
 20
58.343786616949529
 30
0.0
 11
285.92531604623559
 21
51.343786616949522
 31
0.0
  0
LINE
  5
2C1
  8
1外形線
 10
286.26662176359793
 20
58.343786616949529
 30
0.0
 11
286.26662176359793
 21
51.343786616949522
 31
0.0
  0
LINE
  5
2C2
  8
1外形線
 10
287.42531604623548
 20
58.343786616949473
 30
0.0
 11
287.42531604623548
 21
51.343786616949473
 31
0.0
  0
LINE
  5
2C3
  8
1外形線
 10
284.42531604623559
 20
58.343786616949529
 30
0.0
 11
284.42531604623559
 21
51.343786616949522
 31
0.0
  0
LINE
  5
2C4
  8
1外形線
 10
284.76662176359793
 20
58.343786616949529
 30
0.0
 11
284.76662176359793
 21
51.343786616949522
 31
0.0
  0
LINE
  5
2C5
  8
1外形線
 10
281.42531604623559
 20
58.343786616949529
 30
0.0
 11
281.42531604623559
 21
51.343786616949522
 31
0.0
  0
LINE
  5
2C6
  8
1外形線
 10
280.26662176359793
 20
58.343786616949529
 30
0.0
 11
280.26662176359793
 21
51.343786616949522
 31
0.0
  0
LINE
  5
2C7
  8
1外形線
 10
279.92531604623559
 20
58.343786616949529
 30
0.0
 11
279.92531604623559
 21
51.343786616949522
 31
0.0
  0
LINE
  5
2C8
  8
1外形線
 10
277.26662176359793
 20
58.343786616949529
 30
0.0
 11
277.26662176359793
 21
51.343786616949522
 31
0.0
  0
LINE
  5
2C9
  8
1外形線
 10
278.42531604623548
 20
58.343786616949529
 30
0.0
 11
278.42531604623548
 21
51.343786616949522
 31
0.0
  0
LINE
  5
2CA
  8
1外形線
 10
278.76662176359793
 20
58.343786616949529
 30
0.0
 11
278.76662176359793
 21
51.343786616949522
 31
0.0
  0
LINE
  5
2CB
  8
1外形線
 10
275.42531604623559
 20
58.343786616949593
 30
0.0
 11
275.42531604623559
 21
51.343786616949593
 31
0.0
  0
LINE
  5
2CC
  8
1外形線
 10
275.76662176359793
 20
58.343786616949593
 30
0.0
 11
275.76662176359793
 21
51.343786616949593
 31
0.0
  0
LINE
  5
2CD
  8
1外形線
 10
276.92531604623548
 20
58.343786616949529
 30
0.0
 11
276.92531604623548
 21
51.343786616949522
 31
0.0
  0
LINE
  5
2CE
  8
1外形線
 10
274.26662176359793
 20
58.343786616949593
 30
0.0
 11
274.26662176359793
 21
51.343786616949593
 31
0.0
  0
LINE
  5
2CF
  8
1外形線
 10
335.76662176359793
 20
58.343786616949529
 30
0.0
 11
335.76662176359793
 21
51.343786616949522
 31
0.0
  0
LINE
  5
2D0
  8
1外形線
 10
335.42531604623559
 20
58.343786616949529
 30
0.0
 11
335.42531604623559
 21
51.343786616949522
 31
0.0
  0
LINE
  5
2D1
  8
1外形線
 10
334.26662176359793
 20
58.343786616949529
 30
0.0
 11
334.26662176359793
 21
51.343786616949522
 31
0.0
  0
LINE
  5
2D2
  8
1外形線
 10
325.26662176359793
 20
58.343786616949593
 30
0.0
 11
325.26662176359793
 21
51.343786616949593
 31
0.0
  0
LINE
  5
2D3
  8
1外形線
 10
324.92531604623548
 20
58.343786616949593
 30
0.0
 11
324.92531604623548
 21
51.343786616949593
 31
0.0
  0
LINE
  5
2D4
  8
1外形線
 10
323.76662176359793
 20
58.343786616949593
 30
0.0
 11
323.76662176359793
 21
51.343786616949593
 31
0.0
  0
LINE
  5
2D5
  8
1外形線
 10
333.92531604623559
 20
58.343786616949529
 30
0.0
 11
333.92531604623559
 21
51.343786616949522
 31
0.0
  0
LINE
  5
2D6
  8
1外形線
 10
332.76662176359793
 20
58.343786616949529
 30
0.0
 11
332.76662176359793
 21
51.343786616949522
 31
0.0
  0
LINE
  5
2D7
  8
1外形線
 10
332.42531604623548
 20
58.343786616949529
 30
0.0
 11
332.42531604623548
 21
51.343786616949522
 31
0.0
  0
LINE
  5
2D8
  8
1外形線
 10
329.76662176359793
 20
58.343786616949529
 30
0.0
 11
329.76662176359793
 21
51.343786616949522
 31
0.0
  0
LINE
  5
2D9
  8
1外形線
 10
330.92531604623548
 20
58.343786616949529
 30
0.0
 11
330.92531604623548
 21
51.343786616949522
 31
0.0
  0
LINE
  5
2DA
  8
1外形線
 10
331.26662176359798
 20
58.343786616949529
 30
0.0
 11
331.26662176359798
 21
51.343786616949522
 31
0.0
  0
LINE
  5
2DB
  8
1外形線
 10
327.92531604623559
 20
58.343786616949593
 30
0.0
 11
327.92531604623559
 21
51.343786616949593
 31
0.0
  0
LINE
  5
2DC
  8
1外形線
 10
328.26662176359793
 20
58.343786616949593
 30
0.0
 11
328.26662176359793
 21
51.343786616949593
 31
0.0
  0
LINE
  5
2DD
  8
1外形線
 10
329.42531604623559
 20
58.343786616949529
 30
0.0
 11
329.42531604623559
 21
51.343786616949522
 31
0.0
  0
LINE
  5
2DE
  8
1外形線
 10
326.42531604623548
 20
58.343786616949593
 30
0.0
 11
326.42531604623548
 21
51.343786616949593
 31
0.0
  0
LINE
  5
2DF
  8
1外形線
 10
326.76662176359798
 20
58.343786616949593
 30
0.0
 11
326.76662176359798
 21
51.343786616949593
 31
0.0
  0
LINE
  5
2E0
  8
1外形線
 10
314.76662176359793
 20
58.343786616949643
 30
0.0
 11
314.76662176359793
 21
51.343786616949643
 31
0.0
  0
LINE
  5
2E1
  8
1外形線
 10
314.42531604623548
 20
58.343786616949643
 30
0.0
 11
314.42531604623548
 21
51.343786616949643
 31
0.0
  0
LINE
  5
2E2
  8
1外形線
 10
313.26662176359793
 20
58.343786616949643
 30
0.0
 11
313.26662176359793
 21
51.343786616949643
 31
0.0
  0
LINE
  5
2E3
  8
1外形線
 10
323.42531604623559
 20
58.343786616949593
 30
0.0
 11
323.42531604623559
 21
51.343786616949593
 31
0.0
  0
LINE
  5
2E4
  8
1外形線
 10
322.26662176359793
 20
58.343786616949593
 30
0.0
 11
322.26662176359793
 21
51.343786616949593
 31
0.0
  0
LINE
  5
2E5
  8
1外形線
 10
321.92531604623548
 20
58.343786616949593
 30
0.0
 11
321.92531604623548
 21
51.343786616949593
 31
0.0
  0
LINE
  5
2E6
  8
1外形線
 10
319.26662176359793
 20
58.343786616949593
 30
0.0
 11
319.26662176359793
 21
51.343786616949593
 31
0.0
  0
LINE
  5
2E7
  8
1外形線
 10
320.42531604623548
 20
58.343786616949593
 30
0.0
 11
320.42531604623548
 21
51.343786616949593
 31
0.0
  0
LINE
  5
2E8
  8
1外形線
 10
320.76662176359798
 20
58.343786616949593
 30
0.0
 11
320.76662176359798
 21
51.343786616949593
 31
0.0
  0
LINE
  5
2E9
  8
1外形線
 10
317.42531604623559
 20
58.343786616949643
 30
0.0
 11
317.42531604623559
 21
51.343786616949643
 31
0.0
  0
LINE
  5
2EA
  8
1外形線
 10
317.76662176359793
 20
58.343786616949643
 30
0.0
 11
317.76662176359793
 21
51.343786616949643
 31
0.0
  0
LINE
  5
2EB
  8
1外形線
 10
318.92531604623559
 20
58.343786616949593
 30
0.0
 11
318.92531604623559
 21
51.343786616949593
 31
0.0
  0
LINE
  5
2EC
  8
1外形線
 10
315.92531604623548
 20
58.343786616949643
 30
0.0
 11
315.92531604623548
 21
51.343786616949643
 31
0.0
  0
LINE
  5
2ED
  8
1外形線
 10
316.26662176359798
 20
58.343786616949643
 30
0.0
 11
316.26662176359798
 21
51.343786616949643
 31
0.0
  0
LINE
  5
2EE
  8
1外形線
 10
312.92531604623559
 20
58.343786616949359
 30
0.0
 11
312.92531604623559
 21
51.343786616949359
 31
0.0
  0
LINE
  5
2EF
  8
1外形線
 10
311.76662176359793
 20
58.343786616949359
 30
0.0
 11
311.76662176359793
 21
51.343786616949359
 31
0.0
  0
LINE
  5
2F0
  8
1外形線
 10
311.42531604623559
 20
58.343786616949359
 30
0.0
 11
311.42531604623559
 21
51.343786616949359
 31
0.0
  0
LINE
  5
2F1
  8
1外形線
 10
308.76662176359793
 20
58.343786616949359
 30
0.0
 11
308.76662176359793
 21
51.343786616949359
 31
0.0
  0
LINE
  5
2F2
  8
1外形線
 10
309.92531604623548
 20
58.343786616949359
 30
0.0
 11
309.92531604623548
 21
51.343786616949359
 31
0.0
  0
LINE
  5
2F3
  8
1外形線
 10
310.26662176359798
 20
58.343786616949359
 30
0.0
 11
310.26662176359798
 21
51.343786616949359
 31
0.0
  0
LINE
  5
2F4
  8
1外形線
 10
306.92531604623559
 20
58.343786616949409
 30
0.0
 11
306.92531604623559
 21
51.343786616949423
 31
0.0
  0
LINE
  5
2F5
  8
1外形線
 10
307.26662176359793
 20
58.343786616949409
 30
0.0
 11
307.26662176359793
 21
51.343786616949423
 31
0.0
  0
LINE
  5
2F6
  8
1外形線
 10
308.42531604623559
 20
58.343786616949359
 30
0.0
 11
308.42531604623559
 21
51.343786616949359
 31
0.0
  0
LINE
  5
2F7
  8
1外形線
 10
305.42531604623548
 20
58.343786616949409
 30
0.0
 11
305.42531604623548
 21
51.343786616949423
 31
0.0
  0
LINE
  5
2F8
  8
1外形線
 10
305.76662176359793
 20
58.343786616949409
 30
0.0
 11
305.76662176359793
 21
51.343786616949423
 31
0.0
  0
LINE
  5
2F9
  8
1外形線
 10
367.26662176359793
 20
58.343786616949359
 30
0.0
 11
367.26662176359793
 21
51.343786616949359
 31
0.0
  0
LINE
  5
2FA
  8
1外形線
 10
366.92531604623559
 20
58.343786616949359
 30
0.0
 11
366.92531604623559
 21
51.343786616949359
 31
0.0
  0
LINE
  5
2FB
  8
1外形線
 10
365.76662176359793
 20
58.343786616949359
 30
0.0
 11
365.76662176359793
 21
51.343786616949359
 31
0.0
  0
LINE
  5
2FC
  8
1外形線
 10
356.76662176359793
 20
58.343786616949409
 30
0.0
 11
356.76662176359793
 21
51.343786616949423
 31
0.0
  0
LINE
  5
2FD
  8
1外形線
 10
356.42531604623559
 20
58.343786616949409
 30
0.0
 11
356.42531604623559
 21
51.343786616949423
 31
0.0
  0
LINE
  5
2FE
  8
1外形線
 10
355.26662176359793
 20
58.343786616949409
 30
0.0
 11
355.26662176359793
 21
51.343786616949423
 31
0.0
  0
LINE
  5
2FF
  8
1外形線
 10
365.42531604623559
 20
58.343786616949359
 30
0.0
 11
365.42531604623559
 21
51.343786616949359
 31
0.0
  0
LINE
  5
300
  8
1外形線
 10
364.26662176359798
 20
58.343786616949359
 30
0.0
 11
364.26662176359798
 21
51.343786616949359
 31
0.0
  0
LINE
  5
301
  8
1外形線
 10
363.92531604623548
 20
58.343786616949359
 30
0.0
 11
363.92531604623548
 21
51.343786616949359
 31
0.0
  0
LINE
  5
302
  8
1外形線
 10
361.26662176359793
 20
58.343786616949359
 30
0.0
 11
361.26662176359793
 21
51.343786616949359
 31
0.0
  0
LINE
  5
303
  8
1外形線
 10
362.42531604623548
 20
58.343786616949359
 30
0.0
 11
362.42531604623548
 21
51.343786616949359
 31
0.0
  0
LINE
  5
304
  8
1外形線
 10
362.76662176359793
 20
58.343786616949359
 30
0.0
 11
362.76662176359793
 21
51.343786616949359
 31
0.0
  0
LINE
  5
305
  8
1外形線
 10
359.42531604623548
 20
58.343786616949409
 30
0.0
 11
359.42531604623548
 21
51.343786616949423
 31
0.0
  0
LINE
  5
306
  8
1外形線
 10
359.76662176359793
 20
58.343786616949409
 30
0.0
 11
359.76662176359793
 21
51.343786616949423
 31
0.0
  0
LINE
  5
307
  8
1外形線
 10
360.92531604623559
 20
58.343786616949359
 30
0.0
 11
360.92531604623559
 21
51.343786616949359
 31
0.0
  0
LINE
  5
308
  8
1外形線
 10
357.92531604623548
 20
58.343786616949409
 30
0.0
 11
357.92531604623548
 21
51.343786616949423
 31
0.0
  0
LINE
  5
309
  8
1外形線
 10
358.26662176359798
 20
58.343786616949409
 30
0.0
 11
358.26662176359798
 21
51.343786616949423
 31
0.0
  0
LINE
  5
30A
  8
1外形線
 10
346.26662176359793
 20
58.343786616949473
 30
0.0
 11
346.26662176359793
 21
51.343786616949473
 31
0.0
  0
LINE
  5
30B
  8
1外形線
 10
345.92531604623559
 20
58.343786616949473
 30
0.0
 11
345.92531604623559
 21
51.343786616949473
 31
0.0
  0
LINE
  5
30C
  8
1外形線
 10
344.76662176359793
 20
58.343786616949473
 30
0.0
 11
344.76662176359793
 21
51.343786616949473
 31
0.0
  0
LINE
  5
30D
  8
1外形線
 10
354.92531604623559
 20
58.343786616949409
 30
0.0
 11
354.92531604623559
 21
51.343786616949423
 31
0.0
  0
LINE
  5
30E
  8
1外形線
 10
353.76662176359798
 20
58.343786616949409
 30
0.0
 11
353.76662176359798
 21
51.343786616949423
 31
0.0
  0
LINE
  5
30F
  8
1外形線
 10
353.42531604623548
 20
58.343786616949409
 30
0.0
 11
353.42531604623548
 21
51.343786616949423
 31
0.0
  0
LINE
  5
310
  8
1外形線
 10
350.76662176359793
 20
58.343786616949409
 30
0.0
 11
350.76662176359793
 21
51.343786616949423
 31
0.0
  0
LINE
  5
311
  8
1外形線
 10
351.92531604623548
 20
58.343786616949409
 30
0.0
 11
351.92531604623548
 21
51.343786616949423
 31
0.0
  0
LINE
  5
312
  8
1外形線
 10
352.26662176359793
 20
58.343786616949409
 30
0.0
 11
352.26662176359793
 21
51.343786616949423
 31
0.0
  0
LINE
  5
313
  8
1外形線
 10
348.92531604623559
 20
58.343786616949473
 30
0.0
 11
348.92531604623559
 21
51.343786616949473
 31
0.0
  0
LINE
  5
314
  8
1外形線
 10
349.26662176359793
 20
58.343786616949473
 30
0.0
 11
349.26662176359793
 21
51.343786616949473
 31
0.0
  0
LINE
  5
315
  8
1外形線
 10
350.42531604623559
 20
58.343786616949409
 30
0.0
 11
350.42531604623559
 21
51.343786616949423
 31
0.0
  0
LINE
  5
316
  8
1外形線
 10
347.42531604623548
 20
58.343786616949473
 30
0.0
 11
347.42531604623548
 21
51.343786616949473
 31
0.0
  0
LINE
  5
317
  8
1外形線
 10
347.76662176359798
 20
58.343786616949473
 30
0.0
 11
347.76662176359798
 21
51.343786616949473
 31
0.0
  0
LINE
  5
318
  8
1外形線
 10
344.42531604623559
 20
58.343786616949473
 30
0.0
 11
344.42531604623559
 21
51.343786616949473
 31
0.0
  0
LINE
  5
319
  8
1外形線
 10
343.26662176359793
 20
58.343786616949473
 30
0.0
 11
343.26662176359793
 21
51.343786616949473
 31
0.0
  0
LINE
  5
31A
  8
1外形線
 10
342.92531604623548
 20
58.343786616949473
 30
0.0
 11
342.92531604623548
 21
51.343786616949473
 31
0.0
  0
LINE
  5
31B
  8
1外形線
 10
340.26662176359793
 20
58.343786616949473
 30
0.0
 11
340.26662176359793
 21
51.343786616949473
 31
0.0
  0
LINE
  5
31C
  8
1外形線
 10
341.42531604623548
 20
58.343786616949473
 30
0.0
 11
341.42531604623548
 21
51.343786616949473
 31
0.0
  0
LINE
  5
31D
  8
1外形線
 10
341.76662176359793
 20
58.343786616949473
 30
0.0
 11
341.76662176359793
 21
51.343786616949473
 31
0.0
  0
LINE
  5
31E
  8
1外形線
 10
338.42531604623559
 20
58.343786616949529
 30
0.0
 11
338.42531604623559
 21
51.343786616949522
 31
0.0
  0
LINE
  5
31F
  8
1外形線
 10
338.76662176359793
 20
58.343786616949529
 30
0.0
 11
338.76662176359793
 21
51.343786616949522
 31
0.0
  0
LINE
  5
320
  8
1外形線
 10
339.92531604623559
 20
58.343786616949473
 30
0.0
 11
339.92531604623559
 21
51.343786616949473
 31
0.0
  0
LINE
  5
321
  8
1外形線
 10
336.92531604623548
 20
58.343786616949529
 30
0.0
 11
336.92531604623548
 21
51.343786616949522
 31
0.0
  0
LINE
  5
322
  8
1外形線
 10
337.26662176359798
 20
58.343786616949529
 30
0.0
 11
337.26662176359798
 21
51.343786616949522
 31
0.0
  0
LINE
  5
323
  8
1外形線
 10
398.42531604623559
 20
58.343786616949188
 30
0.0
 11
398.42531604623559
 21
51.343786616949188
 31
0.0
  0
LINE
  5
324
  8
1外形線
 10
397.26662176359793
 20
58.343786616949188
 30
0.0
 11
397.26662176359793
 21
51.343786616949188
 31
0.0
  0
LINE
  5
325
  8
1外形線
 10
388.26662176359793
 20
58.343786616949238
 30
0.0
 11
388.26662176359793
 21
51.343786616949238
 31
0.0
  0
LINE
  5
326
  8
1外形線
 10
387.92531604623559
 20
58.343786616949238
 30
0.0
 11
387.92531604623559
 21
51.343786616949238
 31
0.0
  0
LINE
  5
327
  8
1外形線
 10
386.76662176359793
 20
58.343786616949238
 30
0.0
 11
386.76662176359793
 21
51.343786616949238
 31
0.0
  0
LINE
  5
328
  8
1外形線
 10
396.92531604623559
 20
58.343786616949188
 30
0.0
 11
396.92531604623559
 21
51.343786616949188
 31
0.0
  0
LINE
  5
329
  8
1外形線
 10
395.76662176359798
 20
58.343786616949188
 30
0.0
 11
395.76662176359798
 21
51.343786616949188
 31
0.0
  0
LINE
  5
32A
  8
1外形線
 10
395.42531604623548
 20
58.343786616949188
 30
0.0
 11
395.42531604623548
 21
51.343786616949188
 31
0.0
  0
LINE
  5
32B
  8
1外形線
 10
392.76662176359793
 20
58.343786616949188
 30
0.0
 11
392.76662176359793
 21
51.343786616949188
 31
0.0
  0
LINE
  5
32C
  8
1外形線
 10
393.92531604623559
 20
58.343786616949188
 30
0.0
 11
393.92531604623559
 21
51.343786616949188
 31
0.0
  0
LINE
  5
32D
  8
1外形線
 10
394.26662176359793
 20
58.343786616949188
 30
0.0
 11
394.26662176359793
 21
51.343786616949188
 31
0.0
  0
LINE
  5
32E
  8
1外形線
 10
390.92531604623548
 20
58.343786616949238
 30
0.0
 11
390.92531604623548
 21
51.343786616949238
 31
0.0
  0
LINE
  5
32F
  8
1外形線
 10
391.26662176359798
 20
58.343786616949238
 30
0.0
 11
391.26662176359798
 21
51.343786616949238
 31
0.0
  0
LINE
  5
330
  8
1外形線
 10
392.42531604623559
 20
58.343786616949188
 30
0.0
 11
392.42531604623559
 21
51.343786616949188
 31
0.0
  0
LINE
  5
331
  8
1外形線
 10
389.42531604623548
 20
58.343786616949238
 30
0.0
 11
389.42531604623548
 21
51.343786616949238
 31
0.0
  0
LINE
  5
332
  8
1外形線
 10
389.76662176359793
 20
58.343786616949238
 30
0.0
 11
389.76662176359793
 21
51.343786616949238
 31
0.0
  0
LINE
  5
333
  8
1外形線
 10
377.76662176359793
 20
58.343786616949302
 30
0.0
 11
377.76662176359793
 21
51.343786616949302
 31
0.0
  0
LINE
  5
334
  8
1外形線
 10
377.42531604623559
 20
58.343786616949302
 30
0.0
 11
377.42531604623559
 21
51.343786616949302
 31
0.0
  0
LINE
  5
335
  8
1外形線
 10
376.26662176359793
 20
58.343786616949302
 30
0.0
 11
376.26662176359793
 21
51.343786616949302
 31
0.0
  0
LINE
  5
336
  8
1外形線
 10
386.42531604623559
 20
58.343786616949238
 30
0.0
 11
386.42531604623559
 21
51.343786616949238
 31
0.0
  0
LINE
  5
337
  8
1外形線
 10
385.26662176359793
 20
58.343786616949238
 30
0.0
 11
385.26662176359793
 21
51.343786616949238
 31
0.0
  0
LINE
  5
338
  8
1外形線
 10
384.92531604623548
 20
58.343786616949238
 30
0.0
 11
384.92531604623548
 21
51.343786616949238
 31
0.0
  0
LINE
  5
339
  8
1外形線
 10
382.26662176359793
 20
58.343786616949238
 30
0.0
 11
382.26662176359793
 21
51.343786616949238
 31
0.0
  0
LINE
  5
33A
  8
1外形線
 10
383.42531604623559
 20
58.343786616949238
 30
0.0
 11
383.42531604623559
 21
51.343786616949238
 31
0.0
  0
LINE
  5
33B
  8
1外形線
 10
383.76662176359793
 20
58.343786616949238
 30
0.0
 11
383.76662176359793
 21
51.343786616949238
 31
0.0
  0
LINE
  5
33C
  8
1外形線
 10
380.42531604623548
 20
58.343786616949302
 30
0.0
 11
380.42531604623548
 21
51.343786616949302
 31
0.0
  0
LINE
  5
33D
  8
1外形線
 10
380.76662176359793
 20
58.343786616949302
 30
0.0
 11
380.76662176359793
 21
51.343786616949302
 31
0.0
  0
LINE
  5
33E
  8
1外形線
 10
381.92531604623559
 20
58.343786616949238
 30
0.0
 11
381.92531604623559
 21
51.343786616949238
 31
0.0
  0
LINE
  5
33F
  8
1外形線
 10
378.92531604623548
 20
58.343786616949302
 30
0.0
 11
378.92531604623548
 21
51.343786616949302
 31
0.0
  0
LINE
  5
340
  8
1外形線
 10
379.26662176359793
 20
58.343786616949302
 30
0.0
 11
379.26662176359793
 21
51.343786616949302
 31
0.0
  0
LINE
  5
341
  8
1外形線
 10
375.92531604623559
 20
58.343786616949302
 30
0.0
 11
375.92531604623559
 21
51.343786616949302
 31
0.0
  0
LINE
  5
342
  8
1外形線
 10
374.76662176359798
 20
58.343786616949302
 30
0.0
 11
374.76662176359798
 21
51.343786616949302
 31
0.0
  0
LINE
  5
343
  8
1外形線
 10
374.42531604623548
 20
58.343786616949302
 30
0.0
 11
374.42531604623548
 21
51.343786616949302
 31
0.0
  0
LINE
  5
344
  8
1外形線
 10
371.76662176359793
 20
58.343786616949302
 30
0.0
 11
371.76662176359793
 21
51.343786616949302
 31
0.0
  0
LINE
  5
345
  8
1外形線
 10
372.92531604623559
 20
58.343786616949302
 30
0.0
 11
372.92531604623559
 21
51.343786616949302
 31
0.0
  0
LINE
  5
346
  8
1外形線
 10
373.26662176359793
 20
58.343786616949302
 30
0.0
 11
373.26662176359793
 21
51.343786616949302
 31
0.0
  0
LINE
  5
347
  8
1外形線
 10
369.92531604623548
 20
58.343786616949359
 30
0.0
 11
369.92531604623548
 21
51.343786616949359
 31
0.0
  0
LINE
  5
348
  8
1外形線
 10
370.26662176359793
 20
58.343786616949359
 30
0.0
 11
370.26662176359793
 21
51.343786616949359
 31
0.0
  0
LINE
  5
349
  8
1外形線
 10
371.42531604623559
 20
58.343786616949302
 30
0.0
 11
371.42531604623559
 21
51.343786616949302
 31
0.0
  0
LINE
  5
34A
  8
1外形線
 10
368.42531604623548
 20
58.343786616949359
 30
0.0
 11
368.42531604623548
 21
51.343786616949359
 31
0.0
  0
LINE
  5
34B
  8
1外形線
 10
368.76662176359798
 20
58.343786616949359
 30
0.0
 11
368.76662176359798
 21
51.343786616949359
 31
0.0
  0
LINE
  5
34C
  8
1外形線
 10
428.76662176359798
 20
58.343786616949018
 30
0.0
 11
428.76662176359798
 21
51.343786616949018
 31
0.0
  0
LINE
  5
34D
  8
1外形線
 10
419.76662176359798
 20
58.343786616949068
 30
0.0
 11
419.76662176359798
 21
51.343786616949068
 31
0.0
  0
LINE
  5
34E
  8
1外形線
 10
419.42531604623559
 20
58.343786616949068
 30
0.0
 11
419.42531604623559
 21
51.343786616949068
 31
0.0
  0
LINE
  5
34F
  8
1外形線
 10
418.26662176359793
 20
58.343786616949068
 30
0.0
 11
418.26662176359793
 21
51.343786616949068
 31
0.0
  0
LINE
  5
350
  8
1外形線
 10
428.42531604623548
 20
58.343786616949018
 30
0.0
 11
428.42531604623548
 21
51.343786616949018
 31
0.0
  0
LINE
  5
351
  8
1外形線
 10
427.26662176359793
 20
58.343786616949018
 30
0.0
 11
427.26662176359793
 21
51.343786616949018
 31
0.0
  0
LINE
  5
352
  8
1外形線
 10
426.92531604623559
 20
58.343786616949018
 30
0.0
 11
426.92531604623559
 21
51.343786616949018
 31
0.0
  0
LINE
  5
353
  8
1外形線
 10
424.26662176359798
 20
58.343786616949018
 30
0.0
 11
424.26662176359798
 21
51.343786616949018
 31
0.0
  0
LINE
  5
354
  8
1外形線
 10
425.42531604623548
 20
58.343786616949018
 30
0.0
 11
425.42531604623548
 21
51.343786616949018
 31
0.0
  0
LINE
  5
355
  8
1外形線
 10
425.76662176359793
 20
58.343786616949018
 30
0.0
 11
425.76662176359793
 21
51.343786616949018
 31
0.0
  0
LINE
  5
356
  8
1外形線
 10
422.42531604623559
 20
58.343786616949068
 30
0.0
 11
422.42531604623559
 21
51.343786616949068
 31
0.0
  0
LINE
  5
357
  8
1外形線
 10
422.76662176359793
 20
58.343786616949068
 30
0.0
 11
422.76662176359793
 21
51.343786616949068
 31
0.0
  0
LINE
  5
358
  8
1外形線
 10
423.92531604623559
 20
58.343786616949018
 30
0.0
 11
423.92531604623559
 21
51.343786616949018
 31
0.0
  0
LINE
  5
359
  8
1外形線
 10
420.92531604623548
 20
58.343786616949068
 30
0.0
 11
420.92531604623548
 21
51.343786616949068
 31
0.0
  0
LINE
  5
35A
  8
1外形線
 10
421.26662176359793
 20
58.343786616949068
 30
0.0
 11
421.26662176359793
 21
51.343786616949068
 31
0.0
  0
LINE
  5
35B
  8
1外形線
 10
409.26662176359793
 20
58.343786616949131
 30
0.0
 11
409.26662176359793
 21
51.343786616949131
 31
0.0
  0
LINE
  5
35C
  8
1外形線
 10
408.92531604623548
 20
58.343786616949131
 30
0.0
 11
408.92531604623548
 21
51.343786616949131
 31
0.0
  0
LINE
  5
35D
  8
1外形線
 10
407.76662176359798
 20
58.343786616949131
 30
0.0
 11
407.76662176359798
 21
51.343786616949131
 31
0.0
  0
LINE
  5
35E
  8
1外形線
 10
417.92531604623559
 20
58.343786616949068
 30
0.0
 11
417.92531604623559
 21
51.343786616949068
 31
0.0
  0
LINE
  5
35F
  8
1外形線
 10
416.76662176359793
 20
58.343786616949068
 30
0.0
 11
416.76662176359793
 21
51.343786616949068
 31
0.0
  0
LINE
  5
360
  8
1外形線
 10
416.42531604623548
 20
58.343786616949068
 30
0.0
 11
416.42531604623548
 21
51.343786616949068
 31
0.0
  0
LINE
  5
361
  8
1外形線
 10
413.76662176359793
 20
58.343786616949068
 30
0.0
 11
413.76662176359793
 21
51.343786616949068
 31
0.0
  0
LINE
  5
362
  8
1外形線
 10
414.92531604623559
 20
58.343786616949068
 30
0.0
 11
414.92531604623559
 21
51.343786616949068
 31
0.0
  0
LINE
  5
363
  8
1外形線
 10
415.26662176359798
 20
58.343786616949068
 30
0.0
 11
415.26662176359798
 21
51.343786616949068
 31
0.0
  0
LINE
  5
364
  8
1外形線
 10
411.92531604623548
 20
58.343786616949131
 30
0.0
 11
411.92531604623548
 21
51.343786616949131
 31
0.0
  0
LINE
  5
365
  8
1外形線
 10
412.26662176359798
 20
58.343786616949131
 30
0.0
 11
412.26662176359798
 21
51.343786616949131
 31
0.0
  0
LINE
  5
366
  8
1外形線
 10
413.42531604623548
 20
58.343786616949068
 30
0.0
 11
413.42531604623548
 21
51.343786616949068
 31
0.0
  0
LINE
  5
367
  8
1外形線
 10
410.42531604623559
 20
58.343786616949131
 30
0.0
 11
410.42531604623559
 21
51.343786616949131
 31
0.0
  0
LINE
  5
368
  8
1外形線
 10
410.76662176359793
 20
58.343786616949131
 30
0.0
 11
410.76662176359793
 21
51.343786616949131
 31
0.0
  0
LINE
  5
369
  8
1外形線
 10
398.76662176359793
 20
58.343786616949188
 30
0.0
 11
398.76662176359793
 21
51.343786616949188
 31
0.0
  0
LINE
  5
36A
  8
1外形線
 10
407.42531604623548
 20
58.343786616949131
 30
0.0
 11
407.42531604623548
 21
51.343786616949131
 31
0.0
  0
LINE
  5
36B
  8
1外形線
 10
406.26662176359793
 20
58.343786616949131
 30
0.0
 11
406.26662176359793
 21
51.343786616949131
 31
0.0
  0
LINE
  5
36C
  8
1外形線
 10
405.92531604623559
 20
58.343786616949131
 30
0.0
 11
405.92531604623559
 21
51.343786616949131
 31
0.0
  0
LINE
  5
36D
  8
1外形線
 10
403.26662176359798
 20
58.343786616949131
 30
0.0
 11
403.26662176359798
 21
51.343786616949131
 31
0.0
  0
LINE
  5
36E
  8
1外形線
 10
404.42531604623548
 20
58.343786616949131
 30
0.0
 11
404.42531604623548
 21
51.343786616949131
 31
0.0
  0
LINE
  5
36F
  8
1外形線
 10
404.76662176359793
 20
58.343786616949131
 30
0.0
 11
404.76662176359793
 21
51.343786616949131
 31
0.0
  0
LINE
  5
370
  8
1外形線
 10
401.42531604623559
 20
58.343786616949188
 30
0.0
 11
401.42531604623559
 21
51.343786616949188
 31
0.0
  0
LINE
  5
371
  8
1外形線
 10
401.76662176359793
 20
58.343786616949188
 30
0.0
 11
401.76662176359793
 21
51.343786616949188
 31
0.0
  0
LINE
  5
372
  8
1外形線
 10
402.92531604623559
 20
58.343786616949131
 30
0.0
 11
402.92531604623559
 21
51.343786616949131
 31
0.0
  0
LINE
  5
373
  8
1外形線
 10
399.92531604623559
 20
58.343786616949188
 30
0.0
 11
399.92531604623559
 21
51.343786616949188
 31
0.0
  0
LINE
  5
374
  8
1外形線
 10
400.26662176359793
 20
58.343786616949188
 30
0.0
 11
400.26662176359793
 21
51.343786616949188
 31
0.0
  0
ARC
  5
375
  8
1外形線
 10
225.7666217635979
 20
151.34378661694959
 30
0.0
 40
3.5
 50
270.0
 51
0.0
  0
ARC
  5
376
  8
1外形線
 10
220.76662176359801
 20
151.34378661694959
 30
0.0
 40
3.5
 50
180.0
 51
270.0
  0
LINE
  5
377
  8
1外形線
 10
220.76662176359801
 20
147.84378661694959
 30
0.0
 11
225.7666217635979
 21
147.84378661694959
 31
0.0
  0
ARC
  5
378
  8
1外形線
 10
225.44370001562859
 20
151.6666866169497
 30
0.0
 40
2.0
 50
270.0
 51
0.0
  0
ARC
  5
379
  8
1外形線
 10
225.44370001562859
 20
161.02088661694961
 30
0.0
 40
2.0
 50
0.0
 51
90.0
  0
ARC
  5
37A
  8
1外形線
 10
225.7666217635979
 20
161.34378661694959
 30
0.0
 40
3.5
 50
0.0
 51
90.0
  0
LINE
  5
37B
  8
1外形線
 10
225.2666217635979
 20
160.3437866169497
 30
0.0
 11
225.2666217635979
 21
152.3437866169497
 31
0.0
  0
LINE
  5
37C
  8
1外形線
 10
219.08954351156731
 20
151.6666866169497
 30
0.0
 11
219.08954351156731
 21
161.02088661694961
 31
0.0
  0
LINE
  5
37D
  8
1外形線
 10
221.2666217635979
 20
160.94378661694961
 30
0.0
 11
221.2666217635979
 21
151.74378661694971
 31
0.0
  0
LINE
  5
37E
  8
1外形線
 10
217.2666217635979
 20
161.34378661694959
 30
0.0
 11
217.2666217635979
 21
151.34378661694959
 31
0.0
  0
ARC
  5
37F
  8
1外形線
 10
221.08954351156731
 20
151.6666866169497
 30
0.0
 40
2.0
 50
180.0
 51
270.0
  0
LINE
  5
380
  8
1外形線
 10
223.46662176359791
 20
152.34378661694959
 30
0.0
 11
225.2666217635979
 21
152.34378661694959
 31
0.0
  0
LINE
  5
381
  8
1外形線
 10
223.46662176359791
 20
151.74378661694971
 30
0.0
 11
223.46662176359791
 21
152.34378661694959
 31
0.0
  0
LINE
  5
382
  8
1外形線
 10
223.7666217635979
 20
159.34378661694959
 30
0.0
 11
223.7666217635979
 21
153.34378661694959
 31
0.0
  0
LINE
  5
383
  8
1外形線
 10
221.7666217635979
 20
159.34378661694959
 30
0.0
 11
221.7666217635979
 21
153.34378661694959
 31
0.0
  0
LINE
  5
384
  8
1外形線
 10
221.7666217635979
 20
153.34378661694959
 30
0.0
 11
225.2666217635979
 21
153.34378661694959
 31
0.0
  0
LINE
  5
385
  8
1外形線
 10
221.2666217635979
 20
151.74378661694971
 30
0.0
 11
223.46662176359791
 21
151.74378661694971
 31
0.0
  0
LINE
  5
386
  8
1外形線
 10
221.08954351156731
 20
149.6666866169497
 30
0.0
 11
225.44370001562859
 21
149.6666866169497
 31
0.0
  0
LINE
  5
387
  8
1外形線
 10
225.2666217635979
 20
159.34378661694959
 30
0.0
 11
221.7666217635979
 21
159.34378661694959
 31
0.0
  0
ARC
  5
388
  8
1外形線
 10
221.08954351156731
 20
161.02088661694961
 30
0.0
 40
2.0
 50
90.0
 51
180.0
  0
ARC
  5
389
  8
1外形線
 10
220.76662176359801
 20
161.34378661694959
 30
0.0
 40
3.5
 50
90.0
 51
180.0
  0
LINE
  5
38A
  8
1外形線
 10
223.46662176359791
 20
160.34378661694959
 30
0.0
 11
225.2666217635979
 21
160.34378661694959
 31
0.0
  0
LINE
  5
38B
  8
1外形線
 10
223.46662176359791
 20
160.94378661694961
 30
0.0
 11
223.46662176359791
 21
160.34378661694959
 31
0.0
  0
LINE
  5
38C
  8
1外形線
 10
221.2666217635979
 20
160.94378661694961
 30
0.0
 11
223.46662176359791
 21
160.94378661694961
 31
0.0
  0
LINE
  5
38D
  8
1外形線
 10
221.08954351156731
 20
163.02088661694961
 30
0.0
 11
225.44370001562859
 21
163.02088661694961
 31
0.0
  0
LINE
  5
38E
  8
1外形線
 10
225.7666217635979
 20
164.84378661694959
 30
0.0
 11
220.76662176359801
 21
164.84378661694959
 31
0.0
  0
LINE
  5
38F
  8
1外形線
 10
227.44370001562859
 20
161.02088661694961
 30
0.0
 11
227.44370001562851
 21
151.6666866169497
 31
0.0
  0
LINE
  5
390
  8
1外形線
 10
229.2666217635979
 20
151.34378661694959
 30
0.0
 11
229.2666217635979
 21
161.34378661694959
 31
0.0
  0
ARC
  5
391
  8
1外形線
 10
229.7666217635979
 20
151.34378661694959
 30
0.0
 40
0.5
 50
90.0
 51
180.0
  0
ARC
  5
392
  8
1外形線
 10
229.7666217635979
 20
161.34378661694959
 30
0.0
 40
0.5
 50
180.0
 51
270.0
  0
LINE
  5
393
  8
1外形線
 10
254.2666217635979
 20
158.34378661694959
 30
0.0
 11
289.19411707339327
 21
158.34378661694959
 31
0.0
  0
LINE
  5
394
  8
1外形線
 10
254.2666217635979
 20
154.34378661694959
 30
0.0
 11
289.19411707339327
 21
154.3437866169497
 31
0.0
  0
LINE
  5
395
  8
1外形線
 10
254.2666217635979
 20
158.34378661694959
 30
0.0
 11
254.2666217635979
 21
154.34378661694959
 31
0.0
  0
LINE
  5
396
  8
1外形線
 10
579.26662176359787
 20
16.343786616949611
 30
0.0
 11
579.26662176359787
 21
231.34378661694959
 31
0.0
  0
LINE
  5
397
  8
1外形線
 10
460.26662176359793
 20
58.34378661694884
 30
0.0
 11
460.26662176359793
 21
51.343786616948847
 31
0.0
  0
LINE
  5
398
  8
1外形線
 10
451.26662176359793
 20
58.343786616948897
 30
0.0
 11
451.26662176359793
 21
51.343786616948897
 31
0.0
  0
LINE
  5
399
  8
1外形線
 10
450.92531604623559
 20
58.343786616948897
 30
0.0
 11
450.92531604623559
 21
51.343786616948897
 31
0.0
  0
LINE
  5
39A
  8
1外形線
 10
449.76662176359798
 20
58.343786616948897
 30
0.0
 11
449.76662176359798
 21
51.343786616948897
 31
0.0
  0
LINE
  5
39B
  8
1外形線
 10
459.92531604623559
 20
58.34378661694884
 30
0.0
 11
459.92531604623559
 21
51.343786616948847
 31
0.0
  0
LINE
  5
39C
  8
1外形線
 10
458.76662176359793
 20
58.34378661694884
 30
0.0
 11
458.76662176359793
 21
51.343786616948847
 31
0.0
  0
LINE
  5
39D
  8
1外形線
 10
458.42531604623548
 20
58.34378661694884
 30
0.0
 11
458.42531604623548
 21
51.343786616948847
 31
0.0
  0
LINE
  5
39E
  8
1外形線
 10
455.76662176359793
 20
58.34378661694884
 30
0.0
 11
455.76662176359793
 21
51.343786616948847
 31
0.0
  0
LINE
  5
39F
  8
1外形線
 10
456.92531604623559
 20
58.34378661694884
 30
0.0
 11
456.92531604623559
 21
51.343786616948847
 31
0.0
  0
LINE
  5
3A0
  8
1外形線
 10
457.26662176359798
 20
58.34378661694884
 30
0.0
 11
457.26662176359798
 21
51.343786616948847
 31
0.0
  0
LINE
  5
3A1
  8
1外形線
 10
453.92531604623548
 20
58.343786616948897
 30
0.0
 11
453.92531604623548
 21
51.343786616948897
 31
0.0
  0
LINE
  5
3A2
  8
1外形線
 10
454.26662176359793
 20
58.343786616948897
 30
0.0
 11
454.26662176359793
 21
51.343786616948897
 31
0.0
  0
LINE
  5
3A3
  8
1外形線
 10
455.42531604623559
 20
58.34378661694884
 30
0.0
 11
455.42531604623559
 21
51.343786616948847
 31
0.0
  0
LINE
  5
3A4
  8
1外形線
 10
452.42531604623559
 20
58.343786616948897
 30
0.0
 11
452.42531604623559
 21
51.343786616948897
 31
0.0
  0
LINE
  5
3A5
  8
1外形線
 10
452.76662176359798
 20
58.343786616948897
 30
0.0
 11
452.76662176359798
 21
51.343786616948897
 31
0.0
  0
LINE
  5
3A6
  8
1外形線
 10
440.76662176359798
 20
58.343786616948961
 30
0.0
 11
440.76662176359798
 21
51.343786616948961
 31
0.0
  0
LINE
  5
3A7
  8
1外形線
 10
440.42531604623559
 20
58.343786616948961
 30
0.0
 11
440.42531604623559
 21
51.343786616948961
 31
0.0
  0
LINE
  5
3A8
  8
1外形線
 10
439.26662176359793
 20
58.343786616948961
 30
0.0
 11
439.26662176359793
 21
51.343786616948961
 31
0.0
  0
LINE
  5
3A9
  8
1外形線
 10
449.42531604623548
 20
58.343786616948897
 30
0.0
 11
449.42531604623548
 21
51.343786616948897
 31
0.0
  0
LINE
  5
3AA
  8
1外形線
 10
448.26662176359793
 20
58.343786616948897
 30
0.0
 11
448.26662176359793
 21
51.343786616948897
 31
0.0
  0
LINE
  5
3AB
  8
1外形線
 10
447.92531604623559
 20
58.343786616948897
 30
0.0
 11
447.92531604623559
 21
51.343786616948897
 31
0.0
  0
LINE
  5
3AC
  8
1外形線
 10
445.26662176359798
 20
58.343786616948897
 30
0.0
 11
445.26662176359798
 21
51.343786616948897
 31
0.0
  0
LINE
  5
3AD
  8
1外形線
 10
446.42531604623548
 20
58.343786616948897
 30
0.0
 11
446.42531604623548
 21
51.343786616948897
 31
0.0
  0
LINE
  5
3AE
  8
1外形線
 10
446.76662176359793
 20
58.343786616948897
 30
0.0
 11
446.76662176359793
 21
51.343786616948897
 31
0.0
  0
LINE
  5
3AF
  8
1外形線
 10
443.42531604623559
 20
58.343786616948961
 30
0.0
 11
443.42531604623559
 21
51.343786616948961
 31
0.0
  0
LINE
  5
3B0
  8
1外形線
 10
443.76662176359793
 20
58.343786616948961
 30
0.0
 11
443.76662176359793
 21
51.343786616948961
 31
0.0
  0
LINE
  5
3B1
  8
1外形線
 10
444.92531604623548
 20
58.343786616948897
 30
0.0
 11
444.92531604623548
 21
51.343786616948897
 31
0.0
  0
LINE
  5
3B2
  8
1外形線
 10
441.92531604623548
 20
58.343786616948961
 30
0.0
 11
441.92531604623548
 21
51.343786616948961
 31
0.0
  0
LINE
  5
3B3
  8
1外形線
 10
442.26662176359793
 20
58.343786616948961
 30
0.0
 11
442.26662176359793
 21
51.343786616948961
 31
0.0
  0
LINE
  5
3B4
  8
1外形線
 10
430.26662176359793
 20
58.343786616949018
 30
0.0
 11
430.26662176359793
 21
51.343786616949018
 31
0.0
  0
LINE
  5
3B5
  8
1外形線
 10
429.92531604623548
 20
58.343786616949018
 30
0.0
 11
429.92531604623548
 21
51.343786616949018
 31
0.0
  0
LINE
  5
3B6
  8
1外形線
 10
438.92531604623559
 20
58.343786616948961
 30
0.0
 11
438.92531604623559
 21
51.343786616948961
 31
0.0
  0
LINE
  5
3B7
  8
1外形線
 10
437.76662176359793
 20
58.343786616948961
 30
0.0
 11
437.76662176359793
 21
51.343786616948961
 31
0.0
  0
LINE
  5
3B8
  8
1外形線
 10
437.42531604623548
 20
58.343786616948961
 30
0.0
 11
437.42531604623548
 21
51.343786616948961
 31
0.0
  0
LINE
  5
3B9
  8
1外形線
 10
434.76662176359793
 20
58.343786616948961
 30
0.0
 11
434.76662176359793
 21
51.343786616948961
 31
0.0
  0
LINE
  5
3BA
  8
1外形線
 10
435.92531604623559
 20
58.343786616948961
 30
0.0
 11
435.92531604623559
 21
51.343786616948961
 31
0.0
  0
LINE
  5
3BB
  8
1外形線
 10
436.26662176359798
 20
58.343786616948961
 30
0.0
 11
436.26662176359798
 21
51.343786616948961
 31
0.0
  0
LINE
  5
3BC
  8
1外形線
 10
432.92531604623548
 20
58.343786616949018
 30
0.0
 11
432.92531604623548
 21
51.343786616949018
 31
0.0
  0
LINE
  5
3BD
  8
1外形線
 10
433.26662176359798
 20
58.343786616949018
 30
0.0
 11
433.26662176359798
 21
51.343786616949018
 31
0.0
  0
LINE
  5
3BE
  8
1外形線
 10
434.42531604623559
 20
58.343786616948961
 30
0.0
 11
434.42531604623559
 21
51.343786616948961
 31
0.0
  0
LINE
  5
3BF
  8
1外形線
 10
431.42531604623559
 20
58.343786616949018
 30
0.0
 11
431.42531604623559
 21
51.343786616949018
 31
0.0
  0
LINE
  5
3C0
  8
1外形線
 10
431.76662176359798
 20
58.343786616949018
 30
0.0
 11
431.76662176359798
 21
51.343786616949018
 31
0.0
  0
LINE
  5
3C1
  8
1外形線
 10
491.76662176359793
 20
58.343786616949529
 30
0.0
 11
491.76662176359793
 21
51.343786616949522
 31
0.0
  0
LINE
  5
3C2
  8
1外形線
 10
482.76662176359798
 20
58.343786616949593
 30
0.0
 11
482.76662176359798
 21
51.343786616949593
 31
0.0
  0
LINE
  5
3C3
  8
1外形線
 10
482.42531604623548
 20
58.343786616949593
 30
0.0
 11
482.42531604623548
 21
51.343786616949593
 31
0.0
  0
LINE
  5
3C4
  8
1外形線
 10
481.26662176359793
 20
58.343786616949593
 30
0.0
 11
481.26662176359793
 21
51.343786616949593
 31
0.0
  0
LINE
  5
3C5
  8
1外形線
 10
491.42531604623548
 20
58.343786616949529
 30
0.0
 11
491.42531604623548
 21
51.343786616949522
 31
0.0
  0
LINE
  5
3C6
  8
1外形線
 10
490.26662176359798
 20
58.343786616949529
 30
0.0
 11
490.26662176359798
 21
51.343786616949522
 31
0.0
  0
LINE
  5
3C7
  8
1外形線
 10
489.92531604623559
 20
58.343786616949529
 30
0.0
 11
489.92531604623559
 21
51.343786616949522
 31
0.0
  0
LINE
  5
3C8
  8
1外形線
 10
487.26662176359798
 20
58.343786616949529
 30
0.0
 11
487.26662176359798
 21
51.343786616949522
 31
0.0
  0
LINE
  5
3C9
  8
1外形線
 10
488.42531604623559
 20
58.343786616949529
 30
0.0
 11
488.42531604623559
 21
51.343786616949522
 31
0.0
  0
LINE
  5
3CA
  8
1外形線
 10
488.76662176359793
 20
58.343786616949529
 30
0.0
 11
488.76662176359793
 21
51.343786616949522
 31
0.0
  0
LINE
  5
3CB
  8
1外形線
 10
485.42531604623559
 20
58.343786616949593
 30
0.0
 11
485.42531604623559
 21
51.343786616949593
 31
0.0
  0
LINE
  5
3CC
  8
1外形線
 10
485.76662176359793
 20
58.343786616949593
 30
0.0
 11
485.76662176359793
 21
51.343786616949593
 31
0.0
  0
LINE
  5
3CD
  8
1外形線
 10
486.92531604623548
 20
58.343786616949529
 30
0.0
 11
486.92531604623548
 21
51.343786616949522
 31
0.0
  0
LINE
  5
3CE
  8
1外形線
 10
483.92531604623548
 20
58.343786616949593
 30
0.0
 11
483.92531604623548
 21
51.343786616949593
 31
0.0
  0
LINE
  5
3CF
  8
1外形線
 10
484.26662176359793
 20
58.343786616949593
 30
0.0
 11
484.26662176359793
 21
51.343786616949593
 31
0.0
  0
LINE
  5
3D0
  8
1外形線
 10
472.26662176359793
 20
58.343786616949643
 30
0.0
 11
472.26662176359793
 21
51.343786616949643
 31
0.0
  0
LINE
  5
3D1
  8
1外形線
 10
471.92531604623559
 20
58.343786616949643
 30
0.0
 11
471.92531604623559
 21
51.343786616949643
 31
0.0
  0
LINE
  5
3D2
  8
1外形線
 10
470.76662176359798
 20
58.343786616949643
 30
0.0
 11
470.76662176359798
 21
51.343786616949643
 31
0.0
  0
LINE
  5
3D3
  8
1外形線
 10
480.92531604623559
 20
58.343786616949593
 30
0.0
 11
480.92531604623559
 21
51.343786616949593
 31
0.0
  0
LINE
  5
3D4
  8
1外形線
 10
479.76662176359793
 20
58.343786616949593
 30
0.0
 11
479.76662176359793
 21
51.343786616949593
 31
0.0
  0
LINE
  5
3D5
  8
1外形線
 10
479.42531604623548
 20
58.343786616949593
 30
0.0
 11
479.42531604623548
 21
51.343786616949593
 31
0.0
  0
LINE
  5
3D6
  8
1外形線
 10
476.76662176359793
 20
58.343786616949593
 30
0.0
 11
476.76662176359793
 21
51.343786616949593
 31
0.0
  0
LINE
  5
3D7
  8
1外形線
 10
477.92531604623559
 20
58.343786616949593
 30
0.0
 11
477.92531604623559
 21
51.343786616949593
 31
0.0
  0
LINE
  5
3D8
  8
1外形線
 10
478.26662176359798
 20
58.343786616949593
 30
0.0
 11
478.26662176359798
 21
51.343786616949593
 31
0.0
  0
LINE
  5
3D9
  8
1外形線
 10
474.92531604623548
 20
58.343786616949643
 30
0.0
 11
474.92531604623548
 21
51.343786616949643
 31
0.0
  0
LINE
  5
3DA
  8
1外形線
 10
475.26662176359793
 20
58.343786616949643
 30
0.0
 11
475.26662176359793
 21
51.343786616949643
 31
0.0
  0
LINE
  5
3DB
  8
1外形線
 10
476.42531604623559
 20
58.343786616949593
 30
0.0
 11
476.42531604623559
 21
51.343786616949593
 31
0.0
  0
LINE
  5
3DC
  8
1外形線
 10
473.42531604623559
 20
58.343786616949643
 30
0.0
 11
473.42531604623559
 21
51.343786616949643
 31
0.0
  0
LINE
  5
3DD
  8
1外形線
 10
473.76662176359798
 20
58.343786616949643
 30
0.0
 11
473.76662176359798
 21
51.343786616949643
 31
0.0
  0
LINE
  5
3DE
  8
1外形線
 10
461.76662176359798
 20
58.34378661694884
 30
0.0
 11
461.76662176359798
 21
51.343786616948847
 31
0.0
  0
LINE
  5
3DF
  8
1外形線
 10
461.42531604623559
 20
58.34378661694884
 30
0.0
 11
461.42531604623559
 21
51.343786616948847
 31
0.0
  0
LINE
  5
3E0
  8
1外形線
 10
470.42531604623548
 20
58.34378661694879
 30
0.0
 11
470.42531604623548
 21
51.34378661694879
 31
0.0
  0
LINE
  5
3E1
  8
1外形線
 10
469.26662176359798
 20
58.34378661694879
 30
0.0
 11
469.26662176359798
 21
51.34378661694879
 31
0.0
  0
LINE
  5
3E2
  8
1外形線
 10
468.92531604623559
 20
58.34378661694879
 30
0.0
 11
468.92531604623559
 21
51.34378661694879
 31
0.0
  0
LINE
  5
3E3
  8
1外形線
 10
466.26662176359798
 20
58.34378661694879
 30
0.0
 11
466.26662176359798
 21
51.34378661694879
 31
0.0
  0
LINE
  5
3E4
  8
1外形線
 10
467.42531604623548
 20
58.34378661694879
 30
0.0
 11
467.42531604623548
 21
51.34378661694879
 31
0.0
  0
LINE
  5
3E5
  8
1外形線
 10
467.76662176359793
 20
58.34378661694879
 30
0.0
 11
467.76662176359793
 21
51.34378661694879
 31
0.0
  0
LINE
  5
3E6
  8
1外形線
 10
464.42531604623559
 20
58.34378661694884
 30
0.0
 11
464.42531604623559
 21
51.343786616948847
 31
0.0
  0
LINE
  5
3E7
  8
1外形線
 10
464.76662176359793
 20
58.34378661694884
 30
0.0
 11
464.76662176359793
 21
51.343786616948847
 31
0.0
  0
LINE
  5
3E8
  8
1外形線
 10
465.92531604623548
 20
58.34378661694879
 30
0.0
 11
465.92531604623548
 21
51.34378661694879
 31
0.0
  0
LINE
  5
3E9
  8
1外形線
 10
462.92531604623548
 20
58.34378661694884
 30
0.0
 11
462.92531604623548
 21
51.343786616948847
 31
0.0
  0
LINE
  5
3EA
  8
1外形線
 10
463.26662176359793
 20
58.34378661694884
 30
0.0
 11
463.26662176359793
 21
51.343786616948847
 31
0.0
  0
LINE
  5
3EB
  8
1外形線
 10
499.26662176359798
 20
50.343786616949643
 30
0.0
 11
528.04739817000234
 21
52.843786616949643
 31
0.0
  0
LINE
  5
3EC
  8
1外形線
 10
499.26662176359798
 20
59.343786616949643
 30
0.0
 11
528.04739817000211
 21
56.843786616949643
 31
0.0
  0
LINE
  5
3ED
  8
1外形線
 10
492.92531604623559
 20
58.343786616949473
 30
0.0
 11
492.92531604623559
 21
51.343786616949473
 31
0.0
  0
LINE
  5
3EE
  8
1外形線
 10
494.76662176359798
 20
58.343786616949473
 30
0.0
 11
494.76662176359798
 21
51.343786616949473
 31
0.0
  0
LINE
  5
3EF
  8
1外形線
 10
494.42531604623559
 20
58.343786616949473
 30
0.0
 11
494.42531604623559
 21
51.343786616949473
 31
0.0
  0
LINE
  5
3F0
  8
1外形線
 10
493.26662176359793
 20
58.343786616949473
 30
0.0
 11
493.26662176359793
 21
51.343786616949473
 31
0.0
  0
LINE
  5
3F1
  8
1外形線
 10
495.92531604623548
 20
58.343786616949473
 30
0.0
 11
495.92531604623548
 21
51.343786616949473
 31
0.0
  0
LINE
  5
3F2
  8
1外形線
 10
496.26662176359793
 20
58.343786616949473
 30
0.0
 11
496.26662176359793
 21
51.343786616949473
 31
0.0
  0
LINE
  5
3F3
  8
1外形線
 10
497.42531604623559
 20
58.343786616949473
 30
0.0
 11
497.42531604623559
 21
51.343786616949473
 31
0.0
  0
LINE
  5
3F4
  8
1外形線
 10
499.26662176359798
 20
58.343786616949643
 30
0.0
 11
499.26662176359798
 21
51.343786616949643
 31
0.0
  0
ARC
  5
3F5
  8
1外形線
 10
527.01662176359798
 20
54.84378661694965
 30
0.0
 40
2.25
 50
297.2660444507315
 51
62.733955549268508
  0
LINE
  5
3F6
  8
1外形線
 10
494.83999107532128
 20
93.343786616949643
 30
0.0
 11
528.88103294581276
 21
94.530346249068856
 31
0.0
  0
ARC
  5
3F7
  8
1外形線
 10
528.85965041625491
 20
94.936815269616005
 30
0.0
 40
0.4070310519288566
 50
270.98137060884733
 51
89.018629391159124
  0
LINE
  5
3F8
  8
1外形線
 10
499.26662176359798
 20
151.84378661694959
 30
0.0
 11
528.04739817000234
 21
154.34378661694959
 31
0.0
  0
LINE
  5
3F9
  8
1外形線
 10
499.26662176359798
 20
160.84378661694959
 30
0.0
 11
528.04739817000211
 21
158.34378661694959
 31
0.0
  0
LINE
  5
3FA
  8
1外形線
 10
499.26662176359798
 20
152.99092822618971
 30
0.0
 11
499.26662176359798
 21
159.6786890725451
 31
0.0
  0
ARC
  5
3FB
  8
1外形線
 10
527.01662176359798
 20
156.34378661694959
 30
0.0
 40
2.25
 50
297.2660444507315
 51
62.733955549268508
  0
ENDSEC
  0
EOF
