  0
SECTION
  2
HEADER
  9
$ACADVER
  1
AC1009
  9
$INSBASE
 10
0.0
 20
0.0
 30
0.0
  9
$EXTMIN
 10
60.358651387909951
 20
68.696286860292275
 30
0.0
  9
$EXTMAX
 10
336.46263313574718
 20
319.75692113304632
 30
0.0000000000001137
  9
$LIMMIN
 10
0.0
 20
0.0
  9
$LIMMAX
 10
420.0
 20
297.0
  9
$ORTHOMODE
 70
     0
  9
$REGENMODE
 70
     1
  9
$FILLMODE
 70
     1
  9
$QTEXTMODE
 70
     0
  9
$MIRRTEXT
 70
     1
  9
$DRAGMODE
 70
     2
  9
$LTSCALE
 40
1.0
  9
$OSMODE
 70
    37
  9
$ATTMODE
 70
     1
  9
$TEXTSIZE
 40
2.5
  9
$TRACEWID
 40
1.0
  9
$TEXTSTYLE
  7
STANDARD
  9
$CLAYER
  8
0
  9
$CELTYPE
  6
BYLAYER
  9
$CECOLOR
 62
   256
  9
$DIMSCALE
 40
1.0
  9
$DIMASZ
 40
2.5
  9
$DIMEXO
 40
0.625
  9
$DIMDLI
 40
3.75
  9
$DIMRND
 40
0.0
  9
$DIMDLE
 40
0.0
  9
$DIMEXE
 40
1.25
  9
$DIMTP
 40
0.0
  9
$DIMTM
 40
0.0
  9
$DIMTXT
 40
2.5
  9
$DIMCEN
 40
2.5
  9
$DIMTSZ
 40
0.0
  9
$DIMTOL
 70
     0
  9
$DIMLIM
 70
     0
  9
$DIMTIH
 70
     0
  9
$DIMTOH
 70
     0
  9
$DIMSE1
 70
     0
  9
$DIMSE2
 70
     0
  9
$DIMTAD
 70
     1
  9
$DIMZIN
 70
     8
  9
$DIMBLK
  1

  9
$DIMASO
 70
     1
  9
$DIMSHO
 70
     1
  9
$DIMPOST
  1

  9
$DIMAPOST
  1

  9
$DIMALT
 70
     0
  9
$DIMALTD
 70
     3
  9
$DIMALTF
 40
0.03937007874016
  9
$DIMLFAC
 40
1.0
  9
$DIMTOFL
 70
     1
  9
$DIMTVP
 40
0.0
  9
$DIMTIX
 70
     0
  9
$DIMSOXD
 70
     0
  9
$DIMSAH
 70
     0
  9
$DIMBLK1
  1

  9
$DIMBLK2
  1

  9
$DIMSTYLE
  2
ISO-25
  9
$DIMCLRD
 70
     0
  9
$DIMCLRE
 70
     0
  9
$DIMCLRT
 70
     0
  9
$DIMTFAC
 40
1.0
  9
$DIMGAP
 40
0.625
  9
$LUNITS
 70
     2
  9
$LUPREC
 70
     4
  9
$SKETCHINC
 40
1.0
  9
$FILLETRAD
 40
0.0
  9
$AUNITS
 70
     0
  9
$AUPREC
 70
     0
  9
$MENU
  1
.
  9
$ELEVATION
 40
0.0
  9
$PELEVATION
 40
0.0
  9
$THICKNESS
 40
0.0
  9
$LIMCHECK
 70
     0
  9
$BLIPMODE
 70
     0
  9
$CHAMFERA
 40
10.0
  9
$CHAMFERB
 40
10.0
  9
$SKPOLY
 70
     0
  9
$TDCREATE
 40
2452216.4939222219
  9
$TDUPDATE
 40
2454033.4446826149
  9
$TDINDWG
 40
0.0036603009
  9
$TDUSRTIMER
 40
0.0036585648
  9
$USRTIMER
 70
     1
  9
$ANGBASE
 50
0.0
  9
$ANGDIR
 70
     0
  9
$PDMODE
 70
     0
  9
$PDSIZE
 40
0.0
  9
$PLINEWID
 40
0.0
  9
$COORDS
 70
     0
  9
$SPLFRAME
 70
     0
  9
$SPLINETYPE
 70
     6
  9
$SPLINESEGS
 70
     8
  9
$ATTDIA
 70
     1
  9
$ATTREQ
 70
     1
  9
$HANDLING
 70
     1
  9
$HANDSEED
  5
F59
  9
$SURFTAB1
 70
     6
  9
$SURFTAB2
 70
     6
  9
$SURFTYPE
 70
     6
  9
$SURFU
 70
     6
  9
$SURFV
 70
     6
  9
$UCSNAME
  2

  9
$UCSORG
 10
0.0
 20
0.0
 30
0.0
  9
$UCSXDIR
 10
1.0
 20
0.0
 30
0.0
  9
$UCSYDIR
 10
0.0
 20
1.0
 30
0.0
  9
$PUCSNAME
  2

  9
$PUCSORG
 10
0.0
 20
0.0
 30
0.0
  9
$PUCSXDIR
 10
1.0
 20
0.0
 30
0.0
  9
$PUCSYDIR
 10
0.0
 20
1.0
 30
0.0
  9
$USERI1
 70
     0
  9
$USERI2
 70
     0
  9
$USERI3
 70
     0
  9
$USERI4
 70
     0
  9
$USERI5
 70
     0
  9
$USERR1
 40
0.0
  9
$USERR2
 40
0.0
  9
$USERR3
 40
0.0
  9
$USERR4
 40
0.0
  9
$USERR5
 40
0.0
  9
$WORLDVIEW
 70
     1
  9
$SHADEDGE
 70
     3
  9
$SHADEDIF
 70
    70
  9
$TILEMODE
 70
     1
  9
$MAXACTVP
 70
    64
  9
$PLIMCHECK
 70
     0
  9
$PEXTMIN
 10
1.0000000000000000E+020
 20
1.0000000000000000E+020
 30
1.0000000000000000E+020
  9
$PEXTMAX
 10
-1.0000000000000000E+020
 20
-1.0000000000000000E+020
 30
-1.0000000000000000E+020
  9
$PLIMMIN
 10
0.0
 20
0.0
  9
$PLIMMAX
 10
420.0
 20
297.0
  9
$UNITMODE
 70
     0
  9
$VISRETAIN
 70
     1
  9
$PLINEGEN
 70
     0
  9
$PSLTSCALE
 70
     1
  0
ENDSEC
  0
SECTION
  2
TABLES
  0
TABLE
  2
VPORT
 70
     2
  0
VPORT
  2
*ACTIVE
 70
     0
 10
0.0
 20
0.0
 11
1.0
 21
1.0
 12
362.83923917611708
 22
177.63618697339999
 13
0.0
 23
0.0
 14
10.0
 24
10.0
 15
10.0
 25
10.0
 16
0.0
 26
0.0
 36
1.0
 17
0.0
 27
0.0
 37
0.0
 40
472.58495797816653
 41
1.5477386934673361
 42
50.0
 43
0.0
 44
0.0
 50
0.0
 51
0.0
 71
     0
 72
   100
 73
     1
 74
     3
 75
     0
 76
     0
 77
     0
 78
     0
  0
ENDTAB
  0
TABLE
  2
LTYPE
 70
     1
  0
LTYPE
  2
CONTINUOUS
 70
     0
  3
Solid line
 72
    65
 73
     0
 40
0.0
  0
ENDTAB
  0
TABLE
  2
LAYER
 70
     6
  0
LAYER
  2
0
 70
     0
 62
     7
  6
CONTINUOUS
  0
LAYER
  2
1外形線
 70
     0
 62
     3
  6
CONTINUOUS
  0
LAYER
  2
2寸法線
 70
     0
 62
     2
  6
CONTINUOUS
  0
LAYER
  2
DEFPOINTS
 70
     0
 62
     7
  6
CONTINUOUS
  0
LAYER
  2
C4
 70
     0
 62
     3
  6
CONTINUOUS
  0
LAYER
  2
1
 70
     0
 62
     7
  6
CONTINUOUS
  0
ENDTAB
  0
TABLE
  2
STYLE
 70
     2
  0
STYLE
  2
STANDARD
 70
     0
 40
0.0
 41
1.0
 50
0.0
 71
     0
 42
2.5
  3
txt
  4

  0
STYLE
  2
KANJI
 70
     0
 40
0.0
 41
1.0
 50
0.0
 71
     0
 42
2.5
  3
simplex.shx
  4
extfont.shx
  0
ENDTAB
  0
TABLE
  2
VIEW
 70
     0
  0
ENDTAB
  0
TABLE
  2
UCS
 70
     0
  0
ENDTAB
  0
TABLE
  2
APPID
 70
     1
  0
APPID
  2
ACAD
 70
     0
  0
ENDTAB
  0
TABLE
  2
DIMSTYLE
 70
     3
  0
DIMSTYLE
  2
ISO-25
 70
     0
  3

  4

  5

  6

  7

 40
1.0
 41
2.5
 42
0.625
 43
3.75
 44
1.25
 45
0.0
 46
0.0
 47
0.0
 48
0.0
140
2.5
141
2.5
142
0.0
143
0.03937007874016
144
1.0
145
0.0
146
1.0
147
0.625
 71
     0
 72
     0
 73
     0
 74
     0
 75
     0
 76
     0
 77
     1
 78
     8
170
     0
171
     3
172
     1
173
     0
174
     0
175
     0
176
     0
177
     0
178
     0
  0
DIMSTYLE
  2
STANDARD
 70
     0
  3

  4

  5

  6

  7

 40
1.0
 41
0.18
 42
0.0625
 43
0.38
 44
0.18
 45
0.0
 46
0.0
 47
0.0
 48
0.0
140
0.18
141
0.09
142
0.0
143
25.399999999999999
144
1.0
145
0.0
146
1.0
147
0.09
 71
     0
 72
     0
 73
     1
 74
     1
 75
     0
 76
     0
 77
     0
 78
     0
170
     0
171
     2
172
     0
173
     0
174
     0
175
     0
176
     0
177
     0
178
     0
  0
DIMSTYLE
  2
M
 70
     0
  3

  4

  5

  6

  7

 40
0.0
 41
2.0
 42
1.0
 43
0.0
 44
1.0
 45
0.0
 46
0.0
 47
0.0
 48
0.0
140
2.5
141
0.0
142
0.0
143
25.399999999999999
144
1.0
145
0.0
146
1.0
147
0.5
 71
     0
 72
     0
 73
     0
 74
     0
 75
     0
 76
     0
 77
     1
 78
     8
170
     0
171
     2
172
     1
173
     1
174
     0
175
     0
176
     0
177
     0
178
     0
  0
ENDTAB
  0
ENDSEC
  0
SECTION
  2
BLOCKS
  0
BLOCK
  8
0
  2
$MODEL_SPACE
 70
     0
 10
0.0
 20
0.0
 30
0.0
  3
$MODEL_SPACE
  1

  0
ENDBLK
  5
F0E
  8
0
  0
BLOCK
 67
     1
  8
0
  2
$PAPER_SPACE
 70
     0
 10
0.0
 20
0.0
 30
0.0
  3
$PAPER_SPACE
  1

  0
ENDBLK
  5
F0A
 67
     1
  8
0
  0
BLOCK
  8
0
  2
2
 70
     0
 10
0.0
 20
0.0
 30
0.0
  3
2
  1

  0
INSERT
  5
2C
  8
0
  6
CONTINUOUS
  2
*U3
 10
0.0
 20
0.0
 30
0.0
1001
ACAD
1002
{
1000
R14_HATCH_DATA
1000
2C
1011
1.0
1021
0.0
1031
0.0
1021
0.0
1031
0.0
1011
0.0
1021
0.0
1031
0.0
1021
1.0
1031
0.0
1011
0.0
1021
0.0
1031
0.0
1021
0.0
1031
1.0
1040
0.0
1010
0.0
1020
0.0
1030
1.0
1000
SOLID
1070
     1
1070
     1
1071
        1
1071
        7
1070
     0
1070
     1
1071
        3
1040
0.0000000000000284
1040
0.0
1040
-0.899999999998343
1040
0.2411542731875897
1040
-0.8999999999983572
1040
-0.2411542731875613
1071
        3
1005
2F
1005
2D
1005
30
1070
     0
1070
     1
1040
0.0028941747346077
1071
        1
1040
-0.5303136156475148
1040
-0.0796654556697263
1040
0.0
1002
}
  0
LINE
  5
2D
  8
0
 10
-0.8999999999983572
 20
0.2411542731879876
 30
0.0
 11
-0.8999999999983572
 21
-0.2411542731880445
 31
0.0
  0
LINE
  5
2E
  8
0
 10
-0.9999999999983517
 20
0.0
 30
0.0
 11
0.0
 21
0.0
 31
0.0
  0
LINE
  5
2F
  8
0
 10
-0.8999999999984423
 20
0.2411542731875897
 30
0.0
 11
0.0
 21
0.0
 31
0.0
  0
LINE
  5
30
  8
0
 10
-0.8999999999984423
 20
-0.2411542731875897
 30
0.0
 11
0.0
 21
0.0
 31
0.0
  0
ENDBLK
  5
32
  8
0
  0
BLOCK
  8
0
  2
*U3
 70
     1
 10
0.0
 20
0.0
 30
0.0
  3
*U3
  1

  0
SOLID
  5
842
  8
0
  6
CONTINUOUS
 10
-0.5999999999988905
 20
0.0000000000000095
 30
0.0
 11
0.0000000000000284
 21
0.0
 31
0.0
 12
-0.899999999998343
 22
0.2411542731875897
 32
0.0
 13
-0.899999999998343
 23
0.2411542731875897
 33
0.0
  0
SOLID
  5
843
  8
0
  6
CONTINUOUS
 10
-0.5999999999988905
 20
0.0000000000000095
 30
0.0
 11
-0.899999999998343
 21
0.2411542731875897
 31
0.0
 12
-0.8999999999983572
 22
-0.2411542731875613
 32
0.0
 13
-0.8999999999983572
 23
-0.2411542731875613
 33
0.0
  0
SOLID
  5
844
  8
0
  6
CONTINUOUS
 10
-0.5999999999988905
 20
0.0000000000000095
 30
0.0
 11
-0.8999999999983572
 21
-0.2411542731875613
 31
0.0
 12
0.0000000000000284
 22
0.0
 32
0.0
 13
0.0000000000000284
 23
0.0
 33
0.0
  0
ENDBLK
  5
846
  8
0
  0
ENDSEC
  0
SECTION
  2
ENTITIES
  0
LINE
  5
CE5
  8
1外形線
 10
206.2754902733088
 20
228.61889882740601
 30
0.0000000000001137
 11
226.7754902733088
 21
228.61889882740601
 31
0.0000000000001137
  0
LINE
  5
CE6
  8
1外形線
 10
206.7754902733088
 20
241.9188988274058
 30
0.0000000000001137
 11
209.0254902733088
 21
241.9188988274058
 31
0.0000000000001137
  0
LINE
  5
CE8
  8
1外形線
 10
206.7754902733088
 20
208.61889882740601
 30
0.0000000000001137
 11
226.2754902733088
 21
208.61889882740661
 31
0.0000000000001137
  0
LINE
  5
CEA
  8
1外形線
 10
206.7754902733088
 20
101.017997785248
 30
0.0000000000001137
 11
209.0254902733088
 21
101.017997785248
 31
0.0000000000001137
  0
LINE
  5
CEB
  8
1外形線
 10
209.0254902733088
 20
141.51799778524779
 30
0.0000000000001137
 11
206.7754902733088
 21
141.51799778524739
 31
0.0000000000001137
  0
LINE
  5
CEF
  8
1外形線
 10
206.2754902733088
 20
101.5179977852479
 30
0.0000000000001137
 11
206.2754902733088
 21
141.0179977852475
 31
0.0000000000001137
  0
ARC
  5
CF0
  8
1外形線
 10
206.7754902733088
 20
101.5179977852479
 30
0.0000000000001137
 40
0.5
 50
180.0
 51
270.0
  0
ARC
  5
CF1
  8
1外形線
 10
206.7754902733088
 20
141.0179977852475
 30
0.0000000000001137
 40
0.5
 50
90.0
 51
179.99999999999659
  0
ARC
  5
CF2
  8
1外形線
 10
132.97460967611741
 20
235.48423772789451
 30
0.0000000000001137
 40
13.800000000000001
 50
22.827449108626048
 51
60.787571420292842
  0
ARC
  5
CF4
  8
1外形線
 10
140.33994857660511
 20
228.1188988274065
 30
0.0000000000001137
 40
12.5
 50
13.88654036262961
 51
90.0
  0
ARC
  5
CF5
  8
1外形線
 10
140.33994857660511
 20
228.1188988274065
 30
0.0000000000001137
 40
13.800000000000001
 50
33.419433964917381
 51
90.0
  0
LINE
  5
CF6
  8
1外形線
 10
141.9746096761165
 20
208.61889882740601
 30
0.0000000000001137
 11
133.7246096761165
 21
208.61889882740601
 31
0.0000000000001137
  0
LINE
  5
CF7
  8
1外形線
 10
113.8351612185453
 20
200.61889882740601
 30
0.0000000000001137
 11
146.7246096761165
 21
200.61889882740601
 31
0.0000000000001137
  0
LINE
  5
CF8
  8
1外形線
 10
113.4746096761166
 20
200.61889882740601
 30
0.0000000000001137
 11
146.7246096761165
 21
200.61889882740601
 31
0.0000000000001137
  0
LINE
  5
CF9
  8
1外形線
 10
113.4746096761166
 20
201.61889882740601
 30
0.0000000000001137
 11
146.7246096761165
 21
201.61889882740601
 31
0.0000000000001137
  0
LINE
  5
CFB
  8
1外形線
 10
113.9746096761173
 20
180.11889882740601
 30
0.0000000000001137
 11
153.4746096761175
 21
180.11889882740701
 31
0.0000000000001137
  0
LINE
  5
CFC
  8
1外形線
 10
141.6746096761164
 20
183.11889882740601
 30
0.0000000000001137
 11
153.72460967611741
 21
183.1188988274065
 31
0.0000000000001137
  0
ARC
  5
CFD
  8
1外形線
 10
141.4746096761165
 20
220.61889882740601
 30
0.0000000000001137
 40
11.0
 50
270.0
 51
0.0
  0
LINE
  5
CFE
  8
1外形線
 10
114.9746096761166
 20
231.11889882740309
 30
0.0000000000001137
 11
114.9746096761166
 21
220.61889882740601
 31
0.0000000000001137
  0
LINE
  5
CFF
  8
1外形線
 10
113.4746096761166
 20
228.61889882740601
 30
0.0000000000001137
 11
113.4746096761166
 21
220.61889882740601
 31
0.0000000000001137
  0
LINE
  5
D00
  8
1外形線
 10
113.4833280218772
 20
200.1103286580323
 30
0.0000000000001137
 11
113.7746096761167
 21
183.11889882740601
 31
0.0000000000001137
  0
LINE
  5
D01
  8
1外形線
 10
113.7746096761167
 20
183.1188988274057
 30
0.0000000000001137
 11
125.4746096761173
 21
183.1188988274057
 31
0.0000000000001137
  0
LINE
  5
D02
  8
1外形線
 10
113.4746096761173
 20
180.61889882740601
 30
0.0000000000001137
 11
113.4746096761173
 21
182.86889882740601
 31
0.0000000000001137
  0
ARC
  5
D03
  8
1外形線
 10
113.9746096761173
 20
180.61889882740601
 30
0.0000000000001137
 40
0.5
 50
180.0
 51
270.0
  0
ARC
  5
D04
  8
1外形線
 10
113.7246096761175
 20
182.86889882740601
 30
0.0000000000001137
 40
0.25
 50
90.0
 51
180.0
  0
LINE
  5
D05
  8
1外形線
 10
113.7246096761175
 20
183.11889882740601
 30
0.0000000000001137
 11
113.7746096761167
 21
183.11889882740601
 31
0.0000000000001137
  0
CIRCLE
  5
D06
  8
1外形線
 10
133.7246096761157
 20
191.61889882740601
 30
0.0000000000001137
 40
1.05
  0
ARC
  5
D07
  8
1外形線
 10
125.9746096761166
 20
220.61889882740601
 30
0.0000000000001137
 40
11.0
 50
180.0
 51
270.0
  0
ARC
  5
D08
  8
1外形線
 10
125.4746096761166
 20
220.61889882740601
 30
0.0000000000001137
 40
12.0
 50
180.0
 51
270.0
  0
LINE
  5
D09
  8
1外形線
 10
113.4746096761166
 20
220.61889882740601
 30
0.0000000000001137
 11
113.4746096761166
 21
200.61889882740601
 31
0.0000000000001137
  0
ARC
  5
D0A
  8
1外形線
 10
113.9832545686788
 20
200.11889882740601
 30
0.0000000000001137
 40
0.5
 50
90.0
 51
180.9821171632239
  0
LINE
  5
D0B
  8
1外形線
 10
125.4746096761166
 20
208.61889882740601
 30
0.0000000000001137
 11
133.7246096761165
 21
208.61889882740601
 31
0.0000000000001137
  0
LINE
  5
D0C
  8
1外形線
 10
125.9746096761166
 20
209.61889882740601
 30
0.0000000000001137
 11
133.7246096761165
 21
209.61889882740601
 31
0.0000000000001137
  0
LINE
  5
D0D
  8
1外形線
 10
141.4746096761165
 20
209.61889882740601
 30
0.0000000000001137
 11
133.7246096761165
 21
209.61889882740601
 31
0.0000000000001137
  0
ARC
  5
D0E
  8
1外形線
 10
125.4746096761166
 20
237.11889882740641
 30
0.0000000000001137
 40
12.0
 50
90.0
 51
180.0
  0
ARC
  5
D0F
  8
1外形線
 10
127.109270775629
 20
228.1188988274065
 30
0.0000000000001137
 40
12.5
 50
90.0
 51
166.1134596373704
  0
ARC
  5
D10
  8
1外形線
 10
127.109270775629
 20
228.1188988274065
 30
0.0000000000001137
 40
13.800000000000001
 50
90.0
 51
146.5805660350826
  0
LINE
  5
D11
  8
1外形線
 10
113.4746096761166
 20
237.1188988274059
 30
0.0000000000001137
 11
113.4746096761166
 21
228.66966270509039
 31
0.0000000000001137
  0
ARC
  5
D12
  8
1外形線
 10
126.2746096761167
 20
228.66966270509039
 30
0.0000000000001137
 40
12.800000000000001
 50
146.580566035083
 51
180.0
  0
LINE
  5
D1A
  8
1外形線
 10
127.1092707756281
 20
241.91889882740631
 30
0.0000000000001137
 11
133.7246096761165
 21
241.9188988274058
 31
0.0000000000001137
  0
LINE
  5
D1B
  8
1外形線
 10
127.1092707756281
 20
240.61889882740601
 30
0.0000000000001137
 11
133.7246096761165
 21
240.61889882740601
 31
0.0000000000001137
  0
LINE
  5
D1C
  8
1外形線
 10
140.33994857660511
 20
240.61889882740601
 30
0.0000000000001137
 11
133.7246096761165
 21
240.61889882740601
 31
0.0000000000001137
  0
LINE
  5
D1D
  8
1外形線
 10
140.33994857660511
 20
241.91889882740631
 30
0.0000000000001137
 11
133.7246096761165
 21
241.9188988274058
 31
0.0000000000001137
  0
LINE
  5
D1E
  8
1外形線
 10
133.6090733781968
 20
249.11889882740641
 30
0.0000000000001137
 11
125.4746096761166
 21
249.11889882740601
 31
0.0000000000001137
  0
ARC
  5
D1F
  8
1外形線
 10
133.6090733781968
 20
236.61889882740601
 30
0.0000000000001137
 40
12.5
 50
60.787571420292842
 51
90.00000000000081
  0
LINE
  5
D20
  8
1外形線
 10
152.47460967611639
 20
231.1188988274067
 30
0.0000000000001137
 11
152.47460967611639
 21
220.61889882740601
 31
0.0000000000001137
  0
LINE
  5
D21
  8
1外形線
 10
153.9746096761165
 20
228.61889882740601
 30
0.0000000000001137
 11
153.9746096761165
 21
220.61889882740601
 31
0.0000000000001137
  0
LINE
  5
D22
  8
1外形線
 10
206.2754902733088
 20
209.11889882740601
 30
0.0000000000001137
 11
206.2754902733088
 21
241.51889882740599
 31
0.0000000000001137
  0
LINE
  5
D23
  8
1外形線
 10
146.92471091771591
 20
200.42311459923479
 30
0.0000000000001137
 11
152.12665738580671
 21
193.6379670321588
 31
0.0000000000001137
  0
LINE
  5
D24
  8
1外形線
 10
153.67460967611731
 20
189.07473045473071
 30
0.0000000000001137
 11
153.67460967611731
 21
183.11889882740701
 31
0.0000000000001137
  0
LINE
  5
D25
  8
1外形線
 10
153.97460967611741
 20
182.86889882740701
 30
0.0000000000001137
 11
153.97460967611741
 21
180.61889882740701
 31
0.0000000000001137
  0
ARC
  5
D26
  8
1外形線
 10
153.4746096761175
 20
180.61889882740701
 30
0.0000000000001137
 40
0.5
 50
270.00000000000159
 51
0.0
  0
ARC
  5
D27
  8
1外形線
 10
153.72460967611741
 20
182.86889882740701
 30
0.0000000000001137
 40
0.25
 50
0.0
 51
90.000000000001606
  0
ARC
  5
D28
  8
1外形線
 10
146.17460967611731
 20
189.07473045473071
 30
0.0000000000001137
 40
7.5
 50
0.0
 51
37.476179561362869
  0
ARC
  5
D29
  8
1外形線
 10
141.9746096761165
 20
220.61889882740601
 30
0.0000000000001137
 40
12.0
 50
270.0
 51
0.0
  0
LINE
  5
D2A
  8
1外形線
 10
146.4746096761165
 20
209.49460109676269
 30
0.0000000000001137
 11
146.4746096761165
 21
201.61889882740641
 31
0.0000000000001137
  0
LINE
  5
D2B
  8
1外形線
 10
146.16735619463901
 20
200.61889882740601
 30
0.0000000000001137
 11
145.11405813368779
 21
200.61889882740601
 31
0.0000000000001137
  0
LINE
  5
D2C
  8
1外形線
 10
145.36405813368691
 20
200.61889882740601
 30
0.0000000000001137
 11
145.8554132411245
 21
200.61889882740601
 31
0.0000000000001137
  0
ARC
  5
D2D
  8
1外形線
 10
146.52790773706889
 20
200.11889882740601
 30
0.0000000000001137
 40
0.5
 50
37.476179561359771
 51
90.0
  0
LINE
  5
D2E
  8
1外形線
 10
146.7246096761165
 20
201.61889882740601
 30
0.0000000000001137
 11
146.7246096761165
 21
200.61889882740601
 31
0.0000000000001137
  0
ARC
  5
D31
  8
1外形線
 10
206.7754902733088
 20
209.1188988274057
 30
0.0000000000001137
 40
0.5
 50
180.0
 51
270.0
  0
ARC
  5
D32
  8
1外形線
 10
141.1746096761164
 20
228.66966270509039
 30
0.0000000000001137
 40
12.800000000000001
 50
0.0
 51
33.419433964916927
  0
ARC
  5
D3B
  8
1外形線
 10
206.7754902733088
 20
241.4188988274058
 30
0.0000000000001137
 40
0.5
 50
90.0
 51
180.0
  0
ARC
  5
D3E
  8
1外形線
 10
262.02549027330878
 20
120.7679977852474
 30
0.0000000000001137
 40
13.25
 50
0.0
 51
67.544456979119573
  0
ARC
  5
D3F
  8
1外形線
 10
263.02549027330878
 20
113.267997785248
 30
0.0000000000001137
 40
12.25
 50
270.0000000000008
 51
0.0
  0
ARC
  5
D41
  8
1外形線
 10
254.2754902733088
 20
127.8833366857365
 30
0.0000000000001137
 40
13.800000000000001
 50
0.0
 51
56.580566035081489
  0
ARC
  5
D42
  8
1外形線
 10
254.2754902733088
 20
127.8833366857365
 30
0.0000000000001137
 40
12.5
 50
0.0
 51
76.113459637370781
  0
LINE
  5
D43
  8
1外形線
 10
227.7754902733088
 20
101.017997785248
 30
0.0000000000001137
 11
227.7754902733088
 21
134.26799778524739
 31
0.0000000000001137
  0
LINE
  5
D44
  8
1外形線
 10
226.7754902733088
 20
101.017997785248
 30
0.0000000000001137
 11
226.7754902733088
 21
134.26799778524739
 31
0.0000000000001137
  0
LINE
  5
D45
  8
1外形線
 10
209.2754902733088
 20
129.2179977852478
 30
0.0000000000001137
 11
209.2754902733088
 21
141.2679977852481
 31
0.0000000000001137
  0
ARC
  5
D46
  8
1外形線
 10
247.2754902733088
 20
129.01799778524779
 30
0.0000000000001137
 40
11.0
 50
90.0
 51
180.0
  0
ARC
  5
D47
  8
1外形線
 10
246.7754902733088
 20
129.5179977852481
 30
0.0000000000001137
 40
12.0
 50
90.0
 51
180.0
  0
LINE
  5
D48
  8
1外形線
 10
263.02549027330878
 20
101.017997785248
 30
0.0000000000001137
 11
226.7754902733088
 21
101.017997785248
 31
0.0000000000001137
  0
ARC
  5
D49
  8
1外形線
 10
247.0254902733088
 20
113.267997785248
 30
0.0000000000001137
 40
12.25
 50
180.0
 51
269.9999999999992
  0
ARC
  5
D4A
  8
1外形線
 10
247.2754902733088
 20
113.5179977852485
 30
0.0000000000001137
 40
11.0
 50
180.0
 51
270.0
  0
LINE
  5
D4B
  8
1外形線
 10
209.2754902733088
 20
101.3179977852482
 30
0.0000000000001137
 11
209.2754902733088
 21
113.0179977852479
 31
0.0000000000001137
  0
LINE
  5
D4C
  8
1外形線
 10
226.2669201039345
 20
101.0267161310089
 30
0.0000000000001137
 11
209.2754902733088
 21
101.3179977852482
 31
0.0000000000001137
  0
LINE
  5
D4D
  8
1外形線
 10
209.2754902733088
 20
101.2679977852479
 30
0.0000000000001137
 11
209.2754902733088
 21
101.3179977852482
 31
0.0000000000001137
  0
ARC
  5
D4E
  8
1外形線
 10
209.0254902733088
 20
101.2679977852479
 30
0.0000000000001137
 40
0.25
 50
270.0
 51
0.0
  0
ARC
  5
D4F
  8
1外形線
 10
226.2754902733088
 20
101.5266426778102
 30
0.0000000000001137
 40
0.5
 50
269.01788283677581
 51
0.0
  0
LINE
  5
D50
  8
1外形線
 10
226.7754902733088
 20
102.017997785248
 30
0.0000000000001137
 11
226.7754902733088
 21
101.5266426778102
 31
0.0000000000001137
  0
CIRCLE
  5
D51
  8
1外形線
 10
217.7754902733088
 20
121.2679977852475
 30
0.0000000000001137
 40
1.05
  0
LINE
  5
D52
  8
1外形線
 10
236.2754902733088
 20
113.5179977852485
 30
0.0000000000001137
 11
236.2754902733088
 21
120.517997785248
 31
0.0000000000001137
  0
LINE
  5
D53
  8
1外形線
 10
234.7754902733088
 20
113.267997785248
 30
0.0000000000001137
 11
234.7754902733088
 21
120.7679977852474
 31
0.0000000000001137
  0
LINE
  5
D54
  8
1外形線
 10
234.77784897381659
 20
121.0179977852475
 30
0.0000000000001137
 11
226.7754902733088
 21
121.0179977852475
 31
0.0000000000001137
  0
LINE
  5
D55
  8
1外形線
 10
236.2754902733088
 20
129.01799778524779
 30
0.0000000000001137
 11
236.2754902733088
 21
120.5179977852474
 31
0.0000000000001137
  0
LINE
  5
D56
  8
1外形線
 10
234.7754902733088
 20
129.5179977852481
 30
0.0000000000001137
 11
234.7754902733088
 21
120.7679977852474
 31
0.0000000000001137
  0
ARC
  5
D57
  8
1外形線
 10
254.2754902733088
 20
114.65265888476
 30
0.0000000000001137
 40
13.800000000000001
 50
303.41943396491848
 51
0.0
  0
ARC
  5
D58
  8
1外形線
 10
254.2754902733088
 20
114.65265888476
 30
0.0000000000001137
 40
12.5
 50
283.8865403626292
 51
0.0
  0
ARC
  5
D59
  8
1外形線
 10
254.82625415099321
 20
113.8179977852482
 30
0.0000000000001137
 40
12.800000000000001
 50
270.0
 51
303.41943396491848
  0
LINE
  5
D5A
  8
1外形線
 10
257.27549027330878
 20
102.5179977852485
 30
0.0000000000001137
 11
247.2754902733088
 21
102.5179977852485
 31
0.0000000000001137
  0
LINE
  5
D5B
  8
1外形線
 10
266.77549027330878
 20
114.6526588847595
 30
0.0000000000001137
 11
266.77549027330878
 21
121.2679977852479
 31
0.0000000000001137
  0
LINE
  5
D5C
  8
1外形線
 10
268.0754902733089
 20
114.6526588847595
 30
0.0000000000001137
 11
268.07549027330811
 21
121.2679977852479
 31
0.0000000000001137
  0
LINE
  5
D5D
  8
1外形線
 10
268.0754902733089
 20
127.8833366857361
 30
0.0000000000001137
 11
268.07549027330811
 21
121.2679977852479
 31
0.0000000000001137
  0
LINE
  5
D5E
  8
1外形線
 10
266.77549027330878
 20
127.8833366857361
 30
0.0000000000001137
 11
266.77549027330878
 21
121.2679977852479
 31
0.0000000000001137
  0
LINE
  5
D5F
  8
1外形線
 10
226.57970604513679
 20
134.46809902684589
 30
0.0000000000001137
 11
219.79455847806111
 21
139.67004549493731
 31
0.0000000000001137
  0
ARC
  5
D60
  8
1外形線
 10
215.23132190063279
 20
133.71799778524769
 30
0.0000000000001137
 40
7.5
 50
52.52382043863728
 51
90.0
  0
ARC
  5
D61
  8
1外形線
 10
209.0254902733088
 20
141.2679977852481
 30
0.0000000000001137
 40
0.25
 50
359.9999999999967
 51
90.0
  0
LINE
  5
D62
  8
1外形線
 10
215.23132190063279
 20
141.2179977852478
 30
0.0000000000001137
 11
209.2754902733088
 21
141.2179977852478
 31
0.0000000000001137
  0
LINE
  5
D63
  8
1外形線
 10
235.6511925426648
 20
134.0179977852475
 30
0.0000000000001137
 11
227.7754902733088
 21
134.0179977852475
 31
0.0000000000001137
  0
LINE
  5
D64
  8
1外形線
 10
226.7754902733088
 20
134.07129584619989
 30
0.0000000000001137
 11
226.7754902733088
 21
133.01799778524779
 31
0.0000000000001137
  0
ARC
  5
D65
  8
1外形線
 10
226.2754902733088
 20
134.07129584619989
 30
0.0000000000001137
 40
0.5
 50
0.0
 51
52.523820438637927
  0
LINE
  5
D66
  8
1外形線
 10
227.7754902733088
 20
134.26799778524739
 30
0.0000000000001137
 11
226.7754902733088
 21
134.26799778524739
 31
0.0000000000001137
  0
ARC
  5
D67
  8
1外形線
 10
254.82625415099321
 20
128.71799778524809
 30
0.0000000000001137
 40
12.800000000000001
 50
56.580566035081489
 51
90.0
  0
LINE
  5
D68
  8
1外形線
 10
257.27549027330878
 20
140.0179977852481
 30
0.0000000000001137
 11
247.2754902733088
 21
140.0179977852481
 31
0.0000000000001137
  0
LINE
  5
D69
  8
1外形線
 10
254.7754902733088
 20
141.51799778524779
 30
0.0000000000001137
 11
246.7754902733088
 21
141.51799778524779
 31
0.0000000000001137
  0
LINE
  5
D6A
  8
1外形線
 10
275.27549027330878
 20
120.7679977852474
 30
0.0000000000001137
 11
275.27549027330878
 21
113.267997785248
 31
0.0000000000001137
  0
ARC
  5
D6B
  8
1外形線
 10
271.02549027330878
 20
244.86889882740601
 30
0.0000000000001137
 40
2.25
 50
134.9999999999994
 51
315.00000000000051
  0
LINE
  5
D6C
  8
1外形線
 10
275.27549027330878
 20
245.93691831206661
 30
0.0000000000001137
 11
272.61648053097838
 21
243.2779085697361
 31
0.0000000000001137
  0
ARC
  5
D6D
  8
1外形線
 10
272.77549027330878
 20
246.61889882740601
 30
0.0000000000001137
 40
2.5
 50
0.0
 51
90.0
  0
LINE
  5
D6E
  8
1外形線
 10
270.24608033595013
 20
193.85222456709471
 30
0.0000000000001137
 11
273.62843023154733
 21
196.90974883900691
 31
0.0000000000001137
  0
LINE
  5
D6F
  8
1外形線
 10
275.52549027330878
 20
200.61889882740601
 30
0.0000000000001137
 11
255.0254902733088
 21
200.61889882740601
 31
0.0000000000001137
  0
LINE
  5
D70
  8
1外形線
 10
275.52549027330878
 20
201.61889882740601
 30
0.0000000000001137
 11
255.0254902733088
 21
201.61889882740601
 31
0.0000000000001137
  0
LINE
  5
D73
  8
1外形線
 10
209.2754902733088
 20
208.61889882740701
 30
0.0000000000001137
 11
209.2754902733088
 21
241.66889882740679
 31
0.0000000000001137
  0
LINE
  5
D74
  8
1外形線
 10
209.2754902733088
 20
208.61889882740601
 30
0.0000000000001137
 11
209.2754902733088
 21
241.6688988274058
 31
0.0000000000001137
  0
LINE
  5
D75
  8
1外形線
 10
226.7754902733088
 20
208.36889882740601
 30
0.0000000000001137
 11
226.7754902733088
 21
228.8688988274059
 31
0.0000000000001137
  0
LINE
  5
D76
  8
1外形線
 10
227.7754902733088
 20
208.36889882740601
 30
0.0000000000001137
 11
227.7754902733088
 21
228.8688988274059
 31
0.0000000000001137
  0
LINE
  5
D77
  8
1外形線
 10
226.7754902733088
 20
209.1188988274065
 30
0.0000000000001137
 11
226.7754902733088
 21
248.6188988274057
 31
0.0000000000001137
  0
LINE
  5
D78
  8
1外形線
 10
235.2754902733088
 20
180.11889882740601
 30
0.0000000000001137
 11
267.67549027330841
 21
180.11889882740601
 31
0.0000000000001137
  0
LINE
  5
D79
  8
1外形線
 10
234.7754902733088
 20
183.11889882740601
 30
0.0000000000001137
 11
267.8254902733089
 21
183.11889882740601
 31
0.0000000000001137
  0
LINE
  5
D7A
  8
1外形線
 10
234.7754902733106
 20
183.11889882740601
 30
0.0000000000001137
 11
267.82549027330992
 21
183.11889882740601
 31
0.0000000000001137
  0
LINE
  5
D7B
  8
1外形線
 10
234.5254902733088
 20
200.61889882740601
 30
0.0000000000001137
 11
255.0254902733088
 21
200.61889882740601
 31
0.0000000000001137
  0
LINE
  5
D7C
  8
1外形線
 10
234.5254902733088
 20
201.61889882740601
 30
0.0000000000001137
 11
255.0254902733088
 21
201.61889882740601
 31
0.0000000000001137
  0
ARC
  5
D7D
  8
1外形線
 10
237.5254902733088
 20
211.36889882740601
 30
0.0000000000001137
 40
2.25
 50
315.0
 51
135.0
  0
LINE
  5
D7E
  8
1外形線
 10
234.7754902733088
 20
180.61889882740601
 30
0.0000000000001137
 11
234.7754902733088
 21
200.11889882740601
 31
0.0000000000001137
  0
ARC
  5
D80
  8
1外形線
 10
235.2754902733088
 20
180.61889882740601
 30
0.0000000000001137
 40
0.5
 50
180.0
 51
270.0
  0
CIRCLE
  5
D81
  8
1外形線
 10
237.5254902733088
 20
211.36889882740601
 30
0.0000000000001137
 40
1.0
  0
LINE
  5
D82
  8
1外形線
 10
235.9345000156392
 20
212.9598890850759
 30
0.0000000000001137
 11
231.5935097579688
 21
208.61889882740601
 31
0.0000000000001137
  0
LINE
  5
D83
  8
1外形線
 10
233.7754902733088
 20
208.61889882740601
 30
0.0000000000001137
 11
227.7754902733088
 21
208.61889882740601
 31
0.0000000000001137
  0
ARC
  5
D84
  8
1外形線
 10
226.2754902733088
 20
209.1188988274065
 30
0.0000000000001137
 40
0.5
 50
270.0
 51
0.0
  0
LINE
  5
D85
  8
1外形線
 10
226.2754902733088
 20
208.61889882740661
 30
0.0000000000001137
 11
226.2754902733088
 21
208.61889882740661
 31
0.0000000000001137
  0
LINE
  5
D86
  8
1外形線
 10
226.7754902733088
 20
208.36889882740601
 30
0.0000000000001137
 11
227.7754902733088
 21
208.36889882740601
 31
0.0000000000001137
  0
LINE
  5
D87
  8
1外形線
 10
234.7754902733088
 20
201.61889882740601
 30
0.0000000000001137
 11
234.7754902733088
 21
207.61889882740601
 31
0.0000000000001137
  0
LINE
  5
D88
  8
1外形線
 10
234.5254902733088
 20
200.61889882740601
 30
0.0000000000001137
 11
234.5254902733088
 21
201.61889882740601
 31
0.0000000000001137
  0
ARC
  5
D89
  8
1外形線
 10
235.2754902733088
 20
200.11889882740601
 30
0.0000000000001137
 40
0.5
 50
90.0
 51
180.0
  0
LINE
  5
D8A
  8
1外形線
 10
239.11648053097841
 20
209.7779085697365
 30
0.0000000000001137
 11
234.7754902733088
 21
205.43691831206701
 31
0.0000000000001137
  0
ARC
  5
D8B
  8
1外形線
 10
233.7754902733088
 20
207.61889882740601
 30
0.0000000000001137
 40
1.0
 50
0.0
 51
90.0
  0
LINE
  5
D8C
  8
1外形線
 10
254.7754902733088
 20
180.11889882740601
 30
0.0000000000001137
 11
254.7754902733088
 21
200.61889882740601
 31
0.0000000000001137
  0
LINE
  5
D8D
  8
1外形線
 10
267.77549027330878
 20
183.11889882740601
 30
0.0000000000001137
 11
267.77549027330878
 21
188.28849958449501
 31
0.0000000000001137
  0
LINE
  5
D8E
  8
1外形線
 10
268.0754902733089
 20
180.61889882740601
 30
0.0000000000001137
 11
268.0754902733089
 21
182.86889882740601
 31
0.0000000000001137
  0
ARC
  5
D8F
  8
1外形線
 10
267.5754902733089
 20
180.61889882740601
 30
0.0000000000001137
 40
0.5
 50
270.0
 51
0.0
  0
ARC
  5
D90
  8
1外形線
 10
267.8254902733089
 20
182.86889882740601
 30
0.0000000000001137
 40
0.25
 50
0.0
 51
90.0
  0
ARC
  5
D91
  8
1外形線
 10
275.27549027330878
 20
188.28849958449501
 30
0.0000000000001137
 40
7.5
 50
132.11246251191321
 51
180.0
  0
LINE
  5
D92
  8
1外形線
 10
227.7754902733088
 20
249.11889882740601
 30
0.0000000000001137
 11
272.77549027330878
 21
249.11889882740601
 31
0.0000000000001137
  0
LINE
  5
D93
  8
1外形線
 10
220.00881601299639
 20
244.08948889004679
 30
0.0000000000001137
 11
223.0663402849097
 21
247.4718387856451
 31
0.0000000000001137
  0
LINE
  5
D94
  8
1外形線
 10
227.7754902733088
 20
249.36889882740601
 30
0.0000000000001137
 11
227.7754902733088
 21
228.8688988274059
 31
0.0000000000001137
  0
LINE
  5
D95
  8
1外形線
 10
226.7754902733088
 20
249.36889882740601
 30
0.0000000000001137
 11
226.7754902733088
 21
228.8688988274059
 31
0.0000000000001137
  0
ARC
  5
D96
  8
1外形線
 10
214.4450910303969
 20
249.11889882740559
 30
0.0000000000001137
 40
7.5
 50
270.0
 51
317.88753748808648
  0
LINE
  5
D97
  8
1外形線
 10
209.2754902733088
 20
241.61889882740601
 30
0.0000000000001137
 11
214.4450910303969
 21
241.61889882740601
 31
0.0000000000001137
  0
ARC
  5
D98
  8
1外形線
 10
209.0254902733088
 20
241.6688988274058
 30
0.0000000000001137
 40
0.25
 50
0.0
 51
90.0
  0
ARC
  5
D99
  8
1外形線
 10
226.7754902733088
 20
244.1188988274057
 30
0.0000000000001137
 40
5.0
 50
90.0
 51
137.88753748808611
  0
LINE
  5
D9A
  8
1外形線
 10
226.7754902733088
 20
249.36889882740601
 30
0.0000000000001137
 11
227.7754902733088
 21
249.36889882740601
 31
0.0000000000001137
  0
CIRCLE
  5
D9B
  8
1外形線
 10
271.02549027330878
 20
244.86889882740601
 30
0.0000000000001137
 40
1.0
  0
LINE
  5
D9C
  8
1外形線
 10
272.09350975796877
 20
249.11889882740601
 30
0.0000000000001137
 11
269.43450001563917
 21
246.4598890850761
 31
0.0000000000001137
  0
LINE
  5
D9F
  8
1外形線
 10
275.27549027330878
 20
201.61889882740601
 30
0.0000000000001137
 11
275.27549027330878
 21
246.61889882740601
 31
0.0000000000001137
  0
ARC
  5
DA0
  8
1外形線
 10
270.27549027330878
 20
200.61889882740601
 30
0.0000000000001137
 40
5.0
 50
312.11246251191398
 51
351.68373010415672
  0
LINE
  5
DA1
  8
1外形線
 10
275.27549027330878
 20
200.11889882740601
 30
0.0000000000001137
 11
275.27549027330878
 21
200.11889882740601
 31
0.0000000000001137
  0
ARC
  5
DA2
  8
1外形線
 10
274.77549027330878
 20
200.11889882740601
 30
0.0000000000001137
 40
0.5
 50
333.48885776541709
 51
90.0
  0
LINE
  5
DA3
  8
1外形線
 10
275.52549027330878
 20
200.61889882740601
 30
0.0000000000001137
 11
275.52549027330878
 21
201.61889882740601
 31
0.0000000000001137
  0
TEXT
  5
E77
  8
1外形線
 10
101.4584604623734
 20
286.26271210297978
 30
0.0
 40
10.0
  1
SN-77
  7
KANJI
  0
POLYLINE
  5
E78
  8
1外形線
 66
     1
 10
0.0
 20
0.0
 30
0.0
 70
     1
  0
VERTEX
  5
F50
  8
1外形線
 10
60.358651387909951
 20
319.75692113304632
 30
0.0
  0
VERTEX
  5
F51
  8
1外形線
 10
336.46263313574718
 20
319.75692113304632
 30
0.0
  0
VERTEX
  5
F52
  8
1外形線
 10
336.46263313574718
 20
68.696286860292275
 30
0.0
  0
VERTEX
  5
F53
  8
1外形線
 10
60.358651387909951
 20
68.696286860292275
 30
0.0
  0
SEQEND
  5
F54
  8
1外形線
  0
ENDSEC
  0
EOF
