  0
SECTION
  2
HEADER
  9
$ACADVER
  1
AC1009
  9
$INSBASE
 10
0.0
 20
0.0
 30
0.0
  9
$EXTMIN
 10
20.568856609100521
 20
21.615975580134879
 30
0.0
  9
$EXTMAX
 10
395.56885660910052
 20
1320.6159755801341
 30
0.0
  9
$LIMMIN
 10
0.0
 20
0.0
  9
$LIMMAX
 10
420.0
 20
297.0
  9
$ORTHOMODE
 70
     0
  9
$REGENMODE
 70
     1
  9
$FILLMODE
 70
     1
  9
$QTEXTMODE
 70
     0
  9
$MIRRTEXT
 70
     1
  9
$DRAGMODE
 70
     2
  9
$LTSCALE
 40
1.0
  9
$OSMODE
 70
    37
  9
$ATTMODE
 70
     1
  9
$TEXTSIZE
 40
2.5
  9
$TRACEWID
 40
1.0
  9
$TEXTSTYLE
  7
STANDARD
  9
$CLAYER
  8
0
  9
$CELTYPE
  6
BYLAYER
  9
$CECOLOR
 62
   256
  9
$DIMSCALE
 40
1.0
  9
$DIMASZ
 40
2.5
  9
$DIMEXO
 40
0.625
  9
$DIMDLI
 40
3.75
  9
$DIMRND
 40
0.0
  9
$DIMDLE
 40
0.0
  9
$DIMEXE
 40
1.25
  9
$DIMTP
 40
0.0
  9
$DIMTM
 40
0.0
  9
$DIMTXT
 40
2.5
  9
$DIMCEN
 40
2.5
  9
$DIMTSZ
 40
0.0
  9
$DIMTOL
 70
     0
  9
$DIMLIM
 70
     0
  9
$DIMTIH
 70
     0
  9
$DIMTOH
 70
     0
  9
$DIMSE1
 70
     0
  9
$DIMSE2
 70
     0
  9
$DIMTAD
 70
     1
  9
$DIMZIN
 70
     8
  9
$DIMBLK
  1

  9
$DIMASO
 70
     1
  9
$DIMSHO
 70
     1
  9
$DIMPOST
  1

  9
$DIMAPOST
  1

  9
$DIMALT
 70
     0
  9
$DIMALTD
 70
     3
  9
$DIMALTF
 40
0.03937007874016
  9
$DIMLFAC
 40
1.0
  9
$DIMTOFL
 70
     1
  9
$DIMTVP
 40
0.0
  9
$DIMTIX
 70
     0
  9
$DIMSOXD
 70
     0
  9
$DIMSAH
 70
     0
  9
$DIMBLK1
  1

  9
$DIMBLK2
  1

  9
$DIMSTYLE
  2
ISO-25
  9
$DIMCLRD
 70
     0
  9
$DIMCLRE
 70
     0
  9
$DIMCLRT
 70
     0
  9
$DIMTFAC
 40
1.0
  9
$DIMGAP
 40
0.625
  9
$LUNITS
 70
     2
  9
$LUPREC
 70
     4
  9
$SKETCHINC
 40
1.0
  9
$FILLETRAD
 40
10.0
  9
$AUNITS
 70
     0
  9
$AUPREC
 70
     0
  9
$MENU
  1
.
  9
$ELEVATION
 40
0.0
  9
$PELEVATION
 40
0.0
  9
$THICKNESS
 40
0.0
  9
$LIMCHECK
 70
     0
  9
$BLIPMODE
 70
     0
  9
$CHAMFERA
 40
10.0
  9
$CHAMFERB
 40
10.0
  9
$SKPOLY
 70
     0
  9
$TDCREATE
 40
2452216.4770548032
  9
$TDUPDATE
 40
2452216.4772680672
  9
$TDINDWG
 40
0.0002136111
  9
$TDUSRTIMER
 40
0.0002136111
  9
$USRTIMER
 70
     1
  9
$ANGBASE
 50
0.0
  9
$ANGDIR
 70
     0
  9
$PDMODE
 70
     0
  9
$PDSIZE
 40
0.0
  9
$PLINEWID
 40
0.0
  9
$COORDS
 70
     1
  9
$SPLFRAME
 70
     0
  9
$SPLINETYPE
 70
     6
  9
$SPLINESEGS
 70
     8
  9
$ATTDIA
 70
     0
  9
$ATTREQ
 70
     1
  9
$HANDLING
 70
-16383
  9
$HANDSEED
  5
3DD
  9
$SURFTAB1
 70
     6
  9
$SURFTAB2
 70
     6
  9
$SURFTYPE
 70
     6
  9
$SURFU
 70
     6
  9
$SURFV
 70
     6
  9
$UCSNAME
  2

  9
$UCSORG
 10
0.0
 20
0.0
 30
0.0
  9
$UCSXDIR
 10
1.0
 20
0.0
 30
0.0
  9
$UCSYDIR
 10
0.0
 20
1.0
 30
0.0
  9
$PUCSNAME
  2

  9
$PUCSORG
 10
0.0
 20
0.0
 30
0.0
  9
$PUCSXDIR
 10
1.0
 20
0.0
 30
0.0
  9
$PUCSYDIR
 10
0.0
 20
1.0
 30
0.0
  9
$USERI1
 70
     0
  9
$USERI2
 70
     0
  9
$USERI3
 70
     0
  9
$USERI4
 70
     0
  9
$USERI5
 70
     0
  9
$USERR1
 40
0.0
  9
$USERR2
 40
0.0
  9
$USERR3
 40
0.0
  9
$USERR4
 40
0.0
  9
$USERR5
 40
0.0
  9
$WORLDVIEW
 70
     1
  9
$SHADEDGE
 70
     3
  9
$SHADEDIF
 70
    70
  9
$TILEMODE
 70
     1
  9
$MAXACTVP
 70
    64
  9
$PLIMCHECK
 70
     0
  9
$PEXTMIN
 10
1.0000000000000000E+020
 20
1.0000000000000000E+020
 30
1.0000000000000000E+020
  9
$PEXTMAX
 10
-1.0000000000000000E+020
 20
-1.0000000000000000E+020
 30
-1.0000000000000000E+020
  9
$PLIMMIN
 10
0.0
 20
0.0
  9
$PLIMMAX
 10
420.0
 20
297.0
  9
$UNITMODE
 70
     0
  9
$VISRETAIN
 70
     1
  9
$PLINEGEN
 70
     0
  9
$PSLTSCALE
 70
     1
  0
ENDSEC
  0
SECTION
  2
TABLES
  0
TABLE
  2
VPORT
 70
     3
  0
VPORT
  2
*ACTIVE
 70
     0
 10
0.0
 20
0.0
 11
1.0
 21
1.0
 12
212.36907582938389
 22
148.5
 13
0.0
 23
0.0
 14
10.0
 24
10.0
 15
10.0
 25
10.0
 16
0.0
 26
0.0
 36
1.0
 17
0.0
 27
0.0
 37
0.0
 40
297.0
 41
1.430094786729857
 42
50.0
 43
0.0
 44
0.0
 50
0.0
 51
0.0
 71
     0
 72
   100
 73
     1
 74
     3
 75
     0
 76
     0
 77
     0
 78
     0
  0
ENDTAB
  0
TABLE
  2
LTYPE
 70
     2
  0
LTYPE
  2
CONTINUOUS
 70
     0
  3
Solid line
 72
    65
 73
     0
 40
0.0
  0
LTYPE
  2
HIDDEN
 70
     0
  3
Hidden __ __ __ __ __ __ __ __ __ __ __ __ __ _
 72
    65
 73
     2
 40
9.5249999999999986
 49
6.3499999999999988
 49
-3.1749999999999989
  0
ENDTAB
  0
TABLE
  2
LAYER
 70
     2
  0
LAYER
  2
0
 70
     0
 62
     7
  6
CONTINUOUS
  0
LAYER
  2
1外形線
 70
     0
 62
     3
  6
CONTINUOUS
  0
ENDTAB
  0
TABLE
  2
STYLE
 70
     2
  0
STYLE
  2
STANDARD
 70
     0
 40
0.0
 41
1.0
 50
0.0
 71
     0
 42
2.5
  3
txt
  4

  0
STYLE
  2
KANJI
 70
     0
 40
0.0
 41
1.0
 50
0.0
 71
     0
 42
2.5
  3
simplex.shx
  4
extfont.shx
  0
ENDTAB
  0
TABLE
  2
VIEW
 70
     0
  0
ENDTAB
  0
TABLE
  2
UCS
 70
     0
  0
ENDTAB
  0
TABLE
  2
APPID
 70
     1
  0
APPID
  2
ACAD
 70
     0
  0
ENDTAB
  0
TABLE
  2
DIMSTYLE
 70
     2
  0
DIMSTYLE
  2
ISO-25
 70
     0
  3

  4

  5

  6

  7

 40
1.0
 41
2.5
 42
0.625
 43
3.75
 44
1.25
 45
0.0
 46
0.0
 47
0.0
 48
0.0
140
2.5
141
2.5
142
0.0
143
0.03937007874016
144
1.0
145
0.0
146
1.0
147
0.625
 71
     0
 72
     0
 73
     0
 74
     0
 75
     0
 76
     0
 77
     1
 78
     8
170
     0
171
     3
172
     1
173
     0
174
     0
175
     0
176
     0
177
     0
178
     0
  0
DIMSTYLE
  2
STANDARD
 70
     0
  3

  4

  5

  6

  7

 40
1.0
 41
0.18
 42
0.0625
 43
0.38
 44
0.18
 45
0.0
 46
0.0
 47
0.0
 48
0.0
140
0.18
141
0.09
142
0.0
143
25.399999999999999
144
1.0
145
0.0
146
1.0
147
0.09
 71
     0
 72
     0
 73
     1
 74
     1
 75
     0
 76
     0
 77
     0
 78
     0
170
     0
171
     2
172
     0
173
     0
174
     0
175
     0
176
     0
177
     0
178
     0
  0
ENDTAB
  0
ENDSEC
  0
SECTION
  2
BLOCKS
  0
BLOCK
  8
0
  2
$MODEL_SPACE
 70
     0
 10
0.0
 20
0.0
 30
0.0
  3
$MODEL_SPACE
  1

  0
ENDBLK
  5
21
  8
0
  0
BLOCK
 67
     1
  8
0
  2
$PAPER_SPACE
 70
     0
 10
0.0
 20
0.0
 30
0.0
  3
$PAPER_SPACE
  1

  0
ENDBLK
  5
1D
 67
     1
  8
0
  0
BLOCK
  8
0
  2
2
 70
     0
 10
0.0
 20
0.0
 30
0.0
  3
2
  1

  0
INSERT
  5
2C
  8
0
  6
CONTINUOUS
  2
*U3
 10
0.0
 20
0.0
 30
0.0
1001
ACAD
1002
{
1000
R14_HATCH_DATA
1000
2C
1011
1.0
1021
0.0
1031
0.0
1021
0.0
1031
0.0
1011
0.0
1021
0.0
1031
0.0
1021
1.0
1031
0.0
1011
0.0
1021
0.0
1031
0.0
1021
0.0
1031
1.0
1040
0.0
1010
0.0
1020
0.0
1030
1.0
1000
SOLID
1070
     1
1070
     1
1071
        1
1071
        7
1070
     0
1070
     1
1071
        3
1040
0.0000000000000284
1040
0.0
1040
-0.899999999998343
1040
0.2411542731875897
1040
-0.8999999999983572
1040
-0.2411542731875613
1071
        3
1005
2F
1005
2D
1005
30
1070
     0
1070
     1
1040
0.0028941747346077
1071
        1
1040
-0.5303136156475148
1040
-0.0796654556697263
1040
0.0
1002
}
  0
LINE
  5
2D
  8
0
 10
-0.8999999999983572
 20
0.2411542731879876
 30
0.0
 11
-0.8999999999983572
 21
-0.2411542731880445
 31
0.0
  0
LINE
  5
2E
  8
0
 10
-0.9999999999983515
 20
0.0
 30
0.0
 11
0.0
 21
0.0
 31
0.0
  0
LINE
  5
2F
  8
0
 10
-0.8999999999984424
 20
0.2411542731875897
 30
0.0
 11
0.0
 21
0.0
 31
0.0
  0
LINE
  5
30
  8
0
 10
-0.8999999999984424
 20
-0.2411542731875897
 30
0.0
 11
0.0
 21
0.0
 31
0.0
  0
ENDBLK
  5
32
  8
0
  0
BLOCK
  8
0
  2
*U3
 70
     1
 10
0.0
 20
0.0
 30
0.0
  3
*U3
  1

  0
SOLID
  5
3D8
  8
0
  6
CONTINUOUS
 10
-0.5999999999988905
 20
0.0000000000000095
 30
0.0
 11
0.0000000000000284
 21
0.0
 31
0.0
 12
-0.899999999998343
 22
0.2411542731875897
 32
0.0
 13
-0.899999999998343
 23
0.2411542731875897
 33
0.0
210
0.0
220
0.0
230
1.0
  0
SOLID
  5
3D9
  8
0
  6
CONTINUOUS
 10
-0.5999999999988905
 20
0.0000000000000095
 30
0.0
 11
-0.899999999998343
 21
0.2411542731875897
 31
0.0
 12
-0.8999999999983572
 22
-0.2411542731875613
 32
0.0
 13
-0.8999999999983572
 23
-0.2411542731875613
 33
0.0
  0
SOLID
  5
3DA
  8
0
  6
CONTINUOUS
 10
-0.5999999999988905
 20
0.0000000000000095
 30
0.0
 11
-0.8999999999983572
 21
-0.2411542731875613
 31
0.0
 12
0.0000000000000284
 22
0.0
 32
0.0
 13
0.0000000000000284
 23
0.0
 33
0.0
210
0.0
220
0.0
230
1.0
  0
ENDBLK
  5
3DC
  8
0
  0
ENDSEC
  0
SECTION
  2
ENTITIES
  0
LINE
  5
206
  8
1外形線
 10
395.56885660910052
 20
1320.6159755801341
 30
0.0
 11
395.56885660910052
 21
21.615975580134879
 31
0.0
  0
LINE
  5
207
  8
1外形線
 10
20.568856609100521
 20
1320.6159755801341
 30
0.0
 11
20.568856609100521
 21
21.615975580135
 31
0.0
  0
LINE
  5
208
  8
1外形線
 10
395.56885660910052
 20
21.615975580134879
 30
0.0
 11
20.568856609100521
 21
21.615975580134879
 31
0.0
  0
LINE
  5
209
  8
1外形線
 10
20.568856609100521
 20
358.61597558013477
 30
0.0
 11
395.56885660910052
 21
358.61597558013477
 31
0.0
  0
LINE
  5
20A
  8
1外形線
 10
247.62441919688871
 20
562.0189326769605
 30
0.0
 11
298.56885660910052
 21
593.73905408456392
 31
0.0
  0
LINE
  5
20B
  8
1外形線
 10
305.56885660910052
 20
530.61597558013523
 30
0.0
 11
251.56885660910049
 21
530.61597558013523
 31
0.0
  0
LINE
  5
20C
  8
1外形線
 10
235.56885660910049
 20
503.2402314871901
 30
0.0
 11
298.56885660910052
 21
503.2402314871901
 31
0.0
  0
LINE
  5
20D
  8
1外形線
 10
235.56885660910049
 20
495.2918594410645
 30
0.0
 11
298.56885660910052
 21
495.29185944106428
 31
0.0
  0
LINE
  5
20E
  8
1外形線
 10
235.56885660910049
 20
488.61597558013477
 30
0.0
 11
305.56885660910052
 21
488.61597558013477
 31
0.0
  0
LINE
  5
20F
  8
1外形線
 10
255.49089796332359
 20
549.38489102177743
 30
0.0
 11
298.56885660910052
 21
576.20701621631758
 31
0.0
  0
LINE
  5
210
  8
1外形線
 10
250.7752886229195
 20
556.95844541697193
 30
0.0
 11
298.56885660910052
 21
586.71670472912217
 31
0.0
  0
LINE
  5
211
  8
1外形線
 10
246.78226021901469
 20
563.37149103536467
 30
0.0
 11
297.39025274096292
 21
594.88212788865314
 31
0.0
  0
ARC
  5
212
  8
1外形線
 10
209.06885660910049
 20
246.61597558013469
 30
0.0
 40
22.0
 50
0.0
 51
90.0
  0
LINE
  5
213
  8
1外形線
 10
213.54170521811491
 20
233.89966872869579
 30
0.0
 11
213.54170521811491
 21
268.15648683963917
 31
0.0
  0
LINE
  5
214
  8
1外形線
 10
245.56885660910049
 20
268.61597558013489
 30
0.0
 11
245.56885660910049
 21
191.61597558013489
 31
0.0
  0
LINE
  5
215
  8
1外形線
 10
102.5960080000861
 20
233.89966872869579
 30
0.0
 11
102.5960080000861
 21
268.15648683963917
 31
0.0
  0
ARC
  5
216
  8
1外形線
 10
107.06885660910049
 20
246.61597558013469
 30
0.0
 40
22.0
 50
90.0
 51
180.0
  0
LINE
  5
217
  8
1外形線
 10
70.568856609100521
 20
268.61597558013489
 30
0.0
 11
70.568856609100521
 21
191.61597558013489
 31
0.0
  0
LINE
  5
218
  8
1外形線
 10
204.06885660910049
 20
121.6159755801348
 30
0.0
 11
204.06885660910049
 21
58.615975580134887
 31
0.0
  0
LINE
  5
219
  8
1外形線
 10
112.06885660910049
 20
58.615975580134887
 30
0.0
 11
112.06885660910049
 21
121.6159755801348
 31
0.0
  0
LINE
  5
21A
  8
1外形線
 10
224.03941935757749
 20
121.6159755801348
 30
0.0
 11
224.0394193575776
 21
58.615975580134773
 31
0.0
  0
LINE
  5
21B
  8
1外形線
 10
231.06885660910021
 20
121.6159755801348
 30
0.0
 11
231.06885660910021
 21
61.115975580134887
 31
0.0
  0
LINE
  5
21C
  8
1外形線
 10
92.098293860623244
 20
121.6159755801348
 30
0.0
 11
92.09829386062313
 21
58.615975580134773
 31
0.0
  0
LINE
  5
21D
  8
1外形線
 10
85.068856609100521
 20
121.6159755801348
 30
0.0
 11
85.068856609100521
 21
61.115975580134887
 31
0.0
  0
LINE
  5
21E
  8
1外形線
 10
158.06885660910041
 20
51.615975580134887
 30
0.0
 11
245.56885660910021
 21
51.615975580134887
 31
0.0
  0
LINE
  5
21F
  8
1外形線
 10
158.06885660910041
 20
51.615975580134887
 30
0.0
 11
70.568856609100521
 21
51.615975580134887
 31
0.0
  0
LINE
  5
220
  8
1外形線
 10
82.568856609100521
 20
58.615975580134887
 30
0.0
 11
112.06885660910049
 21
58.615975580134887
 31
0.0
  0
LINE
  5
221
  8
1外形線
 10
73.568856609100521
 20
58.615975580134887
 30
0.0
 11
82.568856609100521
 21
58.615975580134887
 31
0.0
  0
ARC
  5
222
  8
1外形線
 10
73.568856609100521
 20
55.615975580134879
 30
0.0
 40
3.0
 50
90.0
 51
180.0
  0
LINE
  5
223
  8
1外形線
 10
70.568856609100521
 20
51.615975580134887
 30
0.0
 11
70.568856609100521
 21
55.615975580134879
 31
0.0
  0
ARC
  5
224
  8
1外形線
 10
82.568856609100521
 20
61.115975580134887
 30
0.0
 40
2.5
 50
270.0
 51
0.0
  0
LINE
  5
225
  8
1外形線
 10
233.56885660910029
 20
58.615975580134887
 30
0.0
 11
204.06885660910049
 21
58.615975580134887
 31
0.0
  0
LINE
  5
226
  8
1外形線
 10
242.56885660910029
 20
58.615975580134887
 30
0.0
 11
233.56885660910029
 21
58.615975580134887
 31
0.0
  0
ARC
  5
227
  8
1外形線
 10
233.56885660910029
 20
61.115975580134887
 30
0.0
 40
2.5
 50
180.0
 51
270.0
  0
LINE
  5
228
  8
1外形線
 10
245.56885660910021
 20
51.615975580134887
 30
0.0
 11
245.56885660910021
 21
55.615975580134879
 31
0.0
  0
ARC
  5
229
  8
1外形線
 10
242.56885660910029
 20
55.615975580134879
 30
0.0
 40
3.0
 50
0.0
 51
90.0
  0
LINE
  5
22A
  8
1外形線
 10
158.06885660910041
 20
121.6159755801348
 30
0.0
 11
231.06885660910021
 21
121.6159755801348
 31
0.0
  0
LINE
  5
22B
  8
1外形線
 10
158.06885660910049
 20
230.61597558013469
 30
0.0
 11
203.06885660910049
 21
230.61597558013469
 31
0.0
  0
LINE
  5
22C
  8
1外形線
 10
158.06885660910049
 20
233.61597558013469
 30
0.0
 11
203.06885660910049
 21
233.61597558013469
 31
0.0
  0
LINE
  5
22D
  8
1外形線
 10
204.06885660910049
 20
235.61597558013469
 30
0.0
 11
158.06885660910049
 21
235.61597558013469
 31
0.0
  0
LINE
  5
22E
  8
1外形線
 10
158.06885660910049
 20
153.61597558013469
 30
0.0
 11
203.06885660910049
 21
153.61597558013469
 31
0.0
  0
LINE
  5
22F
  8
1外形線
 10
203.06885660910049
 20
156.61597558013469
 30
0.0
 11
158.06885660910049
 21
156.61597558013469
 31
0.0
  0
LINE
  5
230
  8
1外形線
 10
245.56885660910049
 20
151.6159755801348
 30
0.0
 11
158.06885660910049
 21
151.6159755801348
 31
0.0
  0
ARC
  5
231
  8
1外形線
 10
113.06885660910049
 20
178.61597558013469
 30
0.0
 40
22.0
 50
183.65966535064419
 51
270.0
  0
ARC
  5
232
  8
1外形線
 10
112.06885660910049
 20
178.6159755801348
 30
0.0
 40
27.0
 50
180.0
 51
270.0
  0
ARC
  5
233
  8
1外形線
 10
113.06885660910049
 20
178.61597558013469
 30
0.0
 40
25.0
 50
180.0
 51
270.0
  0
LINE
  5
234
  8
1外形線
 10
70.568856609100521
 20
191.61597558013489
 30
0.0
 11
70.568856609100521
 21
151.6159755801348
 31
0.0
  0
LINE
  5
235
  8
1外形線
 10
113.06885660910049
 20
156.61597558013469
 30
0.0
 11
158.06885660910049
 21
156.61597558013469
 31
0.0
  0
LINE
  5
236
  8
1外形線
 10
158.06885660910049
 20
153.61597558013469
 30
0.0
 11
113.06885660910049
 21
153.61597558013469
 31
0.0
  0
LINE
  5
237
  8
1外形線
 10
158.06885660910041
 20
121.6159755801348
 30
0.0
 11
85.068856609100521
 21
121.6159755801348
 31
0.0
  0
LINE
  5
238
  8
1外形線
 10
70.568856609100521
 20
151.6159755801348
 30
0.0
 11
158.06885660910049
 21
151.6159755801348
 31
0.0
  0
CIRCLE
  5
239
  8
1外形線
 10
158.06885660910041
 20
81.615975580134887
 30
0.0
 40
2.0
  0
CIRCLE
  5
23A
  8
1外形線
 10
158.06885660910041
 20
81.615975580134887
 30
0.0
 40
2.0
  0
LINE
  5
23B
  8
1外形線
 10
158.06885660910049
 20
155.1159755801348
 30
0.0
 11
160.56885660910049
 21
155.1159755801348
 31
0.0
  0
LINE
  5
23C
  8
1外形線
  6
CONTINUOUS
 10
160.56885660910049
 20
153.61597558013469
 30
0.0
 11
160.56885660910049
 21
155.1159755801348
 31
0.0
  0
LINE
  5
23D
  8
1外形線
  6
CONTINUOUS
 10
155.56885660910049
 20
153.61597558013469
 30
0.0
 11
155.56885660910049
 21
155.1159755801348
 31
0.0
  0
LINE
  5
23E
  8
1外形線
 10
158.06885660910049
 20
155.1159755801348
 30
0.0
 11
155.56885660910049
 21
155.1159755801348
 31
0.0
  0
LINE
  5
23F
  8
1外形線
 10
158.06885660910049
 20
230.61597558013469
 30
0.0
 11
113.06885660910049
 21
230.61597558013469
 31
0.0
  0
LINE
  5
240
  8
1外形線
 10
112.06885660910049
 20
235.61597558013469
 30
0.0
 11
158.06885660910049
 21
235.61597558013469
 31
0.0
  0
LINE
  5
241
  8
1外形線
 10
158.06885660910049
 20
233.61597558013469
 30
0.0
 11
113.06885660910049
 21
233.61597558013469
 31
0.0
  0
ARC
  5
242
  8
1外形線
 10
112.06885660910049
 20
208.61597558013469
 30
0.0
 40
27.0
 50
90.0
 51
180.0
  0
ARC
  5
243
  8
1外形線
 10
113.06885660910049
 20
208.61597558013469
 30
0.0
 40
25.0
 50
90.0
 51
180.0
  0
ARC
  5
244
  8
1外形線
 10
113.06885660910049
 20
208.61597558013469
 30
0.0
 40
22.0
 50
90.0
 51
180.0
  0
LINE
  5
245
  8
1外形線
 10
85.068856609100521
 20
178.6159755801348
 30
0.0
 11
85.068856609100521
 21
246.61597558013469
 31
0.0
  0
LINE
  5
246
  8
1外形線
 10
88.068856609100536
 20
204.6159755801348
 30
0.0
 11
89.568856609100507
 21
204.6159755801348
 31
0.0
  0
LINE
  5
247
  8
1外形線
 10
89.616777809983319
 20
178.61597558013469
 30
0.0
 11
88.068856609100536
 21
178.61597558013469
 31
0.0
  0
LINE
  5
248
  8
1外形線
 10
88.068856609100536
 20
208.61597558013469
 30
0.0
 11
88.068856609100536
 21
178.61597558013469
 31
0.0
  0
LINE
  5
249
  8
1外形線
 10
70.568856609100521
 20
199.6159755801348
 30
0.0
 11
85.068856609100521
 21
199.6159755801348
 31
0.0
  0
LINE
  5
24A
  8
1外形線
 10
85.068856609100521
 20
193.6159755801348
 30
0.0
 11
88.068856609100536
 21
193.6159755801348
 31
0.0
  0
ARC
  5
24B
  8
1外形線
 10
89.616777809983319
 20
177.1159755801346
 30
0.0
 40
1.5
 50
3.659665350650755
 51
90.0
  0
ARC
  5
24C
  8
1外形線
 10
89.568856609100507
 20
206.11597558013489
 30
0.0
 40
1.5
 50
270.0
 51
0.0
  0
LINE
  5
24D
  8
1外形線
 10
91.068856609100521
 20
208.61597558013469
 30
0.0
 11
91.068856609100521
 21
206.11597558013489
 31
0.0
  0
LINE
  5
24E
  8
1外形線
 10
87.273061504048087
 20
219.3009437648393
 30
0.0
 11
87.273061504048087
 21
256.21423042978222
 31
0.0
  0
LINE
  5
24F
  8
1外形線
 10
93.483521925108207
 20
228.20131026412329
 30
0.0
 11
93.483521925108207
 21
263.92027220045168
 31
0.0
  0
LINE
  5
250
  8
1外形線
 10
245.56885660910049
 20
191.61597558013489
 30
0.0
 11
245.56885660910049
 21
151.6159755801348
 31
0.0
  0
ARC
  5
251
  8
1外形線
 10
203.06885660910049
 20
178.61597558013469
 30
0.0
 40
25.0
 50
270.0
 51
0.0
  0
ARC
  5
252
  8
1外形線
 10
204.06885660910049
 20
178.6159755801348
 30
0.0
 40
27.0
 50
270.0
 51
0.0
  0
ARC
  5
253
  8
1外形線
 10
203.06885660910049
 20
178.61597558013469
 30
0.0
 40
22.0
 50
270.0
 51
356.34033464935573
  0
ARC
  5
254
  8
1外形線
 10
204.06885660910049
 20
208.61597558013469
 30
0.0
 40
27.0
 50
0.0
 51
90.0
  0
ARC
  5
255
  8
1外形線
 10
203.06885660910049
 20
208.61597558013469
 30
0.0
 40
25.0
 50
0.0
 51
90.0
  0
ARC
  5
256
  8
1外形線
 10
203.06885660910049
 20
208.61597558013469
 30
0.0
 40
22.0
 50
0.0
 51
90.0
  0
LINE
  5
257
  8
1外形線
 10
231.06885660910049
 20
178.6159755801348
 30
0.0
 11
231.06885660910049
 21
246.61597558013469
 31
0.0
  0
LINE
  5
258
  8
1外形線
 10
228.06885660910049
 20
208.61597558013469
 30
0.0
 11
228.06885660910049
 21
178.61597558013469
 31
0.0
  0
ARC
  5
259
  8
1外形線
 10
226.5209354082177
 20
177.1159755801346
 30
0.0
 40
1.5
 50
90.0
 51
176.34033464934919
  0
LINE
  5
25A
  8
1外形線
 10
226.5209354082177
 20
178.61597558013469
 30
0.0
 11
228.06885660910049
 21
178.61597558013469
 31
0.0
  0
LINE
  5
25B
  8
1外形線
 10
245.56885660910049
 20
199.6159755801348
 30
0.0
 11
231.06885660910049
 21
199.6159755801348
 31
0.0
  0
LINE
  5
25C
  8
1外形線
 10
225.06885660910049
 20
208.61597558013469
 30
0.0
 11
225.06885660910049
 21
206.11597558013489
 31
0.0
  0
LINE
  5
25D
  8
1外形線
 10
231.06885660910049
 20
193.6159755801348
 30
0.0
 11
228.06885660910049
 21
193.6159755801348
 31
0.0
  0
LINE
  5
25E
  8
1外形線
 10
228.06885660910049
 20
204.6159755801348
 30
0.0
 11
226.56885660910049
 21
204.6159755801348
 31
0.0
  0
ARC
  5
25F
  8
1外形線
 10
226.56885660910049
 20
206.11597558013489
 30
0.0
 40
1.5
 50
180.0
 51
270.0
  0
LINE
  5
260
  8
1外形線
 10
228.8646517141529
 20
219.3009437648393
 30
0.0
 11
228.8646517141529
 21
256.21423042978222
 31
0.0
  0
LINE
  5
261
  8
1外形線
 10
222.65419129309279
 20
228.20131026412329
 30
0.0
 11
222.65419129309279
 21
263.92027220045168
 31
0.0
  0
LINE
  5
262
  8
1外形線
 10
158.06885660910049
 20
268.61597558013472
 30
0.0
 11
209.06885660910049
 21
268.61597558013472
 31
0.0
  0
LINE
  5
263
  8
1外形線
 10
215.56885660910049
 20
298.61597558013477
 30
0.0
 11
158.06885660910049
 21
298.61597558013477
 31
0.0
  0
LINE
  5
264
  8
1外形線
 10
138.06885660910041
 20
458.61597558013477
 30
0.0
 11
191.06885660910021
 21
458.61597558013477
 31
0.0
  0
LINE
  5
265
  8
1外形線
 10
193.56885660910029
 20
395.61597558013489
 30
0.0
 11
167.06885660909509
 21
395.61597558013489
 31
0.0
  0
LINE
  5
266
  8
1外形線
 10
138.06885660910041
 20
388.61597558013477
 30
0.0
 11
205.56885660910021
 21
388.61597558013477
 31
0.0
  0
TEXT
  5
267
  8
1外形線
 10
70.568856741435184
 20
328.61597701779522
 30
0.0
 40
10.0
  1
SP-140
  7
KANJI
  0
LINE
  5
268
  8
1外形線
 10
100.56885660910049
 20
298.61597558013477
 30
0.0
 11
158.06885660910049
 21
298.61597558013477
 31
0.0
  0
LINE
  5
269
  8
1外形線
 10
158.06885660910049
 20
268.61597558013472
 30
0.0
 11
107.06885660910049
 21
268.61597558013472
 31
0.0
  0
ARC
  5
26A
  8
1外形線
 10
100.56885660910049
 20
268.61597558013489
 30
0.0
 40
30.0
 50
90.0
 51
180.0
  0
LINE
  5
26B
  8
1外形線
 10
138.06885660910041
 20
458.61597558013477
 30
0.0
 11
85.068856609100521
 21
458.61597558013477
 31
0.0
  0
LINE
  5
26C
  8
1外形線
 10
138.06885660910041
 20
388.61597558013477
 30
0.0
 11
70.568856609100521
 21
388.61597558013477
 31
0.0
  0
LINE
  5
26D
  8
1外形線
 10
92.098293860623244
 20
458.61597558013477
 30
0.0
 11
92.09829386062313
 21
395.61597558013472
 31
0.0
  0
LINE
  5
26E
  8
1外形線
 10
85.068856609100521
 20
458.61597558013477
 30
0.0
 11
85.068856609100521
 21
398.11597558013477
 31
0.0
  0
LINE
  5
26F
  8
1外形線
 10
109.0688566091055
 20
458.61597558013477
 30
0.0
 11
109.06885660910559
 21
395.61597558013489
 31
0.0
  0
LINE
  5
270
  8
1外形線
 10
82.568856609100521
 20
395.61597558013489
 30
0.0
 11
109.06885660910559
 21
395.61597558013489
 31
0.0
  0
LINE
  5
271
  8
1外形線
 10
70.568856609100521
 20
388.61597558013477
 30
0.0
 11
70.568856609100521
 21
392.61597558013477
 31
0.0
  0
LINE
  5
272
  8
1外形線
 10
73.568856609100521
 20
395.61597558013489
 30
0.0
 11
82.568856609100521
 21
395.61597558013489
 31
0.0
  0
ARC
  5
273
  8
1外形線
 10
73.568856609100521
 20
392.61597558013477
 30
0.0
 40
3.0
 50
90.0
 51
180.0
  0
ARC
  5
274
  8
1外形線
 10
82.568856609100521
 20
398.11597558013477
 30
0.0
 40
2.5
 50
270.0
 51
0.0
  0
CIRCLE
  5
275
  8
1外形線
 10
138.06885660910041
 20
418.61597558013477
 30
0.0
 40
2.0
  0
LINE
  5
276
  8
1外形線
 10
167.06885660909521
 20
458.61597558013477
 30
0.0
 11
167.06885660909509
 21
395.61597558013489
 31
0.0
  0
CIRCLE
  5
277
  8
1外形線
 10
138.06885660910041
 20
418.61597558013477
 30
0.0
 40
2.0
  0
ARC
  5
278
  8
1外形線
 10
215.56885660910049
 20
268.61597558013489
 30
0.0
 40
30.0
 50
0.0
 51
90.0
  0
LINE
  5
279
  8
1外形線
 10
184.03941935757749
 20
458.61597558013477
 30
0.0
 11
184.0394193575776
 21
395.61597558013472
 31
0.0
  0
LINE
  5
27A
  8
1外形線
 10
191.06885660910021
 20
458.61597558013477
 30
0.0
 11
191.06885660910021
 21
398.11597558013477
 31
0.0
  0
LINE
  5
27B
  8
1外形線
 10
202.56885660910029
 20
395.61597558013489
 30
0.0
 11
193.56885660910029
 21
395.61597558013489
 31
0.0
  0
ARC
  5
27C
  8
1外形線
 10
193.56885660910029
 20
398.11597558013477
 30
0.0
 40
2.5
 50
180.0
 51
270.0
  0
LINE
  5
27D
  8
1外形線
 10
205.56885660910021
 20
388.61597558013477
 30
0.0
 11
205.56885660910021
 21
392.61597558013477
 31
0.0
  0
ARC
  5
27E
  8
1外形線
 10
202.56885660910029
 20
392.61597558013477
 30
0.0
 40
3.0
 50
0.0
 51
90.0
  0
LINE
  5
27F
  8
1外形線
 10
175.56885660910049
 20
625.61597558013489
 30
0.0
 11
138.06885660910049
 21
625.61597558013489
 31
0.0
  0
LINE
  5
280
  8
1外形線
 10
138.06885660910049
 20
595.61597558013477
 30
0.0
 11
169.06885660910049
 21
595.61597558013489
 31
0.0
  0
ARC
  5
281
  8
1外形線
 10
164.06885660910049
 20
535.61597558013489
 30
0.0
 40
27.0
 50
0.0
 51
90.0
  0
ARC
  5
282
  8
1外形線
 10
163.06885660910049
 20
535.61597558013466
 30
0.0
 40
25.0
 50
0.0
 51
90.0
  0
ARC
  5
283
  8
1外形線
 10
163.06885660910049
 20
535.61597558013466
 30
0.0
 40
22.0
 50
3.6596653506442292
 51
90.0
  0
LINE
  5
284
  8
1外形線
 10
205.56885660910049
 20
488.61597558013477
 30
0.0
 11
138.06885660910049
 21
488.61597558013477
 31
0.0
  0
ARC
  5
285
  8
1外形線
 10
166.06885660910049
 20
512.61597558013477
 30
0.0
 40
19.0
 50
270.0
 51
355.80387588301801
  0
ARC
  5
286
  8
1外形線
 10
166.06885660910049
 20
512.61597558013477
 30
0.0
 40
22.0
 50
270.0
 51
0.0
  0
ARC
  5
287
  8
1外形線
 10
167.06885660910049
 20
512.61597558013489
 30
0.0
 40
24.0
 50
270.0
 51
0.0
  0
LINE
  5
288
  8
1外形線
 10
87.273061504048087
 20
546.3009437648393
 30
0.0
 11
87.273061504048087
 21
583.21423042978245
 31
0.0
  0
LINE
  5
289
  8
1外形線
 10
93.483521925108207
 20
555.20131026412344
 30
0.0
 11
93.483521925108207
 21
590.92027220045202
 31
0.0
  0
LINE
  5
28A
  8
1外形線
 10
102.5960080000861
 20
560.89966872869604
 30
0.0
 11
102.5960080000861
 21
595.15648683963934
 31
0.0
  0
LINE
  5
28B
  8
1外形線
 10
85.068856609100521
 20
512.61597558013489
 30
0.0
 11
85.068856609100521
 21
573.61597558013489
 31
0.0
  0
LINE
  5
28C
  8
1外形線
 10
70.568856609100521
 20
595.61597558013489
 30
0.0
 11
70.568856609100521
 21
528.61597558013489
 31
0.0
  0
LINE
  5
28D
  8
1外形線
 10
112.06885660910049
 20
562.61597558013477
 30
0.0
 11
138.06885660910049
 21
562.61597558013477
 31
0.0
  0
LINE
  5
28E
  8
1外形線
 10
138.06885660910049
 20
557.61597558013477
 30
0.0
 11
113.06885660910049
 21
557.61597558013477
 31
0.0
  0
LINE
  5
28F
  8
1外形線
 10
138.06885660910049
 20
560.61597558013489
 30
0.0
 11
113.06885660910049
 21
560.61597558013466
 31
0.0
  0
LINE
  5
290
  8
1外形線
 10
110.06885660910049
 20
493.61597558013472
 30
0.0
 11
138.06885660910049
 21
493.61597558013472
 31
0.0
  0
LINE
  5
291
  8
1外形線
 10
138.06885660910049
 20
490.61597558013472
 30
0.0
 11
110.06885660910049
 21
490.61597558013472
 31
0.0
  0
LINE
  5
292
  8
1外形線
 10
70.568856609100521
 20
488.61597558013477
 30
0.0
 11
138.06885660910049
 21
488.61597558013477
 31
0.0
  0
LINE
  5
293
  8
1外形線
 10
88.068856609100536
 20
535.61597558013466
 30
0.0
 11
88.068856609100536
 21
512.61597558013477
 31
0.0
  0
LINE
  5
294
  8
1外形線
 10
70.568856609100521
 20
528.61597558013489
 30
0.0
 11
70.568856609100521
 21
488.61597558013477
 31
0.0
  0
ARC
  5
295
  8
1外形線
 10
109.06885660910049
 20
512.61597558013489
 30
0.0
 40
24.0
 50
180.0
 51
270.0
  0
LINE
  5
296
  8
1外形線
 10
89.623808308839671
 20
512.61597558013477
 30
0.0
 11
88.068856609100536
 21
512.61597558013477
 31
0.0
  0
ARC
  5
297
  8
1外形線
 10
110.06885660910049
 20
512.61597558013477
 30
0.0
 40
19.0
 50
184.19612411698171
 51
270.0
  0
ARC
  5
298
  8
1外形線
 10
110.06885660910049
 20
512.61597558013477
 30
0.0
 40
22.0
 50
180.0
 51
270.0
  0
ARC
  5
299
  8
1外形線
 10
89.623808308839671
 20
511.11597558013472
 30
0.0
 40
1.5
 50
4.1961241169817507
 51
90.0
  0
LINE
  5
29A
  8
1外形線
 10
88.068856609100536
 20
535.615975580135
 30
0.0
 11
89.616777809983319
 21
535.615975580135
 31
0.0
  0
ARC
  5
29B
  8
1外形線
 10
112.06885660910049
 20
535.61597558013489
 30
0.0
 40
27.0
 50
90.0
 51
180.0
  0
ARC
  5
29C
  8
1外形線
 10
113.06885660910049
 20
535.61597558013466
 30
0.0
 40
25.0
 50
90.0
 51
180.0
  0
ARC
  5
29D
  8
1外形線
 10
113.06885660910049
 20
535.61597558013466
 30
0.0
 40
22.0
 50
90.0
 51
176.3403346493557
  0
LINE
  5
29E
  8
1外形線
 10
70.568856609100521
 20
530.615975580135
 30
0.0
 11
85.068856609100521
 21
530.615975580135
 31
0.0
  0
LINE
  5
29F
  8
1外形線
 10
85.068856609100521
 20
524.61597558013489
 30
0.0
 11
88.068856609100536
 21
524.61597558013489
 31
0.0
  0
ARC
  5
2A0
  8
1外形線
 10
89.616777809983319
 20
537.11597558013489
 30
0.0
 40
1.5
 50
270.0
 51
356.34033464935573
  0
LINE
  5
2A1
  8
1外形線
 10
166.06885660910049
 20
493.61597558013472
 30
0.0
 11
138.06885660910049
 21
493.61597558013472
 31
0.0
  0
LINE
  5
2A2
  8
1外形線
 10
138.06885660910049
 20
490.61597558013472
 30
0.0
 11
166.06885660910049
 21
490.61597558013472
 31
0.0
  0
LINE
  5
2A3
  8
1外形線
  6
CONTINUOUS
 10
140.56885660910049
 20
490.61597558013472
 30
0.0
 11
140.56885660910049
 21
492.11597558013477
 31
0.0
  0
LINE
  5
2A4
  8
1外形線
 10
138.06885660910049
 20
492.11597558013477
 30
0.0
 11
140.56885660910049
 21
492.11597558013477
 31
0.0
  0
LINE
  5
2A5
  8
1外形線
 10
138.06885660910049
 20
492.11597558013477
 30
0.0
 11
135.56885660910049
 21
492.11597558013477
 31
0.0
  0
LINE
  5
2A6
  8
1外形線
  6
CONTINUOUS
 10
135.56885660910049
 20
490.61597558013472
 30
0.0
 11
135.56885660910049
 21
492.11597558013477
 31
0.0
  0
LINE
  5
2A7
  8
1外形線
 10
138.06885660910049
 20
560.61597558013489
 30
0.0
 11
163.06885660910049
 21
560.61597558013466
 31
0.0
  0
LINE
  5
2A8
  8
1外形線
 10
164.06885660910049
 20
562.61597558013477
 30
0.0
 11
138.06885660910049
 21
562.61597558013477
 31
0.0
  0
LINE
  5
2A9
  8
1外形線
 10
138.06885660910049
 20
557.61597558013477
 30
0.0
 11
163.06885660910049
 21
557.61597558013477
 31
0.0
  0
TEXT
  5
2AA
  8
1外形線
 10
70.568856741435184
 20
655.61597701779533
 30
0.0
 40
10.0
  1
SP-100
  7
KANJI
  0
LINE
  5
2AB
  8
1外形線
 10
138.06885660910049
 20
595.61597558013477
 30
0.0
 11
107.06885660910049
 21
595.61597558013489
 31
0.0
  0
LINE
  5
2AC
  8
1外形線
 10
100.56885660910049
 20
625.61597558013489
 30
0.0
 11
138.06885660910049
 21
625.61597558013489
 31
0.0
  0
ARC
  5
2AD
  8
1外形線
 10
100.56885660910049
 20
595.61597558013489
 30
0.0
 40
30.0
 50
90.0
 51
180.0
  0
ARC
  5
2AE
  8
1外形線
 10
107.06885660910049
 20
573.61597558013489
 30
0.0
 40
22.0
 50
90.0
 51
180.0
  0
LINE
  5
2AF
  8
1外形線
 10
188.8646517141529
 20
546.3009437648393
 30
0.0
 11
188.8646517141529
 21
583.21423042978233
 31
0.0
  0
LINE
  5
2B0
  8
1外形線
 10
182.65419129309279
 20
555.20131026412344
 30
0.0
 11
182.65419129309279
 21
590.92027220045202
 31
0.0
  0
LINE
  5
2B1
  8
1外形線
 10
173.5417052181148
 20
560.89966872869604
 30
0.0
 11
173.5417052181148
 21
595.15648683963934
 31
0.0
  0
LINE
  5
2B2
  8
1外形線
 10
191.06885660910049
 20
512.61597558013489
 30
0.0
 11
191.06885660910049
 21
573.61597558013489
 31
0.0
  0
LINE
  5
2B3
  8
1外形線
 10
205.56885660910049
 20
595.61597558013489
 30
0.0
 11
205.56885660910049
 21
528.61597558013489
 31
0.0
  0
LINE
  5
2B4
  8
1外形線
 10
188.06885660910049
 20
535.61597558013466
 30
0.0
 11
188.06885660910049
 21
512.61597558013477
 31
0.0
  0
LINE
  5
2B5
  8
1外形線
 10
205.56885660910049
 20
528.61597558013489
 30
0.0
 11
205.56885660910049
 21
488.61597558013477
 31
0.0
  0
LINE
  5
2B6
  8
1外形線
 10
186.51390490936129
 20
512.61597558013477
 30
0.0
 11
188.06885660910049
 21
512.61597558013477
 31
0.0
  0
ARC
  5
2B7
  8
1外形線
 10
186.51390490936129
 20
511.11597558013472
 30
0.0
 40
1.5
 50
90.0
 51
175.80387588301821
  0
LINE
  5
2B8
  8
1外形線
 10
205.56885660910049
 20
530.615975580135
 30
0.0
 11
191.06885660910049
 21
530.615975580135
 31
0.0
  0
ARC
  5
2B9
  8
1外形線
 10
186.5209354082177
 20
537.11597558013489
 30
0.0
 40
1.5
 50
183.65966535064419
 51
270.0
  0
LINE
  5
2BA
  8
1外形線
 10
188.06885660910049
 20
535.615975580135
 30
0.0
 11
186.5209354082177
 21
535.615975580135
 31
0.0
  0
LINE
  5
2BB
  8
1外形線
 10
191.06885660910049
 20
524.61597558013489
 30
0.0
 11
188.06885660910049
 21
524.61597558013489
 31
0.0
  0
LINE
  5
2BC
  8
1外形線
 10
235.56885660910049
 20
522.61597558013477
 30
0.0
 11
235.56885660910049
 21
488.61597558013477
 31
0.0
  0
ARC
  5
2BD
  8
1外形線
  6
HIDDEN
 10
244.13946795528949
 20
567.61597558013489
 30
0.0
 40
12.55456351736998
 50
270.0
 51
301.90810693565118
  0
LINE
  5
2BE
  8
1外形線
 10
250.56885660910049
 20
524.61597558013489
 30
0.0
 11
235.56885660910049
 21
524.61597558013489
 31
0.0
  0
ARC
  5
2BF
  8
1外形線
  6
HIDDEN
 10
244.13946795528949
 20
567.61597558013489
 30
0.0
 40
21.47620560996009
 50
270.0
 51
301.90810693565118
  0
LINE
  5
2C0
  8
1外形線
 10
235.56885660910049
 20
522.615975580135
 30
0.0
 11
235.56885660910049
 21
562.61597558013489
 31
0.0
  0
LINE
  5
2C1
  8
1外形線
 10
235.56885660910041
 20
561.02266272419547
 30
0.0
 11
244.13946795528949
 21
561.02266272419547
 31
0.0
  0
LINE
  5
2C2
  8
1外形線
 10
235.56885660910049
 20
562.61597558013489
 30
0.0
 11
244.13946795528949
 21
562.61597558013489
 31
0.0
  0
ARC
  5
2C3
  8
1外形線
  6
HIDDEN
 10
244.13946795528949
 20
567.61597558013489
 30
0.0
 40
6.5933128559396428
 50
270.0
 51
301.90810693565118
  0
ARC
  5
2C4
  8
1外形線
 10
244.13946795528949
 20
567.61597558013489
 30
0.0
 40
5.0
 50
270.0
 51
301.90810693565118
  0
LINE
  5
2C5
  8
1外形線
 10
235.56885660910049
 20
555.06141206276504
 30
0.0
 11
244.13946795528949
 21
555.06141206276504
 31
0.0
  0
LINE
  5
2C6
  8
1外形線
 10
235.56885660910049
 20
546.13976997017494
 30
0.0
 11
244.13946795528949
 21
546.13976997017494
 31
0.0
  0
ARC
  5
2C7
  8
1外形線
 10
251.56885660910049
 20
529.61597558013523
 30
0.0
 40
1.0
 50
90.0
 51
180.0
  0
ARC
  5
2C8
  8
1外形線
 10
251.36885660910039
 20
529.61597558013523
 30
0.0
 40
1.0
 50
90.0
 51
180.0
  0
LINE
  5
2C9
  8
1外形線
 10
250.56885660910049
 20
529.61597558013523
 30
0.0
 11
250.56885660910049
 21
524.61597558013489
 31
0.0
  0
LINE
  5
2CA
  8
1外形線
 10
250.36885660910039
 20
524.61597558013523
 30
0.0
 11
250.36885660910039
 21
529.61597558013523
 31
0.0
  0
ARC
  5
2CB
  8
1外形線
 10
175.56885660910049
 20
595.61597558013489
 30
0.0
 40
30.0
 50
0.0
 51
90.0
  0
ARC
  5
2CC
  8
1外形線
 10
169.06885660910049
 20
573.61597558013489
 30
0.0
 40
22.0
 50
0.0
 51
90.0
  0
LINE
  5
2CD
  8
1外形線
 10
345.56885660910052
 20
151.6159755801348
 30
0.0
 11
345.56885660910052
 21
298.61597558013477
 31
0.0
  0
LINE
  5
2CE
  8
1外形線
 10
286.78226021901457
 20
236.3714910353645
 30
0.0
 11
337.39025274096292
 21
267.88212788865297
 31
0.0
  0
LINE
  5
2CF
  8
1外形線
 10
287.62441919688871
 20
235.0189326769605
 30
0.0
 11
338.56885660910052
 21
266.73905408456392
 31
0.0
  0
LINE
  5
2D0
  8
1外形線
 10
338.56885660910041
 20
295.61597558013489
 30
0.0
 11
338.56885660910052
 21
191.615975580135
 31
0.0
  0
LINE
  5
2D1
  8
1外形線
 10
338.56885660910052
 20
151.6159755801348
 30
0.0
 11
338.56885660910052
 21
191.615975580135
 31
0.0
  0
LINE
  5
2D2
  8
1外形線
 10
275.56885660910052
 20
185.6159755801348
 30
0.0
 11
275.56885660910052
 21
151.6159755801348
 31
0.0
  0
LINE
  5
2D3
  8
1外形線
 10
275.56885660910052
 20
158.29185944106439
 30
0.0
 11
338.56885660910052
 21
158.2918594410643
 31
0.0
  0
LINE
  5
2D4
  8
1外形線
 10
275.56885660910052
 20
151.6159755801348
 30
0.0
 11
345.56885660910052
 21
151.6159755801348
 31
0.0
  0
LINE
  5
2D5
  8
1外形線
 10
290.7752886229195
 20
229.95844541697181
 30
0.0
 11
338.56885660910052
 21
259.71670472912211
 31
0.0
  0
LINE
  5
2D6
  8
1外形線
 10
275.56885660910052
 20
166.2402314871901
 30
0.0
 11
338.56885660910052
 21
166.2402314871901
 31
0.0
  0
LINE
  5
2D7
  8
1外形線
 10
295.49089796332362
 20
222.38489102177729
 30
0.0
 11
338.56885660910052
 21
249.2070162163175
 31
0.0
  0
LINE
  5
2D8
  8
1外形線
 10
345.56885660910052
 20
199.6159755801352
 30
0.0
 11
291.56885660910052
 21
199.6159755801352
 31
0.0
  0
LINE
  5
2D9
  8
1外形線
 10
275.56885660910052
 20
185.615975580135
 30
0.0
 11
275.56885660910052
 21
235.6159755801348
 31
0.0
  0
LINE
  5
2DA
  8
1外形線
 10
290.56885660910052
 20
193.615975580135
 30
0.0
 11
275.56885660910052
 21
193.615975580135
 31
0.0
  0
LINE
  5
2DB
  8
1外形線
 10
290.56885660910052
 20
198.6159755801352
 30
0.0
 11
290.56885660910052
 21
193.615975580135
 31
0.0
  0
LINE
  5
2DC
  8
1外形線
 10
290.36885660910048
 20
193.6159755801352
 30
0.0
 11
290.36885660910048
 21
198.6159755801352
 31
0.0
  0
ARC
  5
2DD
  8
1外形線
 10
291.36885660910042
 20
198.6159755801352
 30
0.0
 40
1.0
 50
90.0
 51
180.0
  0
ARC
  5
2DE
  8
1外形線
 10
291.56885660910052
 20
198.6159755801352
 30
0.0
 40
1.0
 50
90.0
 51
180.0
  0
ARC
  5
2DF
  8
1外形線
  6
HIDDEN
 10
284.13946795528949
 20
240.6159755801348
 30
0.0
 40
21.47620560996009
 50
270.0
 51
301.90810693565118
  0
ARC
  5
2E0
  8
1外形線
  6
HIDDEN
 10
284.13946795528949
 20
240.6159755801348
 30
0.0
 40
12.55456351736998
 50
270.0
 51
301.90810693565118
  0
LINE
  5
2E1
  8
1外形線
 10
275.56885660910052
 20
235.6159755801348
 30
0.0
 11
284.13946795528949
 21
235.6159755801348
 31
0.0
  0
LINE
  5
2E2
  8
1外形線
 10
275.56885660910029
 20
234.0226627241953
 30
0.0
 11
284.13946795528949
 21
234.0226627241953
 31
0.0
  0
ARC
  5
2E3
  8
1外形線
 10
284.13946795528949
 20
240.6159755801348
 30
0.0
 40
5.0
 50
270.0
 51
301.90810693565118
  0
ARC
  5
2E4
  8
1外形線
  6
HIDDEN
 10
284.13946795528949
 20
240.6159755801348
 30
0.0
 40
6.5933128559396428
 50
270.0
 51
301.90810693565118
  0
LINE
  5
2E5
  8
1外形線
 10
275.56885660910052
 20
219.1397699701748
 30
0.0
 11
284.13946795528949
 21
219.1397699701748
 31
0.0
  0
LINE
  5
2E6
  8
1外形線
 10
275.56885660910052
 20
228.0614120627649
 30
0.0
 11
284.13946795528949
 21
228.0614120627649
 31
0.0
  0
ARC
  5
2E7
  8
1外形線
 10
336.06885660910052
 20
270.0043701610382
 30
0.0
 40
2.5
 50
301.90810693565118
 51
0.0
  0
POINT
  5
2E8
  8
1外形線
 10
338.25443322977247
 20
268.79059306652209
 30
0.0
  0
ARC
  5
2E9
  8
1外形線
 10
341.56885660910041
 20
295.61597558013489
 30
0.0
 40
3.0
 50
90.0
 51
180.0
  0
LINE
  5
2EA
  8
1外形線
 10
345.56885660910052
 20
298.61597558013477
 30
0.0
 11
341.56885660910041
 21
298.61597558013477
 31
0.0
  0
LINE
  5
2EB
  8
1外形線
 10
298.56885660910029
 20
622.615975580135
 30
0.0
 11
298.56885660910052
 21
528.615975580135
 31
0.0
  0
LINE
  5
2EC
  8
1外形線
 10
305.56885660910052
 20
488.61597558013477
 30
0.0
 11
305.56885660910052
 21
625.61597558013489
 31
0.0
  0
LINE
  5
2ED
  8
1外形線
 10
298.56885660910052
 20
488.61597558013477
 30
0.0
 11
298.56885660910052
 21
528.615975580135
 31
0.0
  0
ARC
  5
2EE
  8
1外形線
 10
296.06885660910052
 20
597.00437016103831
 30
0.0
 40
2.5
 50
301.90810693565118
 51
0.0
  0
POINT
  5
2EF
  8
1外形線
 10
298.25443322977247
 20
595.79059306652221
 30
0.0
  0
ARC
  5
2F0
  8
1外形線
 10
301.56885660910041
 20
622.615975580135
 30
0.0
 40
3.0
 50
90.0
 51
180.0
  0
LINE
  5
2F1
  8
1外形線
 10
305.56885660910052
 20
625.61597558013489
 30
0.0
 11
301.56885660910041
 21
625.61597558013489
 31
0.0
  0
LINE
  5
2F2
  8
1外形線
 10
20.568856609100521
 20
685.615975580135
 30
0.0
 11
395.56885660910052
 21
685.615975580135
 31
0.0
  0
LINE
  5
2F3
  8
1外形線
 10
20.568856609100521
 20
1005.615975580135
 30
0.0
 11
395.56885660910052
 21
1005.615975580135
 31
0.0
  0
LINE
  5
2F4
  8
1外形線
 10
20.568856609100521
 20
1320.6159755801341
 30
0.0
 11
395.56885660910052
 21
1320.6159755801341
 31
0.0
  0
ARC
  5
2F5
  8
1外形線
 10
276.56885660910041
 20
942.615975580135
 30
0.0
 40
3.0
 50
90.0
 51
180.0
  0
LINE
  5
2F6
  8
1外形線
 10
280.56885660910052
 20
855.61597558013511
 30
0.0
 11
226.56885660910049
 21
855.61597558013511
 31
0.0
  0
LINE
  5
2F7
  8
1外形線
 10
210.56885660910049
 20
815.615975580135
 30
0.0
 11
280.56885660910052
 21
815.615975580135
 31
0.0
  0
LINE
  5
2F8
  8
1外形線
 10
151.06885660910021
 20
1105.6159755801341
 30
0.0
 11
151.06885660910021
 21
1045.115975580135
 31
0.0
  0
LINE
  5
2F9
  8
1外形線
 10
144.03941935757749
 20
1105.6159755801341
 30
0.0
 11
144.0394193575776
 21
1042.615975580135
 31
0.0
  0
LINE
  5
2FA
  8
1外形線
 10
130.06885660910029
 20
1105.6159755801341
 30
0.0
 11
130.06885660910029
 21
1042.615975580135
 31
0.0
  0
LINE
  5
2FB
  8
1外形線
 10
106.06885660910049
 20
1105.6159755801341
 30
0.0
 11
106.06885660910049
 21
1042.615975580135
 31
0.0
  0
LINE
  5
2FC
  8
1外形線
 10
85.068856609100521
 20
1105.6159755801341
 30
0.0
 11
85.068856609100521
 21
1045.115975580135
 31
0.0
  0
LINE
  5
2FD
  8
1外形線
 10
92.098293860623244
 20
1105.6159755801341
 30
0.0
 11
92.09829386062313
 21
1042.615975580135
 31
0.0
  0
LINE
  5
2FE
  8
1外形線
 10
163.86465171415259
 20
866.30094376484033
 30
0.0
 11
163.86465171415259
 21
903.21423042977904
 31
0.0
  0
LINE
  5
2FF
  8
1外形線
 10
87.273061504048414
 20
866.30094376484033
 30
0.0
 11
87.273061504048414
 21
903.21423042977904
 31
0.0
  0
ARC
  5
300
  8
1外形線
 10
139.06885660910061
 20
855.61597558013489
 30
0.0
 40
27.0
 50
0.0
 51
90.0
  0
ARC
  5
301
  8
1外形線
 10
112.06885660910049
 20
855.61597558013489
 30
0.0
 40
27.0
 50
90.0
 51
180.0
  0
LINE
  5
302
  8
1外形線
 10
230.49089796332359
 20
869.38489102177755
 30
0.0
 11
273.56885660910052
 21
896.2070162163177
 31
0.0
  0
LINE
  5
303
  8
1外形線
 10
210.56885660910049
 20
849.615975580135
 30
0.0
 11
210.56885660910049
 21
882.615975580135
 31
0.0
  0
LINE
  5
304
  8
1外形線
 10
273.56885660910029
 20
942.615975580135
 30
0.0
 11
273.56885660910052
 21
855.61597558013511
 31
0.0
  0
LINE
  5
305
  8
1外形線
 10
180.56885660910049
 20
855.61597558013489
 30
0.0
 11
180.56885660910049
 21
915.615975580135
 31
0.0
  0
LINE
  5
306
  8
1外形線
 10
166.06885660910061
 20
839.61597558013489
 30
0.0
 11
166.06885660910069
 21
893.615975580135
 31
0.0
  0
LINE
  5
307
  8
1外形線
 10
70.568856609100521
 20
915.615975580135
 30
0.0
 11
70.568856609100521
 21
855.61597558013489
 31
0.0
  0
ARC
  5
308
  8
1外形線
 10
113.06885660910049
 20
855.61597558013489
 30
0.0
 40
25.0
 50
90.0
 51
180.0
  0
LINE
  5
309
  8
1外形線
 10
85.068856609100521
 20
839.61597558013489
 30
0.0
 11
85.068856609100521
 21
893.615975580135
 31
0.0
  0
ARC
  5
30A
  8
1外形線
 10
113.06885660910049
 20
855.61597558013489
 30
0.0
 40
22.0
 50
90.0
 51
163.94286727754491
  0
ARC
  5
30B
  8
1外形線
 10
138.06885660910061
 20
855.61597558013489
 30
0.0
 40
25.0
 50
0.0
 51
90.0
  0
ARC
  5
30C
  8
1外形線
 10
138.06885660910061
 20
855.61597558013489
 30
0.0
 40
22.0
 50
16.057132722455091
 51
90.0
  0
ARC
  5
30D
  8
1外形線
 10
142.06885660910061
 20
839.61597558013489
 30
0.0
 40
24.0
 50
270.0
 51
0.0
  0
LINE
  5
30E
  8
1外形線
 10
180.56885660910049
 20
855.61597558013489
 30
0.0
 11
166.06885660910049
 21
855.61597558013489
 31
0.0
  0
LINE
  5
30F
  8
1外形線
 10
70.568856609100521
 20
815.615975580135
 30
0.0
 11
180.56885660910049
 21
815.615975580135
 31
0.0
  0
LINE
  5
310
  8
1外形線
 10
177.56885660910049
 20
722.615975580135
 30
0.0
 11
168.56885660910049
 21
722.615975580135
 31
0.0
  0
LINE
  5
311
  8
1外形線
 10
180.56885660910049
 20
715.615975580135
 30
0.0
 11
70.568856609100521
 21
715.615975580135
 31
0.0
  0
LINE
  5
312
  8
1外形線
 10
92.098293860623244
 20
785.615975580135
 30
0.0
 11
92.09829386062313
 21
722.61597558013477
 31
0.0
  0
LINE
  5
313
  8
1外形線
 10
85.068856609100521
 20
785.615975580135
 30
0.0
 11
85.068856609100521
 21
725.11597558013489
 31
0.0
  0
LINE
  5
314
  8
1外形線
 10
159.03941935757771
 20
785.615975580135
 30
0.0
 11
159.0394193575776
 21
722.615975580135
 31
0.0
  0
LINE
  5
315
  8
1外形線
 10
166.06885660910049
 20
785.615975580135
 30
0.0
 11
166.06885660910049
 21
725.11597558013489
 31
0.0
  0
LINE
  5
316
  8
1外形線
 10
142.06885660910561
 20
785.61597558013489
 30
0.0
 11
142.06885660910561
 21
722.615975580135
 31
0.0
  0
LINE
  5
317
  8
1外形線
 10
109.0688566091055
 20
785.61597558013489
 30
0.0
 11
109.06885660910559
 21
722.61597558013511
 31
0.0
  0
ARC
  5
318
  8
1外形線
 10
73.568856609100521
 20
719.615975580135
 30
0.0
 40
3.0
 50
90.0
 51
180.0
  0
LINE
  5
319
  8
1外形線
 10
70.568856609100521
 20
715.615975580135
 30
0.0
 11
70.568856609100521
 21
719.615975580135
 31
0.0
  0
LINE
  5
31A
  8
1外形線
 10
82.568856609100521
 20
722.615975580135
 30
0.0
 11
109.06885660910559
 21
722.615975580135
 31
0.0
  0
LINE
  5
31B
  8
1外形線
 10
73.568856609100521
 20
722.615975580135
 30
0.0
 11
82.568856609100521
 21
722.615975580135
 31
0.0
  0
ARC
  5
31C
  8
1外形線
 10
82.568856609100521
 20
725.11597558013489
 30
0.0
 40
2.5
 50
270.0
 51
0.0
  0
LINE
  5
31D
  8
1外形線
 10
142.0688566091055
 20
722.615975580135
 30
0.0
 11
168.56885660910049
 21
722.615975580135
 31
0.0
  0
CIRCLE
  5
31E
  8
1外形線
 10
125.56885660910049
 20
745.61597558013489
 30
0.0
 40
2.0
  0
ARC
  5
31F
  8
1外形線
 10
168.56885660910049
 20
725.11597558013489
 30
0.0
 40
2.5
 50
180.0
 51
270.0
  0
LINE
  5
320
  8
1外形線
 10
141.06885660910049
 20
817.61597558013477
 30
0.0
 11
110.06885660910049
 21
817.61597558013477
 31
0.0
  0
LINE
  5
321
  8
1外形線
 10
110.06885660910049
 20
820.61597558013477
 30
0.0
 11
141.06885660910049
 21
820.61597558013477
 31
0.0
  0
LINE
  5
322
  8
1外形線
 10
166.06885660910049
 20
785.615975580135
 30
0.0
 11
85.068856609100521
 21
785.615975580135
 31
0.0
  0
ARC
  5
323
  8
1外形線
 10
109.06885660910049
 20
839.61597558013489
 30
0.0
 40
24.0
 50
180.0
 51
270.0
  0
ARC
  5
324
  8
1外形線
 10
110.06885660910049
 20
839.61597558013489
 30
0.0
 40
19.0
 50
184.19612411698171
 51
270.0
  0
LINE
  5
325
  8
1外形線
 10
70.568856609100521
 20
855.61597558013489
 30
0.0
 11
70.568856609100521
 21
815.615975580135
 31
0.0
  0
ARC
  5
326
  8
1外形線
 10
110.06885660910049
 20
839.61597558013489
 30
0.0
 40
22.0
 50
180.0
 51
270.0
  0
LINE
  5
327
  8
1外形線
 10
90.485677027828174
 20
860.615975580135
 30
0.0
 11
88.573959181268719
 21
860.615975580135
 31
0.0
  0
LINE
  5
328
  8
1外形線
 10
89.623808308839671
 20
839.61597558013489
 30
0.0
 11
88.068856609100536
 21
839.61597558013489
 31
0.0
  0
LINE
  5
329
  8
1外形線
 10
88.068856609100536
 20
855.61597558013489
 30
0.0
 11
88.068856609100536
 21
839.61597558013489
 31
0.0
  0
LINE
  5
32A
  8
1外形線
 10
85.068856609100521
 20
855.61597558013489
 30
0.0
 11
70.568856609100521
 21
855.61597558013489
 31
0.0
  0
LINE
  5
32B
  8
1外形線
 10
85.068856609100521
 20
849.61597558013489
 30
0.0
 11
88.068856609100536
 21
849.61597558013489
 31
0.0
  0
ARC
  5
32C
  8
1外形線
 10
89.623808308839671
 20
838.11597558013477
 30
0.0
 40
1.5
 50
4.1961241169817507
 51
90.0
  0
ARC
  5
32D
  8
1外形線
 10
90.485677027828174
 20
862.115975580135
 30
0.0
 40
1.5
 50
270.0
 51
343.94286727754468
  0
ARC
  5
32E
  8
1外形線
 10
141.06885660910049
 20
839.61597558013489
 30
0.0
 40
22.0
 50
270.0
 51
0.0
  0
ARC
  5
32F
  8
1外形線
 10
141.06885660910049
 20
839.61597558013489
 30
0.0
 40
19.0
 50
270.0
 51
355.80387588301801
  0
LINE
  5
330
  8
1外形線
 10
128.06885660910049
 20
819.11597558013489
 30
0.0
 11
123.06885660910049
 21
819.11597558013489
 31
0.0
  0
LINE
  5
331
  8
1外形線
  6
CONTINUOUS
 10
123.06885660910049
 20
817.61597558013477
 30
0.0
 11
123.06885660910049
 21
819.11597558013489
 31
0.0
  0
LINE
  5
332
  8
1外形線
  6
CONTINUOUS
 10
128.06885660910049
 20
817.61597558013477
 30
0.0
 11
128.06885660910049
 21
819.11597558013489
 31
0.0
  0
LINE
  5
333
  8
1外形線
 10
163.06885660910061
 20
855.61597558013489
 30
0.0
 11
163.06885660910061
 21
839.61597558013489
 31
0.0
  0
LINE
  5
334
  8
1外形線
 10
161.51390490936129
 20
839.61597558013489
 30
0.0
 11
163.06885660910049
 21
839.61597558013489
 31
0.0
  0
ARC
  5
335
  8
1外形線
 10
161.51390490936129
 20
838.11597558013477
 30
0.0
 40
1.5
 50
90.0
 51
175.80387588302449
  0
LINE
  5
336
  8
1外形線
 10
160.65203619037311
 20
860.615975580135
 30
0.0
 11
162.56375403693229
 21
860.615975580135
 31
0.0
  0
ARC
  5
337
  8
1外形線
 10
160.65203619037311
 20
862.115975580135
 30
0.0
 40
1.5
 50
196.05713272245509
 51
270.0
  0
LINE
  5
338
  8
1外形線
 10
166.06885660910049
 20
849.61597558013489
 30
0.0
 11
163.06885660910049
 21
849.61597558013489
 31
0.0
  0
ARC
  5
339
  8
1外形線
 10
177.56885660910049
 20
719.615975580135
 30
0.0
 40
3.0
 50
0.0
 51
90.0
  0
LINE
  5
33A
  8
1外形線
 10
180.56885660910049
 20
715.615975580135
 30
0.0
 11
180.56885660910049
 21
719.615975580135
 31
0.0
  0
ARC
  5
33B
  8
1外形線
  6
HIDDEN
 10
219.13946795528949
 20
887.61597558013511
 30
0.0
 40
21.47620560996009
 50
270.0
 51
301.90810693565118
  0
LINE
  5
33C
  8
1外形線
 10
225.56885660910049
 20
849.615975580135
 30
0.0
 11
210.56885660910049
 21
849.615975580135
 31
0.0
  0
LINE
  5
33D
  8
1外形線
 10
210.56885660910049
 20
822.29185944106462
 30
0.0
 11
273.56885660910052
 21
822.2918594410645
 31
0.0
  0
LINE
  5
33E
  8
1外形線
 10
210.56885660910049
 20
830.24023148719027
 30
0.0
 11
273.56885660910052
 21
830.24023148719027
 31
0.0
  0
LINE
  5
33F
  8
1外形線
 10
210.56885660910049
 20
849.615975580135
 30
0.0
 11
210.56885660910049
 21
815.615975580135
 31
0.0
  0
LINE
  5
340
  8
1外形線
 10
180.56885660910049
 20
815.615975580135
 30
0.0
 11
180.56885660910049
 21
855.61597558013489
 31
0.0
  0
LINE
  5
341
  8
1外形線
 10
210.56885660910049
 20
866.13976997017494
 30
0.0
 11
219.13946795528949
 21
866.13976997017494
 31
0.0
  0
LINE
  5
342
  8
1外形線
 10
273.56885660910052
 20
815.615975580135
 30
0.0
 11
273.56885660910052
 21
855.61597558013511
 31
0.0
  0
ARC
  5
343
  8
1外形線
 10
226.36885660910039
 20
854.61597558013511
 30
0.0
 40
1.0
 50
90.0
 51
180.0
  0
ARC
  5
344
  8
1外形線
 10
226.56885660910049
 20
854.61597558013511
 30
0.0
 40
1.0
 50
90.0
 51
180.0
  0
LINE
  5
345
  8
1外形線
 10
225.36885660910039
 20
849.615975580135
 30
0.0
 11
225.36885660910039
 21
854.61597558013511
 31
0.0
  0
LINE
  5
346
  8
1外形線
 10
225.56885660910049
 20
854.61597558013511
 30
0.0
 11
225.56885660910049
 21
849.615975580135
 31
0.0
  0
ARC
  5
347
  8
1外形線
 10
150.56885660910049
 20
915.615975580135
 30
0.0
 40
30.0
 50
0.0
 51
90.0
  0
ARC
  5
348
  8
1外形線
 10
144.06885660910069
 20
893.615975580135
 30
0.0
 40
22.0
 50
0.0
 51
90.0
  0
LINE
  5
349
  8
1外形線
 10
144.06885660910069
 20
915.615975580135
 30
0.0
 11
107.06885660910049
 21
915.615975580135
 31
0.0
  0
LINE
  5
34A
  8
1外形線
 10
138.06885660910061
 20
880.61597558013489
 30
0.0
 11
113.06885660910049
 21
880.61597558013489
 31
0.0
  0
LINE
  5
34B
  8
1外形線
 10
138.06885660910061
 20
877.615975580135
 30
0.0
 11
113.06885660910049
 21
877.615975580135
 31
0.0
  0
LINE
  5
34C
  8
1外形線
 10
112.06885660910049
 20
882.615975580135
 30
0.0
 11
125.56885660910049
 21
882.615975580135
 31
0.0
  0
LINE
  5
34D
  8
1外形線
 10
100.56885660910049
 20
945.61597558013489
 30
0.0
 11
150.56885660910049
 21
945.61597558013489
 31
0.0
  0
ARC
  5
34E
  8
1外形線
 10
100.56885660910049
 20
915.615975580135
 30
0.0
 40
30.0
 50
90.0
 51
180.0
  0
ARC
  5
34F
  8
1外形線
 10
107.06885660910049
 20
893.615975580135
 30
0.0
 40
22.0
 50
90.0
 51
180.0
  0
LINE
  5
350
  8
1外形線
 10
102.5960080000865
 20
880.89966872869616
 30
0.0
 11
102.5960080000865
 21
915.15648683963855
 31
0.0
  0
LINE
  5
351
  8
1外形線
 10
93.483521925108207
 20
875.20131026412355
 30
0.0
 11
93.483521925108207
 21
910.92027220044929
 31
0.0
  0
LINE
  5
352
  8
1外形線
 10
139.06885660910061
 20
882.615975580135
 30
0.0
 11
125.56885660910049
 21
882.615975580135
 31
0.0
  0
LINE
  5
353
  8
1外形線
 10
148.54170521811449
 20
880.89966872869616
 30
0.0
 11
148.54170521811449
 21
915.15648683963855
 31
0.0
  0
LINE
  5
354
  8
1外形線
 10
157.65419129309279
 20
875.20131026412355
 30
0.0
 11
157.65419129309279
 21
910.92027220044929
 31
0.0
  0
TEXT
  5
355
  8
1外形線
 10
70.568856741435184
 20
975.61597701779533
 30
0.0
 40
10.0
  1
SP-77
  7
KANJI
  0
LINE
  5
356
  8
1外形線
 10
118.06885660910039
 20
1035.615975580135
 30
0.0
 11
70.568856609100521
 21
1035.615975580135
 31
0.0
  0
LINE
  5
357
  8
1外形線
 10
82.568856609100521
 20
1042.615975580135
 30
0.0
 11
106.06885660910049
 21
1042.615975580135
 31
0.0
  0
LINE
  5
358
  8
1外形線
 10
73.568856609100521
 20
1042.615975580135
 30
0.0
 11
82.568856609100521
 21
1042.615975580135
 31
0.0
  0
ARC
  5
359
  8
1外形線
 10
73.568856609100521
 20
1039.615975580135
 30
0.0
 40
3.0
 50
90.0
 51
180.0
  0
LINE
  5
35A
  8
1外形線
 10
70.568856609100521
 20
1035.615975580135
 30
0.0
 11
70.568856609100521
 21
1039.615975580135
 31
0.0
  0
ARC
  5
35B
  8
1外形線
 10
82.568856609100521
 20
1045.115975580135
 30
0.0
 40
2.5
 50
270.0
 51
0.0
  0
LINE
  5
35C
  8
1外形線
 10
118.06885660910039
 20
1035.615975580135
 30
0.0
 11
165.56885660910029
 21
1035.615975580135
 31
0.0
  0
LINE
  5
35D
  8
1外形線
 10
153.56885660910021
 20
1042.615975580135
 30
0.0
 11
130.06885660910029
 21
1042.615975580135
 31
0.0
  0
ARC
  5
35E
  8
1外形線
 10
118.06885660910039
 20
1065.615975580135
 30
0.0
 40
2.0
 50
270.0
 51
90.0
  0
ARC
  5
35F
  8
1外形線
 10
118.06885660910039
 20
1065.615975580135
 30
0.0
 40
2.0
 50
90.0
 51
270.0
  0
LINE
  5
360
  8
1外形線
 10
162.56885660910021
 20
1042.615975580135
 30
0.0
 11
153.56885660910021
 21
1042.615975580135
 31
0.0
  0
ARC
  5
361
  8
1外形線
 10
153.56885660910021
 20
1045.115975580135
 30
0.0
 40
2.5
 50
180.0
 51
270.0
  0
LINE
  5
362
  8
1外形線
 10
165.56885660910029
 20
1035.615975580135
 30
0.0
 11
165.56885660910029
 21
1039.615975580135
 31
0.0
  0
ARC
  5
363
  8
1外形線
 10
162.56885660910021
 20
1039.615975580135
 30
0.0
 40
3.0
 50
0.0
 51
90.0
  0
ARC
  5
364
  8
1外形線
 10
219.13946795528949
 20
887.61597558013511
 30
0.0
 40
5.0
 50
270.0
 51
301.90810693565118
  0
ARC
  5
365
  8
1外形線
  6
HIDDEN
 10
219.13946795528949
 20
887.61597558013511
 30
0.0
 40
6.5933128559396428
 50
270.0
 51
301.90810693565118
  0
ARC
  5
366
  8
1外形線
  6
HIDDEN
 10
219.13946795528949
 20
887.61597558013511
 30
0.0
 40
12.55456351736998
 50
270.0
 51
301.90810693565118
  0
LINE
  5
367
  8
1外形線
 10
210.56885660910049
 20
882.615975580135
 30
0.0
 11
219.13946795528949
 21
882.615975580135
 31
0.0
  0
LINE
  5
368
  8
1外形線
 10
210.56885660910041
 20
881.02266272419558
 30
0.0
 11
219.13946795528949
 21
881.02266272419558
 31
0.0
  0
LINE
  5
369
  8
1外形線
 10
210.56885660910049
 20
875.06141206276516
 30
0.0
 11
219.13946795528949
 21
875.06141206276516
 31
0.0
  0
LINE
  5
36A
  8
1外形線
 10
225.7752886229195
 20
876.95844541697204
 30
0.0
 11
273.56885660910052
 21
906.7167047291224
 31
0.0
  0
LINE
  5
36B
  8
1外形線
 10
221.78226021901469
 20
883.37149103536467
 30
0.0
 11
272.39025274096298
 21
914.88212788865326
 31
0.0
  0
LINE
  5
36C
  8
1外形線
 10
222.62441919688871
 20
882.01893267696073
 30
0.0
 11
273.56885660910052
 21
913.73905408456415
 31
0.0
  0
POINT
  5
36D
  8
1外形線
 10
273.25443322977247
 20
915.79059306652221
 30
0.0
  0
ARC
  5
36E
  8
1外形線
 10
271.06885660910052
 20
917.00437016103831
 30
0.0
 40
2.5
 50
301.90810693565118
 51
0.0
  0
ARC
  5
36F
  8
1外形線
 10
135.56885660910049
 20
1230.615975580135
 30
0.0
 40
30.0
 50
0.0
 51
90.0
  0
ARC
  5
370
  8
1外形線
 10
126.06885660910049
 20
1173.615975580135
 30
0.0
 40
22.0
 50
0.0
 51
90.0
  0
ARC
  5
371
  8
1外形線
 10
127.06885660910049
 20
1173.615975580135
 30
0.0
 40
24.0
 50
0.0
 51
90.0
  0
ARC
  5
372
  8
1外形線
 10
126.06885660910049
 20
1173.615975580135
 30
0.0
 40
19.0
 50
7.004726409076512
 51
90.0
  0
LINE
  5
373
  8
1外形線
 10
151.06885660910049
 20
1156.615975580135
 30
0.0
 11
151.06885660910049
 21
1208.615975580135
 31
0.0
  0
LINE
  5
374
  8
1外形線
 10
165.56885660910049
 20
1230.615975580135
 30
0.0
 11
165.56885660910049
 21
1170.615975580135
 31
0.0
  0
ARC
  5
375
  8
1外形線
 10
110.06885660910049
 20
1173.615975580135
 30
0.0
 40
19.0
 50
90.0
 51
172.9952735909234
  0
ARC
  5
376
  8
1外形線
 10
109.06885660910049
 20
1173.615975580135
 30
0.0
 40
24.0
 50
90.0
 51
180.0
  0
ARC
  5
377
  8
1外形線
 10
110.06885660910049
 20
1173.615975580135
 30
0.0
 40
22.0
 50
90.0
 51
180.0
  0
LINE
  5
378
  8
1外形線
 10
85.068856609100521
 20
1156.615975580135
 30
0.0
 11
85.068856609100521
 21
1208.615975580135
 31
0.0
  0
LINE
  5
379
  8
1外形線
 10
70.568856609100521
 20
1230.615975580135
 30
0.0
 11
70.568856609100521
 21
1170.615975580135
 31
0.0
  0
LINE
  5
37A
  8
1外形線
 10
118.06885660910049
 20
1139.1159755801341
 30
0.0
 11
115.56885660910049
 21
1139.1159755801341
 31
0.0
  0
LINE
  5
37B
  8
1外形線
 10
107.06885660910049
 20
1140.6159755801341
 30
0.0
 11
118.06885660910049
 21
1140.6159755801341
 31
0.0
  0
LINE
  5
37C
  8
1外形線
 10
118.06885660910049
 20
1137.6159755801341
 30
0.0
 11
107.06885660910049
 21
1137.6159755801341
 31
0.0
  0
LINE
  5
37D
  8
1外形線
 10
118.06885660910039
 20
1105.6159755801341
 30
0.0
 11
85.068856609100521
 21
1105.6159755801341
 31
0.0
  0
LINE
  5
37E
  8
1外形線
 10
70.568856609100521
 20
1135.615975580135
 30
0.0
 11
118.06885660910049
 21
1135.615975580135
 31
0.0
  0
LINE
  5
37F
  8
1外形線
 10
89.633260834937815
 20
1156.6159755801341
 30
0.0
 11
88.068856609100536
 21
1156.6159755801341
 31
0.0
  0
ARC
  5
380
  8
1外形線
 10
107.06885660910049
 20
1156.6159755801341
 30
0.0
 40
16.0
 50
184.91710033552911
 51
270.0
  0
ARC
  5
381
  8
1外形線
 10
106.06885660910049
 20
1156.615975580135
 30
0.0
 40
21.0
 50
180.0
 51
270.0
  0
ARC
  5
382
  8
1外形線
 10
107.06885660910049
 20
1156.6159755801341
 30
0.0
 40
19.0
 50
180.0
 51
270.0
  0
LINE
  5
383
  8
1外形線
 10
89.721866659724697
 20
1174.615975580135
 30
0.0
 11
88.091595633264646
 21
1174.615975580135
 31
0.0
  0
LINE
  5
384
  8
1外形線
 10
70.568856609100521
 20
1170.615975580135
 30
0.0
 11
70.568856609100521
 21
1135.615975580135
 31
0.0
  0
LINE
  5
385
  8
1外形線
 10
85.068856609100521
 20
1169.615975580135
 30
0.0
 11
70.568856609100521
 21
1169.615975580135
 31
0.0
  0
LINE
  5
386
  8
1外形線
 10
88.068856609100536
 20
1163.615975580135
 30
0.0
 11
85.068856609100521
 21
1163.615975580135
 31
0.0
  0
LINE
  5
387
  8
1外形線
 10
88.068856609100536
 20
1173.615975580135
 30
0.0
 11
88.068856609100536
 21
1156.6159755801341
 31
0.0
  0
LINE
  5
388
  8
1外形線
  6
CONTINUOUS
 10
115.56885660910049
 20
1137.6159755801341
 30
0.0
 11
115.56885660910049
 21
1139.1159755801341
 31
0.0
  0
ARC
  5
389
  8
1外形線
 10
89.633260834937815
 20
1155.115975580135
 30
0.0
 40
1.5
 50
4.9171003355291969
 51
90.0
  0
ARC
  5
38A
  8
1外形線
 10
89.721866659724697
 20
1176.115975580135
 30
0.0
 40
1.5
 50
270.0
 51
352.99527359092349
  0
LINE
  5
38B
  8
1外形線
 10
118.06885660910039
 20
1105.6159755801341
 30
0.0
 11
151.06885660910021
 21
1105.6159755801341
 31
0.0
  0
LINE
  5
38C
  8
1外形線
 10
165.56885660910049
 20
1135.615975580135
 30
0.0
 11
118.06885660910049
 21
1135.615975580135
 31
0.0
  0
ARC
  5
38D
  8
1外形線
 10
129.06885660910049
 20
1156.6159755801341
 30
0.0
 40
19.0
 50
270.0
 51
0.0
  0
ARC
  5
38E
  8
1外形線
 10
130.06885660910049
 20
1156.615975580135
 30
0.0
 40
21.0
 50
270.0
 51
0.0
  0
ARC
  5
38F
  8
1外形線
 10
129.06885660910049
 20
1156.6159755801341
 30
0.0
 40
16.0
 50
270.0
 51
355.0828996644708
  0
LINE
  5
390
  8
1外形線
 10
118.06885660910049
 20
1137.6159755801341
 30
0.0
 11
129.06885660910049
 21
1137.6159755801341
 31
0.0
  0
LINE
  5
391
  8
1外形線
 10
129.06885660910049
 20
1140.6159755801341
 30
0.0
 11
118.06885660910049
 21
1140.6159755801341
 31
0.0
  0
LINE
  5
392
  8
1外形線
 10
118.06885660910049
 20
1139.1159755801341
 30
0.0
 11
120.56885660910049
 21
1139.1159755801341
 31
0.0
  0
LINE
  5
393
  8
1外形線
  6
CONTINUOUS
 10
120.56885660910049
 20
1137.6159755801341
 30
0.0
 11
120.56885660910049
 21
1139.1159755801341
 31
0.0
  0
LINE
  5
394
  8
1外形線
 10
165.56885660910049
 20
1170.615975580135
 30
0.0
 11
165.56885660910049
 21
1135.615975580135
 31
0.0
  0
LINE
  5
395
  8
1外形線
 10
151.06885660910049
 20
1169.615975580135
 30
0.0
 11
165.56885660910049
 21
1169.615975580135
 31
0.0
  0
LINE
  5
396
  8
1外形線
 10
146.41584655847629
 20
1174.615975580135
 30
0.0
 11
148.0461175849363
 21
1174.615975580135
 31
0.0
  0
ARC
  5
397
  8
1外形線
 10
146.41584655847629
 20
1176.115975580135
 30
0.0
 40
1.5
 50
187.00472640907651
 51
270.0
  0
LINE
  5
398
  8
1外形線
 10
148.06885660910049
 20
1163.615975580135
 30
0.0
 11
151.06885660910049
 21
1163.615975580135
 31
0.0
  0
ARC
  5
399
  8
1外形線
 10
146.50445238326321
 20
1155.115975580135
 30
0.0
 40
1.5
 50
90.0
 51
175.0828996644708
  0
LINE
  5
39A
  8
1外形線
 10
146.50445238326321
 20
1156.6159755801341
 30
0.0
 11
148.06885660910049
 21
1156.6159755801341
 31
0.0
  0
LINE
  5
39B
  8
1外形線
 10
148.06885660910049
 20
1173.615975580135
 30
0.0
 11
148.06885660910049
 21
1156.6159755801341
 31
0.0
  0
LINE
  5
39C
  8
1外形線
 10
118.06885660910049
 20
1192.615975580135
 30
0.0
 11
110.06885660910061
 21
1192.615975580135
 31
0.0
  0
LINE
  5
39D
  8
1外形線
 10
109.06885660910049
 20
1197.6159755801341
 30
0.0
 11
118.06885660910049
 21
1197.6159755801341
 31
0.0
  0
LINE
  5
39E
  8
1外形線
 10
118.06885660910049
 20
1195.6159755801341
 30
0.0
 11
110.06885660910061
 21
1195.6159755801341
 31
0.0
  0
LINE
  5
39F
  8
1外形線
 10
100.56885660910049
 20
1260.615975580135
 30
0.0
 11
118.06885660910049
 21
1260.615975580135
 31
0.0
  0
LINE
  5
3A0
  8
1外形線
 10
118.06885660910049
 20
1230.615975580135
 30
0.0
 11
107.06885660910049
 21
1230.615975580135
 31
0.0
  0
LINE
  5
3A1
  8
1外形線
 10
100.7448151612693
 20
1196.1262028996159
 30
0.0
 11
100.7448151612693
 21
1229.6874373178989
 31
0.0
  0
ARC
  5
3A2
  8
1外形線
 10
107.06885660910049
 20
1208.615975580135
 30
0.0
 40
22.0
 50
90.0
 51
180.0
  0
LINE
  5
3A3
  8
1外形線
 10
87.045013347111293
 20
1183.1527637171989
 30
0.0
 11
87.045013347111293
 21
1217.728916983393
 31
0.0
  0
LINE
  5
3A4
  8
1外形線
 10
92.605661155413259
 20
1191.079171033819
 30
0.0
 11
92.605661155413259
 21
1225.1935501092489
 31
0.0
  0
ARC
  5
3A5
  8
1外形線
 10
100.56885660910049
 20
1230.615975580135
 30
0.0
 40
30.0
 50
90.0
 51
180.0
  0
ARC
  5
3A6
  8
1外形線
 10
129.06885660910049
 20
1208.615975580135
 30
0.0
 40
22.0
 50
0.0
 51
90.0
  0
LINE
  5
3A7
  8
1外形線
 10
135.39289805693181
 20
1196.1262028996159
 30
0.0
 11
135.39289805693181
 21
1229.6874373178989
 31
0.0
  0
LINE
  5
3A8
  8
1外形線
 10
127.06885660910049
 20
1197.6159755801341
 30
0.0
 11
118.06885660910049
 21
1197.6159755801341
 31
0.0
  0
LINE
  5
3A9
  8
1外形線
 10
118.06885660910049
 20
1195.6159755801341
 30
0.0
 11
126.06885660910039
 21
1195.6159755801341
 31
0.0
  0
LINE
  5
3AA
  8
1外形線
 10
118.06885660910049
 20
1192.615975580135
 30
0.0
 11
126.06885660910039
 21
1192.615975580135
 31
0.0
  0
LINE
  5
3AB
  8
1外形線
 10
143.5320520627877
 20
1191.079171033819
 30
0.0
 11
143.5320520627877
 21
1225.1935501092489
 31
0.0
  0
LINE
  5
3AC
  8
1外形線
 10
149.09269987108971
 20
1183.1527637171989
 30
0.0
 11
149.09269987108971
 21
1217.728916983393
 31
0.0
  0
LINE
  5
3AD
  8
1外形線
 10
118.06885660910049
 20
1230.615975580135
 30
0.0
 11
129.06885660910049
 21
1230.615975580135
 31
0.0
  0
LINE
  5
3AE
  8
1外形線
 10
135.56885660910049
 20
1260.615975580135
 30
0.0
 11
118.06885660910049
 21
1260.615975580135
 31
0.0
  0
LINE
  5
3AF
  8
1外形線
 10
265.56885660910052
 20
1135.615975580135
 30
0.0
 11
265.56885660910052
 21
1260.615975580135
 31
0.0
  0
LINE
  5
3B0
  8
1外形線
 10
195.56885660910049
 20
1169.615975580135
 30
0.0
 11
195.56885660910049
 21
1197.6159755801341
 31
0.0
  0
LINE
  5
3B1
  8
1外形線
 10
258.56885660910041
 20
1257.615975580135
 30
0.0
 11
258.56885660910052
 21
1175.615975580135
 31
0.0
  0
LINE
  5
3B2
  8
1外形線
 10
265.56885660910052
 20
1175.615975580135
 30
0.0
 11
211.56885660910049
 21
1175.615975580135
 31
0.0
  0
LINE
  5
3B3
  8
1外形線
 10
195.56885660910049
 20
1142.2918594410639
 30
0.0
 11
258.56885660910052
 21
1142.2918594410639
 31
0.0
  0
LINE
  5
3B4
  8
1外形線
 10
195.56885660910049
 20
1135.615975580135
 30
0.0
 11
265.56885660910052
 21
1135.615975580135
 31
0.0
  0
LINE
  5
3B5
  8
1外形線
 10
195.56885660910049
 20
1150.2402314871899
 30
0.0
 11
258.56885660910052
 21
1150.2402314871899
 31
0.0
  0
LINE
  5
3B6
  8
1外形線
 10
195.56885660910049
 20
1169.6159755801341
 30
0.0
 11
195.56885660910049
 21
1135.615975580135
 31
0.0
  0
LINE
  5
3B7
  8
1外形線
 10
210.56885660910049
 20
1169.6159755801341
 30
0.0
 11
195.56885660910049
 21
1169.6159755801341
 31
0.0
  0
LINE
  5
3B8
  8
1外形線
 10
210.36885660910039
 20
1169.615975580135
 30
0.0
 11
210.36885660910039
 21
1174.615975580135
 31
0.0
  0
LINE
  5
3B9
  8
1外形線
 10
210.56885660910049
 20
1174.615975580135
 30
0.0
 11
210.56885660910049
 21
1169.6159755801341
 31
0.0
  0
ARC
  5
3BA
  8
1外形線
 10
211.36885660910039
 20
1174.615975580135
 30
0.0
 40
1.0
 50
90.0
 51
180.0
  0
ARC
  5
3BB
  8
1外形線
 10
211.56885660910049
 20
1174.615975580135
 30
0.0
 40
1.0
 50
90.0
 51
180.0
  0
LINE
  5
3BC
  8
1外形線
 10
258.56885660910052
 20
1135.615975580135
 30
0.0
 11
258.56885660910052
 21
1175.615975580135
 31
0.0
  0
LINE
  5
3BD
  8
1外形線
 10
214.4269131030087
 20
1186.0937151913729
 30
0.0
 11
258.56885660910052
 21
1213.578321525355
 31
0.0
  0
LINE
  5
3BE
  8
1外形線
 10
210.23734351591179
 20
1192.822417861559
 30
0.0
 11
258.56885660910052
 21
1222.9156241271301
 31
0.0
  0
LINE
  5
3BF
  8
1外形線
 10
206.78226021901469
 20
1198.371491035364
 30
0.0
 11
257.39025274096292
 21
1229.882127888653
 31
0.0
  0
LINE
  5
3C0
  8
1外形線
 10
207.62441919688871
 20
1197.01893267696
 30
0.0
 11
258.56885660910052
 21
1228.739054084564
 31
0.0
  0
ARC
  5
3C1
  8
1外形線
  6
HIDDEN
 10
204.13946795528949
 20
1202.615975580135
 30
0.0
 40
19.463211862931409
 50
270.0
 51
301.90810693565118
  0
ARC
  5
3C2
  8
1外形線
  6
HIDDEN
 10
204.13946795528949
 20
1202.615975580135
 30
0.0
 40
11.536804546315921
 50
270.0
 51
301.90810693565118
  0
LINE
  5
3C3
  8
1外形線
 10
204.13946795528949
 20
1183.152763717203
 30
0.0
 11
195.56885660910049
 21
1183.152763717203
 31
0.0
  0
LINE
  5
3C4
  8
1外形線
 10
204.13946795528949
 20
1191.079171033819
 30
0.0
 11
195.56885660910049
 21
1191.079171033819
 31
0.0
  0
LINE
  5
3C5
  8
1外形線
 10
195.56885660910049
 20
1197.6159755801341
 30
0.0
 11
204.13946795528949
 21
1197.6159755801341
 31
0.0
  0
LINE
  5
3C6
  8
1外形線
 10
195.56885660910041
 20
1196.022662724195
 30
0.0
 11
204.13946795528949
 21
1196.022662724195
 31
0.0
  0
ARC
  5
3C7
  8
1外形線
 10
204.13946795528949
 20
1202.615975580135
 30
0.0
 40
5.0
 50
270.0
 51
301.90810693565118
  0
ARC
  5
3C8
  8
1外形線
  6
HIDDEN
 10
204.13946795528949
 20
1202.615975580135
 30
0.0
 40
6.5933128559396428
 50
270.0
 51
301.90810693565118
  0
POINT
  5
3C9
  8
1外形線
 10
258.25443322977247
 20
1230.790593066522
 30
0.0
  0
ARC
  5
3CA
  8
1外形線
 10
256.06885660910052
 20
1232.004370161038
 30
0.0
 40
2.5
 50
301.90810693565118
 51
0.0
  0
ARC
  5
3CB
  8
1外形線
 10
261.56885660910041
 20
1257.615975580135
 30
0.0
 40
3.0
 50
90.0
 51
180.0
  0
LINE
  5
3CC
  8
1外形線
 10
265.56885660910052
 20
1260.615975580135
 30
0.0
 11
261.56885660910041
 21
1260.615975580135
 31
0.0
  0
TEXT
  5
3CD
  8
1外形線
 10
70.568856741435184
 20
1290.6159770177951
 30
0.0
 40
10.0
  1
SP-66
  7
KANJI
  0
LINE
  5
3CE
  8
1外形線
 10
280.56885660910052
 20
815.615975580135
 30
0.0
 11
280.56885660910052
 21
945.61597558013511
 31
0.0
  0
LINE
  5
3CF
  8
1外形線
 10
280.56885660910052
 20
945.61597558013511
 30
0.0
 11
276.56885660910041
 21
945.61597558013511
 31
0.0
  0
ENDSEC
  0
EOF
