  0
SECTION
  2
HEADER
  9
$ACADVER
  1
AC1009
  9
$INSBASE
 10
0.0
 20
0.0
 30
0.0
  9
$EXTMIN
 10
19.51404360633785
 20
20.210059643261609
 30
0.0
  9
$EXTMAX
 10
640.84706393344675
 20
1011.210059643261
 30
0.0
  9
$LIMMIN
 10
0.0
 20
0.0
  9
$LIMMAX
 10
420.0
 20
297.0
  9
$ORTHOMODE
 70
     0
  9
$REGENMODE
 70
     1
  9
$FILLMODE
 70
     1
  9
$QTEXTMODE
 70
     0
  9
$MIRRTEXT
 70
     1
  9
$DRAGMODE
 70
     2
  9
$LTSCALE
 40
1.0
  9
$OSMODE
 70
    37
  9
$ATTMODE
 70
     1
  9
$TEXTSIZE
 40
2.5
  9
$TRACEWID
 40
1.0
  9
$TEXTSTYLE
  7
STANDARD
  9
$CLAYER
  8
0
  9
$CELTYPE
  6
BYLAYER
  9
$CECOLOR
 62
   256
  9
$DIMSCALE
 40
1.0
  9
$DIMASZ
 40
2.5
  9
$DIMEXO
 40
0.625
  9
$DIMDLI
 40
3.75
  9
$DIMRND
 40
0.0
  9
$DIMDLE
 40
0.0
  9
$DIMEXE
 40
1.25
  9
$DIMTP
 40
0.0
  9
$DIMTM
 40
0.0
  9
$DIMTXT
 40
2.5
  9
$DIMCEN
 40
2.5
  9
$DIMTSZ
 40
0.0
  9
$DIMTOL
 70
     0
  9
$DIMLIM
 70
     0
  9
$DIMTIH
 70
     0
  9
$DIMTOH
 70
     0
  9
$DIMSE1
 70
     0
  9
$DIMSE2
 70
     0
  9
$DIMTAD
 70
     1
  9
$DIMZIN
 70
     8
  9
$DIMBLK
  1

  9
$DIMASO
 70
     1
  9
$DIMSHO
 70
     1
  9
$DIMPOST
  1

  9
$DIMAPOST
  1

  9
$DIMALT
 70
     0
  9
$DIMALTD
 70
     3
  9
$DIMALTF
 40
0.03937007874016
  9
$DIMLFAC
 40
1.0
  9
$DIMTOFL
 70
     1
  9
$DIMTVP
 40
0.0
  9
$DIMTIX
 70
     0
  9
$DIMSOXD
 70
     0
  9
$DIMSAH
 70
     0
  9
$DIMBLK1
  1

  9
$DIMBLK2
  1

  9
$DIMSTYLE
  2
ISO-25
  9
$DIMCLRD
 70
     0
  9
$DIMCLRE
 70
     0
  9
$DIMCLRT
 70
     0
  9
$DIMTFAC
 40
1.0
  9
$DIMGAP
 40
0.625
  9
$LUNITS
 70
     2
  9
$LUPREC
 70
     4
  9
$SKETCHINC
 40
1.0
  9
$FILLETRAD
 40
10.0
  9
$AUNITS
 70
     0
  9
$AUPREC
 70
     0
  9
$MENU
  1
.
  9
$ELEVATION
 40
0.0
  9
$PELEVATION
 40
0.0
  9
$THICKNESS
 40
0.0
  9
$LIMCHECK
 70
     0
  9
$BLIPMODE
 70
     0
  9
$CHAMFERA
 40
10.0
  9
$CHAMFERB
 40
10.0
  9
$SKPOLY
 70
     0
  9
$TDCREATE
 40
2452216.4749077312
  9
$TDUPDATE
 40
2452216.476153159
  9
$TDINDWG
 40
0.0012460069
  9
$TDUSRTIMER
 40
0.0012458912
  9
$USRTIMER
 70
     1
  9
$ANGBASE
 50
0.0
  9
$ANGDIR
 70
     0
  9
$PDMODE
 70
     0
  9
$PDSIZE
 40
0.0
  9
$PLINEWID
 40
0.0
  9
$COORDS
 70
     1
  9
$SPLFRAME
 70
     0
  9
$SPLINETYPE
 70
     6
  9
$SPLINESEGS
 70
     8
  9
$ATTDIA
 70
     0
  9
$ATTREQ
 70
     1
  9
$HANDLING
 70
-16383
  9
$HANDSEED
  5
6BE
  9
$SURFTAB1
 70
     6
  9
$SURFTAB2
 70
     6
  9
$SURFTYPE
 70
     6
  9
$SURFU
 70
     6
  9
$SURFV
 70
     6
  9
$UCSNAME
  2

  9
$UCSORG
 10
0.0
 20
0.0
 30
0.0
  9
$UCSXDIR
 10
1.0
 20
0.0
 30
0.0
  9
$UCSYDIR
 10
0.0
 20
1.0
 30
0.0
  9
$PUCSNAME
  2

  9
$PUCSORG
 10
0.0
 20
0.0
 30
0.0
  9
$PUCSXDIR
 10
1.0
 20
0.0
 30
0.0
  9
$PUCSYDIR
 10
0.0
 20
1.0
 30
0.0
  9
$USERI1
 70
     0
  9
$USERI2
 70
     0
  9
$USERI3
 70
     0
  9
$USERI4
 70
     0
  9
$USERI5
 70
     0
  9
$USERR1
 40
0.0
  9
$USERR2
 40
0.0
  9
$USERR3
 40
0.0
  9
$USERR4
 40
0.0
  9
$USERR5
 40
0.0
  9
$WORLDVIEW
 70
     1
  9
$SHADEDGE
 70
     3
  9
$SHADEDIF
 70
    70
  9
$TILEMODE
 70
     1
  9
$MAXACTVP
 70
    64
  9
$PLIMCHECK
 70
     0
  9
$PEXTMIN
 10
1.0000000000000000E+020
 20
1.0000000000000000E+020
 30
1.0000000000000000E+020
  9
$PEXTMAX
 10
-1.0000000000000000E+020
 20
-1.0000000000000000E+020
 30
-1.0000000000000000E+020
  9
$PLIMMIN
 10
0.0
 20
0.0
  9
$PLIMMAX
 10
420.0
 20
297.0
  9
$UNITMODE
 70
     0
  9
$VISRETAIN
 70
     1
  9
$PLINEGEN
 70
     0
  9
$PSLTSCALE
 70
     1
  0
ENDSEC
  0
SECTION
  2
TABLES
  0
TABLE
  2
VPORT
 70
     3
  0
VPORT
  2
*ACTIVE
 70
     0
 10
0.0
 20
0.0
 11
1.0
 21
1.0
 12
260.9306861234349
 22
177.70734556550849
 13
0.0
 23
0.0
 14
10.0
 24
10.0
 15
10.0
 25
10.0
 16
0.0
 26
0.0
 36
1.0
 17
0.0
 27
0.0
 37
0.0
 40
296.99999986169962
 41
1.430094786729857
 42
50.0
 43
0.0
 44
0.0
 50
0.0
 51
0.0
 71
     0
 72
   100
 73
     1
 74
     3
 75
     0
 76
     0
 77
     0
 78
     0
  0
ENDTAB
  0
TABLE
  2
LTYPE
 70
     1
  0
LTYPE
  2
CONTINUOUS
 70
     0
  3
Solid line
 72
    65
 73
     0
 40
0.0
  0
ENDTAB
  0
TABLE
  2
LAYER
 70
     2
  0
LAYER
  2
0
 70
     0
 62
     7
  6
CONTINUOUS
  0
LAYER
  2
1外形線
 70
     0
 62
     3
  6
CONTINUOUS
  0
ENDTAB
  0
TABLE
  2
STYLE
 70
     2
  0
STYLE
  2
STANDARD
 70
     0
 40
0.0
 41
1.0
 50
0.0
 71
     0
 42
2.5
  3
txt
  4

  0
STYLE
  2
KANJI
 70
     0
 40
0.0
 41
1.0
 50
0.0
 71
     0
 42
2.5
  3
simplex.shx
  4
extfont.shx
  0
ENDTAB
  0
TABLE
  2
VIEW
 70
     0
  0
ENDTAB
  0
TABLE
  2
UCS
 70
     0
  0
ENDTAB
  0
TABLE
  2
APPID
 70
     1
  0
APPID
  2
ACAD
 70
     0
  0
ENDTAB
  0
TABLE
  2
DIMSTYLE
 70
     2
  0
DIMSTYLE
  2
ISO-25
 70
     0
  3

  4

  5

  6

  7

 40
1.0
 41
2.5
 42
0.625
 43
3.75
 44
1.25
 45
0.0
 46
0.0
 47
0.0
 48
0.0
140
2.5
141
2.5
142
0.0
143
0.03937007874016
144
1.0
145
0.0
146
1.0
147
0.625
 71
     0
 72
     0
 73
     0
 74
     0
 75
     0
 76
     0
 77
     1
 78
     8
170
     0
171
     3
172
     1
173
     0
174
     0
175
     0
176
     0
177
     0
178
     0
  0
DIMSTYLE
  2
STANDARD
 70
     0
  3

  4

  5

  6

  7

 40
1.0
 41
0.18
 42
0.0625
 43
0.38
 44
0.18
 45
0.0
 46
0.0
 47
0.0
 48
0.0
140
0.18
141
0.09
142
0.0
143
25.399999999999999
144
1.0
145
0.0
146
1.0
147
0.09
 71
     0
 72
     0
 73
     1
 74
     1
 75
     0
 76
     0
 77
     0
 78
     0
170
     0
171
     2
172
     0
173
     0
174
     0
175
     0
176
     0
177
     0
178
     0
  0
ENDTAB
  0
ENDSEC
  0
SECTION
  2
BLOCKS
  0
BLOCK
  8
0
  2
$MODEL_SPACE
 70
     0
 10
0.0
 20
0.0
 30
0.0
  3
$MODEL_SPACE
  1

  0
ENDBLK
  5
21
  8
0
  0
BLOCK
 67
     1
  8
0
  2
$PAPER_SPACE
 70
     0
 10
0.0
 20
0.0
 30
0.0
  3
$PAPER_SPACE
  1

  0
ENDBLK
  5
1D
 67
     1
  8
0
  0
BLOCK
  8
0
  2
2
 70
     0
 10
0.0
 20
0.0
 30
0.0
  3
2
  1

  0
INSERT
  5
2C
  8
0
  6
CONTINUOUS
  2
*U3
 10
0.0
 20
0.0
 30
0.0
1001
ACAD
1002
{
1000
R14_HATCH_DATA
1000
2C
1011
1.0
1021
0.0
1031
-2.3714219875802803E+081
1021
0.0
1031
0.0
1011
0.0
1021
0.0
1031
-2.3714219875802803E+081
1021
1.0
1031
0.0
1011
0.0
1021
0.0
1031
-2.3714219875802803E+081
1021
0.0
1031
1.0
1040
0.0
1010
0.0
1020
0.0
1030
1.0
1000
SOLID
1070
     1
1070
     1
1071
        1
1071
        7
1070
     0
1070
     1
1071
        3
1040
0.0000000000000284
1040
0.0
1040
-0.899999999998343
1040
0.2411542731875897
1040
-0.8999999999983572
1040
-0.2411542731875613
1071
        3
1005
2F
1005
2D
1005
30
1070
     0
1070
     1
1040
0.0028941747346077
1071
        1
1040
-0.5303136156475148
1040
-0.0796654556697263
1040
0.0
1002
}
  0
LINE
  5
2D
  8
0
 10
-0.8999999999983572
 20
0.2411542731879876
 30
0.0
 11
-0.8999999999983572
 21
-0.2411542731880445
 31
0.0
  0
LINE
  5
2E
  8
0
 10
-0.9999999999983515
 20
0.0
 30
0.0
 11
0.0
 21
0.0
 31
0.0
  0
LINE
  5
2F
  8
0
 10
-0.8999999999984424
 20
0.2411542731875897
 30
0.0
 11
0.0
 21
0.0
 31
0.0
  0
LINE
  5
30
  8
0
 10
-0.8999999999984424
 20
-0.2411542731875897
 30
0.0
 11
0.0
 21
0.0
 31
0.0
  0
ENDBLK
  5
32
  8
0
  0
BLOCK
  8
0
  2
*U3
 70
     1
 10
0.0
 20
0.0
 30
0.0
  3
*U3
  1

  0
SOLID
  5
6B9
  8
0
  6
CONTINUOUS
 10
-0.5999999999988905
 20
0.0000000000000095
 30
0.0
 11
0.0000000000000284
 21
0.0
 31
0.0
 12
-0.899999999998343
 22
0.2411542731875897
 32
0.0
 13
-0.899999999998343
 23
0.2411542731875897
 33
0.0
210
0.0
220
0.0
230
1.0
  0
SOLID
  5
6BA
  8
0
  6
CONTINUOUS
 10
-0.5999999999988905
 20
0.0000000000000095
 30
0.0
 11
-0.899999999998343
 21
0.2411542731875897
 31
0.0
 12
-0.8999999999983572
 22
-0.2411542731875613
 32
0.0
 13
-0.8999999999983572
 23
-0.2411542731875613
 33
0.0
  0
SOLID
  5
6BB
  8
0
  6
CONTINUOUS
 10
-0.5999999999988905
 20
0.0000000000000095
 30
0.0
 11
-0.8999999999983572
 21
-0.2411542731875613
 31
0.0
 12
0.0000000000000284
 22
0.0
 32
0.0
 13
0.0000000000000284
 23
0.0
 33
0.0
210
0.0
220
0.0
230
1.0
  0
ENDBLK
  5
6BD
  8
0
  0
ENDSEC
  0
SECTION
  2
ENTITIES
  0
LINE
  5
376
  8
1外形線
 10
640.84706393344675
 20
1011.210059643261
 30
0.0
 11
640.84706393344675
 21
20.210059643261609
 31
0.0
  0
LINE
  5
377
  8
1外形線
 10
19.51404360633785
 20
1011.210059643261
 30
0.0
 11
19.51404360633785
 21
20.210059643261609
 31
0.0
  0
ARC
  5
378
  8
1外形線
 10
410.06799056382857
 20
475.21005964326162
 30
0.0
 40
57.0
 50
134.00342734890029
 51
138.97174563007911
  0
LINE
  5
379
  8
1外形線
 10
421.06799056382852
 20
507.10903912882799
 30
0.0
 11
421.06799056382852
 21
516.21005964326173
 31
0.0
  0
LINE
  5
37A
  8
1外形線
 10
423.06799056382857
 20
505.03848676800777
 30
0.0
 11
423.06799056382857
 21
534.21005964326162
 31
0.0
  0
ARC
  5
37B
  8
1外形線
 10
410.06799056382857
 20
475.21005964326162
 30
0.0
 40
59.0
 50
90.0
 51
180.0
  0
LINE
  5
37C
  8
1外形線
 10
141.51404360633779
 20
505.03848676800789
 30
0.0
 11
141.51404360633779
 21
534.21005964326173
 31
0.0
  0
ARC
  5
37D
  8
1外形線
 10
154.51404360633771
 20
475.21005964326167
 30
0.0
 40
59.0
 50
0.0
 51
90.0
  0
ARC
  5
37E
  8
1外形線
 10
436.06799056382857
 20
475.21005964326162
 30
0.0
 40
57.0
 50
41.02825436992088
 51
45.996572651099669
  0
ARC
  5
37F
  8
1外形線
 10
436.06799056382857
 20
475.21005964326162
 30
0.0
 40
59.0
 50
0.0
 51
90.0
  0
LINE
  5
380
  8
1外形線
 10
282.34453721690539
 20
534.21005964326173
 30
0.0
 11
282.34453721690539
 21
447.21005964326162
 31
0.0
  0
LINE
  5
381
  8
1外形線
 10
423.06799056382857
 20
505.03848676800789
 30
0.0
 11
423.06799056382857
 21
534.21005964326162
 31
0.0
  0
LINE
  5
382
  8
1外形線
 10
425.06799056382857
 20
502.21005964326167
 30
0.0
 11
425.06799056382857
 21
516.21005964326173
 31
0.0
  0
ARC
  5
383
  8
1外形線
 10
128.51404360633779
 20
475.21005964326167
 30
0.0
 40
59.0
 50
90.0
 51
180.0
  0
LINE
  5
384
  8
1外形線
 10
141.51404360633779
 20
505.03848676800789
 30
0.0
 11
141.51404360633779
 21
534.21005964326173
 31
0.0
  0
LINE
  5
385
  8
1外形線
 10
276.34453721690539
 20
447.21005964326167
 30
0.0
 11
276.34453721690539
 21
530.71005964326173
 31
0.0
  0
LINE
  5
386
  8
1外形線
 10
640.84706393344675
 20
330.21005964326162
 30
0.0
 11
19.51404360633785
 21
330.21005964326162
 31
0.0
  0
ARC
  5
387
  8
1外形線
 10
410.06799056382857
 20
419.21005964326162
 30
0.0
 40
57.0
 50
228.97174563007911
 51
270.0
  0
LINE
  5
388
  8
1外形線
 10
422.56799056382857
 20
377.21005964326162
 30
0.0
 11
369.3463746823341
 21
377.21005964326162
 31
0.0
  0
LINE
  5
389
  8
1外形線
 10
422.56799056382857
 20
376.21005964326162
 30
0.0
 11
370.40377495328141
 21
376.21005964326162
 31
0.0
  0
LINE
  5
38A
  8
1外形線
 10
421.06799056382852
 20
378.21005964326162
 30
0.0
 11
370.47001081738199
 21
378.21005964326162
 31
0.0
  0
ARC
  5
38B
  8
1外形線
 10
423.06799056382857
 20
447.21005964326167
 30
0.0
 40
50.0
 50
130.8022321553149
 51
229.1977678446851
  0
ARC
  5
38C
  8
1外形線
 10
423.06799056382857
 20
447.21005964326167
 30
0.0
 40
51.0
 50
127.75078046127631
 51
232.24921953872351
  0
ARC
  5
38D
  8
1外形線
 10
423.06799056382857
 20
447.21005964326167
 30
0.0
 40
52.0
 50
127.9258819726652
 51
232.07411802733469
  0
ARC
  5
38E
  8
1外形線
 10
410.06799056382857
 20
419.21005964326162
 30
0.0
 40
59.0
 50
180.0
 51
270.0
  0
CIRCLE
  5
38F
  8
1外形線
 10
378.06799056382857
 20
387.21005964326162
 30
0.0
 40
2.0
  0
CIRCLE
  5
390
  8
1外形線
 10
378.06799056382857
 20
507.21005964326167
 30
0.0
 40
2.0
  0
LINE
  5
391
  8
1外形線
 10
338.93169403663637
 20
232.2100596432617
 30
0.0
 11
338.93169403663637
 21
160.21005964326179
 31
0.0
  0
ARC
  5
392
  8
1外形線
 10
174.51404360633779
 20
205.2100596432617
 30
0.0
 40
29.0
 50
0.0
 51
90.0
  0
ARC
  5
393
  8
1外形線
 10
174.51404360633779
 20
205.2100596432617
 30
0.0
 40
25.0
 50
0.0
 51
90.0
  0
ARC
  5
394
  8
1外形線
 10
184.51404360633779
 20
205.2100596432617
 30
0.0
 40
65.0
 50
0.0
 51
90.0
  0
LINE
  5
395
  8
1外形線
 10
311.93169403663637
 20
160.2100596432617
 30
0.0
 11
311.93169403663637
 21
266.71005964326167
 31
0.0
  0
LINE
  5
396
  8
1外形線
 10
341.93169403663649
 20
231.2100596432617
 30
0.0
 11
341.93169403663649
 21
160.2100596432617
 31
0.0
  0
LINE
  5
397
  8
1外形線
 10
301.93169403663649
 20
229.75064793510609
 30
0.0
 11
301.93169403663649
 21
160.2100596432617
 31
0.0
  0
LINE
  5
398
  8
1外形線
 10
317.93169403663637
 20
270.21005964326167
 30
0.0
 11
317.93169403663637
 21
160.21005964326179
 31
0.0
  0
ARC
  5
399
  8
1外形線
 10
144.51404360633779
 20
205.2100596432617
 30
0.0
 40
25.0
 50
90.0
 51
180.0
  0
ARC
  5
39A
  8
1外形線
 10
144.51404360633779
 20
205.2100596432617
 30
0.0
 40
29.0
 50
90.0
 51
180.0
  0
ARC
  5
39B
  8
1外形線
 10
134.51404360633779
 20
205.2100596432617
 30
0.0
 40
65.0
 50
90.0
 51
180.0
  0
LINE
  5
39C
  8
1外形線
 10
69.51404360633785
 20
115.2100596432616
 30
0.0
 11
69.51404360633785
 21
205.2100596432617
 31
0.0
  0
LINE
  5
39D
  8
1外形線
 10
119.51404360633779
 20
115.2100596432616
 30
0.0
 11
119.51404360633779
 21
205.2100596432617
 31
0.0
  0
LINE
  5
39E
  8
1外形線
 10
115.51404360633779
 20
115.2100596432616
 30
0.0
 11
115.51404360633779
 21
205.2100596432617
 31
0.0
  0
LINE
  5
39F
  8
1外形線
 10
203.51404360633779
 20
205.2100596432617
 30
0.0
 11
203.51404360633779
 21
115.2100596432616
 31
0.0
  0
LINE
  5
3A0
  8
1外形線
 10
199.51404360633779
 20
205.2100596432617
 30
0.0
 11
199.51404360633779
 21
115.2100596432616
 31
0.0
  0
LINE
  5
3A1
  8
1外形線
 10
249.51404360633779
 20
205.2100596432617
 30
0.0
 11
249.51404360633779
 21
115.2100596432616
 31
0.0
  0
LINE
  5
3A2
  8
1外形線
 10
159.51404360633779
 20
230.2100596432617
 30
0.0
 11
174.51404360633779
 21
230.2100596432617
 31
0.0
  0
ARC
  5
3A3
  8
1外形線
 10
160.51404360633779
 20
235.2100596432617
 30
0.0
 40
3.0
 50
0.0
 51
90.0
  0
ARC
  5
3A4
  8
1外形線
 10
162.51404360633779
 20
235.2100596432617
 30
0.0
 40
1.0
 50
180.0
 51
0.0
  0
LINE
  5
3A5
  8
1外形線
 10
159.51404360633779
 20
234.2100596432617
 30
0.0
 11
174.51404360633779
 21
234.2100596432617
 31
0.0
  0
LINE
  5
3A6
  8
1外形線
 10
159.51404360633779
 20
270.21005964326167
 30
0.0
 11
184.51404360633779
 21
270.21005964326167
 31
0.0
  0
ARC
  5
3A7
  8
1外形線
 10
162.51404360633779
 20
235.2100596432617
 30
0.0
 40
1.0
 50
180.0
 51
0.0
  0
ARC
  5
3A8
  8
1外形線
 10
160.51404360633779
 20
235.2100596432617
 30
0.0
 40
3.0
 50
0.0
 51
109.4712206344919
  0
ARC
  5
3A9
  8
1外形線
 10
154.51404360633771
 20
419.21005964326167
 30
0.0
 40
22.0
 50
270.0
 51
0.0
  0
ARC
  5
3AA
  8
1外形線
 10
154.51404360633771
 20
419.21005964326167
 30
0.0
 40
26.0
 50
270.0
 51
0.0
  0
ARC
  5
3AB
  8
1外形線
 10
154.51404360633771
 20
419.21005964326167
 30
0.0
 40
59.0
 50
270.0
 51
0.0
  0
ARC
  5
3AC
  8
1外形線
 10
154.51404360633771
 20
475.21005964326167
 30
0.0
 40
22.0
 50
0.0
 51
90.0
  0
ARC
  5
3AD
  8
1外形線
 10
154.51404360633771
 20
475.21005964326167
 30
0.0
 40
26.0
 50
0.0
 51
90.0
  0
LINE
  5
3AE
  8
1外形線
 10
141.51404360633771
 20
389.3816325185154
 30
0.0
 11
141.51404360633771
 21
360.21005964326162
 31
0.0
  0
LINE
  5
3AF
  8
1外形線
 10
141.51404360633779
 20
389.38163251851552
 30
0.0
 11
141.51404360633779
 21
360.21005964326162
 31
0.0
  0
ARC
  5
3B0
  8
1外形線
 10
128.51404360633779
 20
419.21005964326167
 30
0.0
 40
59.0
 50
180.0
 51
270.0
  0
LINE
  5
3B1
  8
1外形線
 10
159.51404360633779
 20
239.2100596432617
 30
0.0
 11
159.51404360633779
 21
270.21005964326167
 31
0.0
  0
LINE
  5
3B2
  8
1外形線
 10
159.51404360633779
 20
270.21005964326167
 30
0.0
 11
159.51404360633779
 21
238.03848676800791
 31
0.0
  0
LINE
  5
3B3
  8
1外形線
 10
144.51404360633779
 20
230.2100596432617
 30
0.0
 11
159.51404360633779
 21
230.2100596432617
 31
0.0
  0
LINE
  5
3B4
  8
1外形線
 10
144.51404360633779
 20
234.2100596432617
 30
0.0
 11
159.51404360633779
 21
234.2100596432617
 31
0.0
  0
ARC
  5
3B5
  8
1外形線
 10
160.51404360633779
 20
239.2100596432617
 30
0.0
 40
1.0
 50
180.0
 51
270.0
  0
ARC
  5
3B6
  8
1外形線
 10
160.51404360633779
 20
235.2100596432617
 30
0.0
 40
1.0
 50
0.0
 51
180.0
  0
LINE
  5
3B7
  8
1外形線
 10
159.51404360633779
 20
230.2100596432617
 30
0.0
 11
159.51404360633779
 21
235.2100596432617
 31
0.0
  0
ARC
  5
3B8
  8
1外形線
 10
160.51404360633779
 20
235.2100596432617
 30
0.0
 40
1.0
 50
0.0
 51
180.0
  0
LINE
  5
3B9
  8
1外形線
 10
159.51404360633779
 20
230.2100596432617
 30
0.0
 11
159.51404360633779
 21
235.2100596432617
 31
0.0
  0
LINE
  5
3BA
  8
1外形線
 10
134.51404360633779
 20
270.21005964326167
 30
0.0
 11
159.51404360633779
 21
270.21005964326167
 31
0.0
  0
TEXT
  5
3BB
  8
1外形線
 10
69.514043738672513
 20
300.210061080922
 30
0.0
 40
10.0
  1
SWC-140
  7
KANJI
  0
LINE
  5
3BC
  8
1外形線
 10
128.51404360633779
 20
360.21005964326162
 30
0.0
 11
141.51404360633779
 21
360.21005964326162
 31
0.0
  0
LINE
  5
3BD
  8
1外形線
 10
141.51404360633771
 20
360.21005964326162
 30
0.0
 11
154.51404360633771
 21
360.21005964326162
 31
0.0
  0
LINE
  5
3BE
  8
1外形線
 10
69.51404360633785
 20
419.21005964326167
 30
0.0
 11
69.51404360633785
 21
475.21005964326167
 31
0.0
  0
LINE
  5
3BF
  8
1外形線
 10
102.51404360633779
 20
475.21005964326167
 30
0.0
 11
102.51404360633779
 21
419.21005964326167
 31
0.0
  0
LINE
  5
3C0
  8
1外形線
 10
106.51404360633779
 20
475.21005964326167
 30
0.0
 11
106.51404360633779
 21
419.21005964326167
 31
0.0
  0
ARC
  5
3C1
  8
1外形線
 10
128.51404360633779
 20
419.21005964326167
 30
0.0
 40
26.0
 50
180.0
 51
270.0
  0
ARC
  5
3C2
  8
1外形線
 10
128.51404360633779
 20
419.21005964326167
 30
0.0
 40
22.0
 50
180.0
 51
270.0
  0
LINE
  5
3C3
  8
1外形線
 10
128.51404360633779
 20
393.21005964326162
 30
0.0
 11
141.51404360633779
 21
393.21005964326162
 31
0.0
  0
LINE
  5
3C4
  8
1外形線
 10
128.51404360633779
 20
397.21005964326162
 30
0.0
 11
141.51404360633779
 21
397.21005964326162
 31
0.0
  0
LINE
  5
3C5
  8
1外形線
 10
154.51404360633771
 20
393.21005964326162
 30
0.0
 11
141.51404360633771
 21
393.21005964326162
 31
0.0
  0
LINE
  5
3C6
  8
1外形線
 10
154.51404360633771
 20
397.21005964326162
 30
0.0
 11
141.51404360633771
 21
397.21005964326162
 31
0.0
  0
ARC
  5
3C7
  8
1外形線
 10
138.51404360633771
 20
392.21005964326167
 30
0.0
 40
1.0
 50
0.0
 51
180.0
  0
ARC
  5
3C8
  8
1外形線
 10
140.51404360633771
 20
392.21005964326167
 30
0.0
 40
1.0
 50
180.0
 51
0.0
  0
ARC
  5
3C9
  8
1外形線
 10
140.51404360633771
 20
392.21005964326167
 30
0.0
 40
3.0
 50
180.0
 51
289.47122063449189
  0
LINE
  5
3CA
  8
1外形線
 10
141.51404360633771
 20
392.21005964326167
 30
0.0
 11
141.51404360633771
 21
397.21005964326162
 31
0.0
  0
ARC
  5
3CB
  8
1外形線
 10
138.51404360633779
 20
392.21005964326167
 30
0.0
 40
1.0
 50
0.0
 51
180.0
  0
LINE
  5
3CC
  8
1外形線
 10
141.51404360633779
 20
397.21005964326162
 30
0.0
 11
141.51404360633779
 21
392.21005964326167
 31
0.0
  0
ARC
  5
3CD
  8
1外形線
 10
140.51404360633779
 20
392.21005964326167
 30
0.0
 40
1.0
 50
180.0
 51
0.0
  0
ARC
  5
3CE
  8
1外形線
 10
140.51404360633779
 20
392.21005964326167
 30
0.0
 40
3.0
 50
180.0
 51
289.47122063449189
  0
ARC
  5
3CF
  8
1外形線
 10
128.51404360633779
 20
475.21005964326167
 30
0.0
 40
26.0
 50
90.0
 51
180.0
  0
ARC
  5
3D0
  8
1外形線
 10
128.51404360633779
 20
475.21005964326167
 30
0.0
 40
22.0
 50
90.0
 51
180.0
  0
LINE
  5
3D1
  8
1外形線
 10
128.51404360633779
 20
497.21005964326167
 30
0.0
 11
141.51404360633779
 21
497.21005964326167
 31
0.0
  0
LINE
  5
3D2
  8
1外形線
 10
128.51404360633779
 20
501.21005964326167
 30
0.0
 11
141.51404360633779
 21
501.21005964326167
 31
0.0
  0
LINE
  5
3D3
  8
1外形線
 10
154.51404360633771
 20
497.21005964326167
 30
0.0
 11
141.51404360633771
 21
497.21005964326167
 31
0.0
  0
LINE
  5
3D4
  8
1外形線
 10
154.51404360633771
 20
501.21005964326167
 30
0.0
 11
141.51404360633771
 21
501.21005964326167
 31
0.0
  0
LINE
  5
3D5
  8
1外形線
 10
141.51404360633771
 20
497.21005964326167
 30
0.0
 11
141.51404360633771
 21
502.21005964326167
 31
0.0
  0
ARC
  5
3D6
  8
1外形線
 10
144.51404360633771
 20
502.21005964326167
 30
0.0
 40
1.0
 50
180.0
 51
0.0
  0
ARC
  5
3D7
  8
1外形線
 10
142.51404360633771
 20
502.21005964326167
 30
0.0
 40
1.0
 50
0.0
 51
180.0
  0
ARC
  5
3D8
  8
1外形線
 10
142.51404360633771
 20
502.21005964326167
 30
0.0
 40
3.0
 50
0.0
 51
109.4712206344919
  0
LINE
  5
3D9
  8
1外形線
 10
141.51404360633779
 20
502.21005964326167
 30
0.0
 11
141.51404360633779
 21
497.21005964326167
 31
0.0
  0
ARC
  5
3DA
  8
1外形線
 10
142.51404360633779
 20
502.21005964326167
 30
0.0
 40
3.0
 50
0.0
 51
109.4712206344919
  0
ARC
  5
3DB
  8
1外形線
 10
142.51404360633779
 20
502.21005964326167
 30
0.0
 40
1.0
 50
0.0
 51
180.0
  0
ARC
  5
3DC
  8
1外形線
 10
144.51404360633779
 20
502.21005964326167
 30
0.0
 40
1.0
 50
180.0
 51
0.0
  0
ARC
  5
3DD
  8
1外形線
 10
279.84453721690539
 20
363.71005964326162
 30
0.0
 40
3.5
 50
180.0
 51
270.0
  0
LINE
  5
3DE
  8
1外形線
 10
282.34453721690539
 20
360.21005964326162
 30
0.0
 11
282.34453721690539
 21
447.21005964326167
 31
0.0
  0
LINE
  5
3DF
  8
1外形線
 10
317.93169403663637
 20
232.2100596432617
 30
0.0
 11
338.93169403663637
 21
232.2100596432617
 31
0.0
  0
LINE
  5
3E0
  8
1外形線
 10
311.93169403663637
 20
234.2100596432617
 30
0.0
 11
304.34334563122172
 21
232.69238996217851
 31
0.0
  0
ARC
  5
3E1
  8
1外形線
 10
304.93169403663637
 20
229.75064793510609
 30
0.0
 40
3.0
 50
101.3099324740176
 51
180.0
  0
ARC
  5
3E2
  8
1外形線
 10
315.43169403663637
 20
266.71005964326167
 30
0.0
 40
3.5
 50
90.0
 51
180.0
  0
LINE
  5
3E3
  8
1外形線
 10
315.43169403663637
 20
270.21005964326167
 30
0.0
 11
317.93169403663637
 21
270.21005964326167
 31
0.0
  0
ARC
  5
3E4
  8
1外形線
 10
338.93169403663637
 20
227.2100596432617
 30
0.0
 40
5.0
 50
53.13010235415333
 51
90.0
  0
LINE
  5
3E5
  8
1外形線
 10
279.84453721690539
 20
360.21005964326162
 30
0.0
 11
282.34453721690539
 21
360.21005964326162
 31
0.0
  0
LINE
  5
3E6
  8
1外形線
 10
276.34453721690539
 20
393.21005964326162
 30
0.0
 11
268.75618881149069
 21
394.72772932434458
 31
0.0
  0
LINE
  5
3E7
  8
1外形線
 10
276.34453721690539
 20
501.21005964326167
 30
0.0
 11
268.75618881149069
 21
499.69238996217871
 31
0.0
  0
LINE
  5
3E8
  8
1外形線
 10
266.34453721690528
 20
447.21005964326167
 30
0.0
 11
266.34453721690528
 21
397.66947135141743
 31
0.0
  0
LINE
  5
3E9
  8
1外形線
 10
176.51404360633771
 20
419.21005964326167
 30
0.0
 11
176.51404360633771
 21
475.21005964326167
 31
0.0
  0
LINE
  5
3EA
  8
1外形線
 10
180.51404360633771
 20
419.21005964326167
 30
0.0
 11
180.51404360633771
 21
475.21005964326167
 31
0.0
  0
LINE
  5
3EB
  8
1外形線
 10
213.51404360633771
 20
475.21005964326167
 30
0.0
 11
213.51404360633771
 21
419.21005964326167
 31
0.0
  0
ARC
  5
3EC
  8
1外形線
 10
269.34453721690528
 20
397.66947135141743
 30
0.0
 40
3.0
 50
180.0
 51
258.69006752598227
  0
LINE
  5
3ED
  8
1外形線
 10
266.34453721690528
 20
447.21005964326167
 30
0.0
 11
266.34453721690528
 21
496.75064793510592
 31
0.0
  0
ARC
  5
3EE
  8
1外形線
 10
269.34453721690528
 20
496.75064793510592
 30
0.0
 40
3.0
 50
101.3099324740176
 51
180.0
  0
LINE
  5
3EF
  8
1外形線
 10
351.06799056382857
 20
419.21005964326162
 30
0.0
 11
351.06799056382857
 21
475.21005964326162
 31
0.0
  0
LINE
  5
3F0
  8
1外形線
 10
353.06799056382857
 20
419.21005964326162
 30
0.0
 11
353.06799056382857
 21
475.21005964326162
 31
0.0
  0
LINE
  5
3F1
  8
1外形線
 10
367.06799056382857
 20
381.79348577552219
 30
0.0
 11
367.06799056382857
 21
512.62663351100105
 31
0.0
  0
LINE
  5
3F2
  8
1外形線
 10
366.06799056382857
 20
380.65814659085919
 30
0.0
 11
366.06799056382857
 21
513.7619726956641
 31
0.0
  0
LINE
  5
3F3
  8
1外形線
 10
365.06799056382857
 20
512.58986702639288
 30
0.0
 11
365.06799056382857
 21
381.83025226013029
 31
0.0
  0
LINE
  5
3F4
  8
1外形線
 10
306.34453721690539
 20
396.21005964326162
 30
0.0
 11
306.34453721690539
 21
447.21005964326167
 31
0.0
  0
LINE
  5
3F5
  8
1外形線
 10
303.34453721690539
 20
395.21005964326162
 30
0.0
 11
303.34453721690539
 21
447.21005964326167
 31
0.0
  0
LINE
  5
3F6
  8
1外形線
 10
276.34453721690539
 20
447.21005964326167
 30
0.0
 11
276.34453721690539
 21
363.71005964326162
 31
0.0
  0
LINE
  5
3F7
  8
1外形線
 10
282.34453721690539
 20
395.21005964326162
 30
0.0
 11
303.34453721690539
 21
395.21005964326162
 31
0.0
  0
ARC
  5
3F8
  8
1外形線
 10
303.34453721690539
 20
400.21005964326162
 30
0.0
 40
5.0
 50
270.0
 51
306.86989764584661
  0
ARC
  5
3F9
  8
1外形線
 10
410.06799056382857
 20
419.21005964326162
 30
0.0
 40
57.0
 50
180.0
 51
217.86364636173161
  0
ARC
  5
3FA
  8
1外形線
 10
410.06799056382857
 20
419.21005964326162
 30
0.0
 40
57.0
 50
221.02825436992089
 51
225.9965726510996
  0
ARC
  5
3FB
  8
1外形線
 10
410.06799056382857
 20
419.21005964326162
 30
0.0
 40
58.5
 50
225.88538145178549
 51
227.31082728338129
  0
ARC
  5
3FC
  8
1外形線
 10
410.06799056382857
 20
419.21005964326162
 30
0.0
 40
58.5
 50
219.71513723182761
 51
221.22418949711499
  0
LINE
  5
3FD
  8
1外形線
 10
303.34453721690539
 20
499.21005964326167
 30
0.0
 11
303.34453721690539
 21
447.21005964326167
 31
0.0
  0
LINE
  5
3FE
  8
1外形線
 10
306.34453721690539
 20
498.21005964326167
 30
0.0
 11
306.34453721690539
 21
447.21005964326167
 31
0.0
  0
LINE
  5
3FF
  8
1外形線
 10
282.34453721690539
 20
499.21005964326167
 30
0.0
 11
303.34453721690539
 21
499.21005964326167
 31
0.0
  0
ARC
  5
400
  8
1外形線
 10
303.34453721690539
 20
494.21005964326167
 30
0.0
 40
5.0
 50
53.13010235415333
 51
90.0
  0
ARC
  5
401
  8
1外形線
 10
410.06799056382857
 20
475.21005964326162
 30
0.0
 40
57.0
 50
142.1363536382683
 51
180.0
  0
ARC
  5
402
  8
1外形線
 10
410.06799056382857
 20
475.21005964326162
 30
0.0
 40
58.5
 50
138.77581050288489
 51
140.2848627681723
  0
ARC
  5
403
  8
1外形線
 10
475.8470639334468
 20
205.21005964326179
 30
0.0
 40
63.0
 50
147.27445564137059
 51
180.0
  0
ARC
  5
404
  8
1外形線
 10
475.8470639334468
 20
205.21005964326179
 30
0.0
 40
65.0
 50
90.0
 51
180.0
  0
ARC
  5
405
  8
1外形線
 10
485.84706393344669
 20
205.21005964326179
 30
0.0
 40
25.0
 50
139.8058856866742
 51
180.0
  0
LINE
  5
406
  8
1外形線
 10
422.84706393344669
 20
241.96941219468769
 30
0.0
 11
422.84706393344669
 21
78.450707091836307
 31
0.0
  0
LINE
  5
407
  8
1外形線
 10
423.84706393344669
 20
243.3709034494463
 30
0.0
 11
423.84706393344669
 21
77.04921583707744
 31
0.0
  0
LINE
  5
408
  8
1外形線
 10
424.84706393344669
 20
242.19654366107571
 30
0.0
 11
424.84706393344669
 21
78.223575625448007
 31
0.0
  0
ARC
  5
409
  8
1外形線
 10
500.8470639334468
 20
160.21005964326179
 30
0.0
 40
70.0
 50
90.0
 51
270.0
  0
ARC
  5
40A
  8
1外形線
 10
500.8470639334468
 20
160.21005964326179
 30
0.0
 40
72.0
 50
95.143769729507454
 51
268.02389171428371
  0
ARC
  5
40B
  8
1外形線
 10
500.8470639334468
 20
160.21005964326179
 30
0.0
 40
71.0
 50
90.0
 51
270.0
  0
ARC
  5
40C
  8
1外形線
 10
515.84706393344675
 20
205.21005964326179
 30
0.0
 40
25.0
 50
0.0
 51
40.194114313325777
  0
ARC
  5
40D
  8
1外形線
 10
525.84706393344675
 20
205.21005964326179
 30
0.0
 40
63.0
 50
0.0
 51
32.72554435862935
  0
LINE
  5
40E
  8
1外形線
 10
578.84706393344675
 20
78.45070709183608
 30
0.0
 11
578.84706393344675
 21
241.96941219468729
 31
0.0
  0
LINE
  5
40F
  8
1外形線
 10
577.84706393344675
 20
77.04921583707744
 30
0.0
 11
577.84706393344675
 21
243.37090344944619
 31
0.0
  0
LINE
  5
410
  8
1外形線
 10
576.84706393344675
 20
78.223575625448007
 30
0.0
 11
576.84706393344675
 21
242.19654366107571
 31
0.0
  0
ARC
  5
411
  8
1外形線
 10
500.8470639334468
 20
160.21005964326179
 30
0.0
 40
70.0
 50
270.0
 51
90.0
  0
ARC
  5
412
  8
1外形線
 10
500.8470639334468
 20
160.21005964326179
 30
0.0
 40
72.0
 50
275.14376972950743
 51
88.023891714283906
  0
ARC
  5
413
  8
1外形線
 10
500.8470639334468
 20
160.21005964326179
 30
0.0
 40
71.0
 50
270.0
 51
90.0
  0
ARC
  5
414
  8
1外形線
 10
525.84706393344675
 20
205.21005964326179
 30
0.0
 40
65.0
 50
0.0
 51
90.0
  0
LINE
  5
415
  8
1外形線
 10
460.84706393344669
 20
205.21005964326179
 30
0.0
 11
460.84706393344669
 21
115.2100596432618
 31
0.0
  0
LINE
  5
416
  8
1外形線
 10
410.84706393344669
 20
205.2100596432619
 30
0.0
 11
410.84706393344669
 21
115.2100596432618
 31
0.0
  0
LINE
  5
417
  8
1外形線
 10
412.84706393344669
 20
205.2100596432619
 30
0.0
 11
412.84706393344669
 21
115.2100596432618
 31
0.0
  0
LINE
  5
418
  8
1外形線
 10
590.84706393344675
 20
115.2100596432618
 30
0.0
 11
590.84706393344675
 21
205.21005964326179
 31
0.0
  0
LINE
  5
419
  8
1外形線
 10
588.84706393344675
 20
115.2100596432618
 30
0.0
 11
588.84706393344675
 21
205.21005964326179
 31
0.0
  0
LINE
  5
41A
  8
1外形線
 10
540.84706393344675
 20
115.2100596432618
 30
0.0
 11
540.84706393344675
 21
205.21005964326179
 31
0.0
  0
LINE
  5
41B
  8
1外形線
 10
423.06799056382857
 20
389.3816325185154
 30
0.0
 11
423.06799056382857
 21
360.21005964326162
 31
0.0
  0
ARC
  5
41C
  8
1外形線
 10
436.06799056382857
 20
419.21005964326162
 30
0.0
 40
57.0
 50
270.0
 51
311.02825436992077
  0
LINE
  5
41D
  8
1外形線
 10
423.06799056382857
 20
389.3816325185154
 30
0.0
 11
423.06799056382857
 21
360.21005964326162
 31
0.0
  0
ARC
  5
41E
  8
1外形線
 10
436.06799056382857
 20
419.21005964326162
 30
0.0
 40
59.0
 50
270.0
 51
0.0
  0
LINE
  5
41F
  8
1外形線
 10
498.84706393344669
 20
268.21005964326179
 30
0.0
 11
475.8470639334468
 21
268.21005964326179
 31
0.0
  0
LINE
  5
420
  8
1外形線
 10
500.8470639334468
 20
270.21005964326179
 30
0.0
 11
475.8470639334468
 21
270.21005964326179
 31
0.0
  0
LINE
  5
421
  8
1外形線
  6
CONTINUOUS
 10
500.34706393344669
 20
258.21005964326179
 30
0.0
 11
439.08771138202093
 21
258.21005964326179
 31
0.0
  0
LINE
  5
422
  8
1外形線
  6
CONTINUOUS
 10
498.84706393344669
 20
257.21005964326179
 30
0.0
 11
440.28022544588868
 21
257.21005964326179
 31
0.0
  0
LINE
  5
423
  8
1外形線
  6
CONTINUOUS
 10
500.34706393344669
 20
259.21005964326179
 30
0.0
 11
440.57313588453178
 21
259.21005964326179
 31
0.0
  0
ARC
  5
424
  8
1外形線
 10
475.8470639334468
 20
205.21005964326179
 30
0.0
 40
63.0
 50
124.37125602407809
 51
144.04943238038251
  0
ARC
  5
425
  8
1外形線
 10
475.8470639334468
 20
205.21005964326179
 30
0.0
 40
64.5
 50
143.72645554958601
 51
145.2558796600303
  0
CIRCLE
  5
426
  8
1外形線
 10
446.84706393344669
 20
244.21005964326179
 30
0.0
 40
2.0
  0
ARC
  5
427
  8
1外形線
 10
475.8470639334468
 20
205.21005964326179
 30
0.0
 40
63.0
 50
90.0
 51
121.00271913387139
  0
ARC
  5
428
  8
1外形線
 10
475.8470639334468
 20
205.21005964326179
 30
0.0
 40
64.5
 50
123.15340841564
 51
124.7441203399695
  0
LINE
  5
429
  8
1外形線
 10
436.06799056382857
 20
360.21005964326162
 30
0.0
 11
423.06799056382857
 21
360.21005964326162
 31
0.0
  0
LINE
  5
42A
  8
1外形線
 10
423.06799056382857
 20
360.21005964326162
 30
0.0
 11
410.06799056382857
 21
360.21005964326162
 31
0.0
  0
ARC
  5
42B
  8
1外形線
 10
525.84706393344675
 20
205.21005964326179
 30
0.0
 40
63.0
 50
58.997280866128563
 51
90.0
  0
LINE
  5
42C
  8
1外形線
  6
CONTINUOUS
 10
501.34706393344669
 20
258.21005964326179
 30
0.0
 11
562.60641648487251
 21
258.21005964326179
 31
0.0
  0
LINE
  5
42D
  8
1外形線
  6
CONTINUOUS
 10
501.34706393344669
 20
259.21005964326179
 30
0.0
 11
561.1209919823616
 21
259.21005964326179
 31
0.0
  0
LINE
  5
42E
  8
1外形線
  6
CONTINUOUS
 10
502.84706393344669
 20
257.21005964326179
 30
0.0
 11
561.41390242100465
 21
257.21005964326179
 31
0.0
  0
LINE
  5
42F
  8
1外形線
 10
498.84706393344669
 20
240.1090391288283
 30
0.0
 11
498.84706393344669
 21
257.21005964326179
 31
0.0
  0
LINE
  5
430
  8
1外形線
 10
500.8470639334468
 20
239.21005964326179
 30
0.0
 11
500.8470639334468
 21
270.21005964326179
 31
0.0
  0
LINE
  5
431
  8
1外形線
 10
500.8470639334468
 20
270.21005964326179
 30
0.0
 11
500.8470639334468
 21
238.038486768008
 31
0.0
  0
LINE
  5
432
  8
1外形線
 10
502.84706393344669
 20
232.6669433742089
 30
0.0
 11
502.84706393344669
 21
257.21005964326162
 31
0.0
  0
ARC
  5
433
  8
1外形線
 10
499.84706393344669
 20
235.21005964326179
 30
0.0
 40
3.0
 50
0.0
 51
180.0
  0
ARC
  5
434
  8
1外形線
 10
494.34706393344669
 20
232.4180924374046
 30
0.0
 40
0.5
 50
275.14376972950743
 51
0.0
  0
ARC
  5
435
  8
1外形線
 10
494.34706393344669
 20
232.4180924374046
 30
0.0
 40
0.5
 50
275.14376972950078
 51
0.0
  0
ARC
  5
436
  8
1外形線
 10
499.84706393344669
 20
235.21005964326179
 30
0.0
 40
5.0
 50
101.5369590328181
 51
180.0
  0
LINE
  5
437
  8
1外形線
 10
494.84706393344669
 20
235.21005964326179
 30
0.0
 11
494.84706393344669
 21
232.4180924374046
 31
0.0
  0
ARC
  5
438
  8
1外形線
 10
499.84706393344669
 20
235.21005964326179
 30
0.0
 40
1.0
 50
0.0
 51
180.0
  0
ARC
  5
439
  8
1外形線
 10
499.84706393344669
 20
239.21005964326179
 30
0.0
 40
1.0
 50
270.0
 51
0.0
  0
ARC
  5
43A
  8
1外形線
 10
497.84706393344669
 20
235.21005964326179
 30
0.0
 40
1.0
 50
180.0
 51
0.0
  0
ARC
  5
43B
  8
1外形線
 10
499.84706393344669
 20
235.21005964326179
 30
0.0
 40
3.0
 50
90.0
 51
180.0
  0
LINE
  5
43C
  8
1外形線
 10
500.8470639334468
 20
230.21005964326179
 30
0.0
 11
500.8470639334468
 21
235.21005964326179
 31
0.0
  0
ARC
  5
43D
  8
1外形線
 10
499.84706393344669
 20
235.21005964326179
 30
0.0
 40
1.0
 50
0.0
 51
180.0
  0
ARC
  5
43E
  8
1外形線
 10
497.84706393344669
 20
235.21005964326179
 30
0.0
 40
1.0
 50
180.0
 51
0.0
  0
LINE
  5
43F
  8
1外形線
 10
500.8470639334468
 20
230.21005964326179
 30
0.0
 11
500.8470639334468
 21
235.21005964326179
 31
0.0
  0
ARC
  5
440
  8
1外形線
 10
503.34706393344669
 20
232.6669433742089
 30
0.0
 40
0.5
 50
180.0
 51
268.02389171428371
  0
LINE
  5
441
  8
1外形線
 10
525.84706393344675
 20
270.21005964326179
 30
0.0
 11
500.8470639334468
 21
270.21005964326179
 31
0.0
  0
LINE
  5
442
  8
1外形線
 10
525.84706393344675
 20
268.21005964326179
 30
0.0
 11
502.84706393344669
 21
268.21005964326179
 31
0.0
  0
LINE
  5
443
  8
1外形線
 10
498.84706393344669
 20
259.21005964326179
 30
0.0
 11
498.84706393344669
 21
268.21005964326179
 31
0.0
  0
LINE
  5
444
  8
1外形線
 10
502.84706393344669
 20
259.21005964326162
 30
0.0
 11
502.84706393344669
 21
268.21005964326179
 31
0.0
  0
LINE
  5
445
  8
1外形線
 10
500.34706393344669
 20
258.21005964326179
 30
0.0
 11
500.34706393344669
 21
259.21005964326179
 31
0.0
  0
LINE
  5
446
  8
1外形線
 10
501.34706393344669
 20
259.21005964326162
 30
0.0
 11
501.34706393344669
 21
258.21005964326179
 31
0.0
  0
CIRCLE
  5
447
  8
1外形線
 10
554.84706393344675
 20
244.21005964326179
 30
0.0
 40
2.0
  0
ARC
  5
448
  8
1外形線
 10
525.84706393344675
 20
205.21005964326179
 30
0.0
 40
63.0
 50
35.95056761961748
 51
55.628743975921843
  0
ARC
  5
449
  8
1外形線
 10
525.84706393344675
 20
205.21005964326179
 30
0.0
 40
64.5
 50
34.744120339969591
 51
36.273544450414001
  0
ARC
  5
44A
  8
1外形線
 10
525.84706393344675
 20
205.21005964326179
 30
0.0
 40
64.5
 50
55.255879660030402
 51
56.846591584359977
  0
ARC
  5
44B
  8
1外形線
 10
436.06799056382857
 20
475.21005964326162
 30
0.0
 40
57.0
 50
0.0
 51
37.863646361731611
  0
ARC
  5
44C
  8
1外形線
 10
436.06799056382857
 20
419.21005964326162
 30
0.0
 40
57.0
 50
322.13635363826842
 51
0.0
  0
LINE
  5
44D
  8
1外形線
 10
388.06799056382857
 20
419.21005964326162
 30
0.0
 11
388.06799056382857
 21
475.21005964326162
 31
0.0
  0
ARC
  5
44E
  8
1外形線
 10
423.06799056382857
 20
447.21005964326162
 30
0.0
 40
52.0
 50
307.9258819726652
 51
52.074118027334777
  0
ARC
  5
44F
  8
1外形線
 10
423.06799056382857
 20
447.21005964326162
 30
0.0
 40
51.0
 50
307.75078046127629
 51
52.249219538723651
  0
ARC
  5
450
  8
1外形線
 10
423.06799056382857
 20
447.21005964326162
 30
0.0
 40
50.0
 50
310.80223215531493
 51
49.197767844685089
  0
LINE
  5
451
  8
1外形線
 10
458.06799056382857
 20
475.21005964326162
 30
0.0
 11
458.06799056382857
 21
419.21005964326162
 31
0.0
  0
LINE
  5
452
  8
1外形線
 10
481.06799056382857
 20
381.83025226013029
 30
0.0
 11
481.06799056382857
 21
512.58986702639288
 31
0.0
  0
LINE
  5
453
  8
1外形線
 10
480.06799056382857
 20
513.7619726956641
 30
0.0
 11
480.06799056382857
 21
380.65814659085908
 31
0.0
  0
LINE
  5
454
  8
1外形線
 10
479.06799056382857
 20
512.62663351100105
 30
0.0
 11
479.06799056382857
 21
381.79348577552219
 31
0.0
  0
LINE
  5
455
  8
1外形線
 10
423.56799056382857
 20
376.21005964326162
 30
0.0
 11
475.73220617437579
 21
376.21005964326162
 31
0.0
  0
LINE
  5
456
  8
1外形線
 10
425.06799056382812
 20
378.21005964326162
 30
0.0
 11
475.6659703102751
 21
378.21005964326162
 31
0.0
  0
LINE
  5
457
  8
1外形線
 10
423.56799056382857
 20
377.21005964326162
 30
0.0
 11
476.7896064453231
 21
377.21005964326162
 31
0.0
  0
LINE
  5
458
  8
1外形線
 10
436.06799056382857
 20
362.21005964326162
 30
0.0
 11
425.06799056382857
 21
362.2100596432615
 31
0.0
  0
LINE
  5
459
  8
1外形線
 10
423.06799056382857
 20
397.21005964326162
 30
0.0
 11
436.06799056382812
 21
397.21005964326162
 31
0.0
  0
ARC
  5
45A
  8
1外形線
 10
436.06799056382812
 20
419.21005964326162
 30
0.0
 40
23.0
 50
264.28111472238669
 51
325.52842289380192
  0
ARC
  5
45B
  8
1外形線
 10
410.06799056382857
 20
419.21005964326162
 30
0.0
 40
22.0
 50
180.0
 51
270.0
  0
ARC
  5
45C
  8
1外形線
 10
410.06799056382857
 20
419.21005964326162
 30
0.0
 40
23.0
 50
214.47157710619811
 51
275.71888527761303
  0
LINE
  5
45D
  8
1外形線
 10
421.06799056382852
 20
392.21005964326162
 30
0.0
 11
421.06799056382852
 21
378.21005964326162
 31
0.0
  0
LINE
  5
45E
  8
1外形線
 10
425.06799056382857
 20
387.31108015769519
 30
0.0
 11
425.06799056382857
 21
378.21005964326162
 31
0.0
  0
LINE
  5
45F
  8
1外形線
 10
421.06799056382852
 20
362.21005964326162
 30
0.0
 11
410.06799056382857
 21
362.21005964326162
 31
0.0
  0
LINE
  5
460
  8
1外形線
 10
422.56799056382857
 20
377.21005964326162
 30
0.0
 11
422.56799056382857
 21
376.21005964326162
 31
0.0
  0
LINE
  5
461
  8
1外形線
 10
421.06799056382852
 20
376.21005964326162
 30
0.0
 11
421.06799056382852
 21
362.21005964326162
 31
0.0
  0
LINE
  5
462
  8
1外形線
 10
425.06799056382857
 20
376.21005964326162
 30
0.0
 11
425.06799056382857
 21
362.2100596432615
 31
0.0
  0
LINE
  5
463
  8
1外形線
 10
423.56799056382812
 20
377.21005964326162
 30
0.0
 11
423.56799056382857
 21
376.21005964326162
 31
0.0
  0
ARC
  5
464
  8
1外形線
 10
420.56799056382857
 20
394.76961723475398
 30
0.0
 40
0.5
 50
0.0
 51
87.270597363222123
  0
LINE
  5
465
  8
1外形線
 10
423.06799056382857
 20
397.21005964326162
 30
0.0
 11
410.06799056382857
 21
397.21005964326162
 31
0.0
  0
ARC
  5
466
  8
1外形線
 10
423.06799056382857
 20
447.21005964326167
 30
0.0
 40
52.0
 50
258.11634435647539
 51
270.0
  0
ARC
  5
467
  8
1外形線
 10
423.06799056382857
 20
447.21005964326167
 30
0.0
 40
51.0
 50
258.63512303296812
 51
270.0
  0
ARC
  5
468
  8
1外形線
 10
426.06799056382857
 20
392.21005964326162
 30
0.0
 40
1.0
 50
0.0
 51
180.0
  0
ARC
  5
469
  8
1外形線
 10
424.06799056382857
 20
392.21005964326162
 30
0.0
 40
1.0
 50
180.0
 51
0.0
  0
LINE
  5
46A
  8
1外形線
 10
423.06799056382857
 20
392.21005964326162
 30
0.0
 11
423.06799056382857
 21
397.21005964326162
 31
0.0
  0
LINE
  5
46B
  8
1外形線
 10
421.06799056382852
 20
392.21005964326162
 30
0.0
 11
421.06799056382852
 21
394.76961723475398
 31
0.0
  0
ARC
  5
46C
  8
1外形線
 10
424.06799056382857
 20
392.21005964326162
 30
0.0
 40
3.0
 50
250.528779365508
 51
0.0
  0
ARC
  5
46D
  8
1外形線
 10
423.06799056382857
 20
447.21005964326162
 30
0.0
 40
52.0
 50
270.0
 51
281.88365564352449
  0
LINE
  5
46E
  8
1外形線
 10
423.06799056382857
 20
397.21005964326162
 30
0.0
 11
423.06799056382857
 21
392.21005964326162
 31
0.0
  0
ARC
  5
46F
  8
1外形線
 10
429.56799056382857
 20
395.11399453273708
 30
0.0
 40
0.5
 50
97.11201248722773
 51
180.0
  0
ARC
  5
470
  8
1外形線
 10
426.06799056382857
 20
392.21005964326162
 30
0.0
 40
1.0
 50
0.0
 51
180.0
  0
ARC
  5
471
  8
1外形線
 10
424.06799056382857
 20
392.21005964326162
 30
0.0
 40
1.0
 50
180.0
 51
0.0
  0
LINE
  5
472
  8
1外形線
 10
429.06799056382857
 20
395.11399453273708
 30
0.0
 11
429.06799056382857
 21
392.21005964326162
 31
0.0
  0
ARC
  5
473
  8
1外形線
 10
423.06799056382857
 20
447.21005964326162
 30
0.0
 40
51.0
 50
270.0
 51
281.36487696703159
  0
ARC
  5
474
  8
1外形線
 10
424.06799056382857
 20
392.21005964326162
 30
0.0
 40
3.0
 50
250.528779365508
 51
0.0
  0
ARC
  5
475
  8
1外形線
 10
424.06799056382857
 20
392.21005964326162
 30
0.0
 40
5.0
 50
281.53695903281812
 51
0.0
  0
ARC
  5
476
  8
1外形線
 10
436.06799056382812
 20
419.21005964326162
 30
0.0
 40
22.0
 50
270.0
 51
0.0
  0
ARC
  5
477
  8
1外形線
 10
436.06799056382857
 20
419.21005964326162
 30
0.0
 40
57.0
 50
314.00342734890029
 51
318.97174563007911
  0
ARC
  5
478
  8
1外形線
 10
436.06799056382857
 20
419.21005964326162
 30
0.0
 40
58.5
 50
312.6891727166186
 51
314.11461854821442
  0
CIRCLE
  5
479
  8
1外形線
 10
468.06799056382857
 20
387.21005964326162
 30
0.0
 40
2.0
  0
ARC
  5
47A
  8
1外形線
 10
436.06799056382857
 20
419.21005964326162
 30
0.0
 40
58.5
 50
318.77581050288478
 51
320.28486276817227
  0
ARC
  5
47B
  8
1外形線
 10
436.06799056382812
 20
475.21005964326162
 30
0.0
 40
23.0
 50
34.471577106198112
 51
95.718885277613069
  0
LINE
  5
47C
  8
1外形線
 10
423.06799056382857
 20
497.21005964326167
 30
0.0
 11
436.06799056382857
 21
497.21005964326167
 31
0.0
  0
ARC
  5
47D
  8
1外形線
 10
410.06799056382857
 20
475.21005964326162
 30
0.0
 40
22.0
 50
90.0
 51
180.0
  0
ARC
  5
47E
  8
1外形線
 10
410.06799056382857
 20
475.21005964326162
 30
0.0
 40
23.0
 50
84.281114722386931
 51
145.52842289380189
  0
ARC
  5
47F
  8
1外形線
 10
420.06799056382857
 20
502.21005964326167
 30
0.0
 40
1.0
 50
180.0
 51
0.0
  0
LINE
  5
480
  8
1外形線
 10
423.06799056382857
 20
497.21005964326167
 30
0.0
 11
410.06799056382857
 21
497.21005964326167
 31
0.0
  0
ARC
  5
481
  8
1外形線
 10
423.06799056382857
 20
447.21005964326167
 30
0.0
 40
51.0
 50
90.0
 51
101.36487696703161
  0
ARC
  5
482
  8
1外形線
 10
423.06799056382857
 20
447.21005964326167
 30
0.0
 40
52.0
 50
90.0
 51
101.88365564352451
  0
ARC
  5
483
  8
1外形線
 10
422.06799056382857
 20
502.21005964326167
 30
0.0
 40
5.0
 50
101.5369590328181
 51
180.0
  0
ARC
  5
484
  8
1外形線
 10
422.06799056382857
 20
502.21005964326167
 30
0.0
 40
3.0
 50
70.528779365508072
 51
180.0
  0
ARC
  5
485
  8
1外形線
 10
422.06799056382857
 20
502.21005964326167
 30
0.0
 40
3.0
 50
70.528779365508072
 51
180.0
  0
ARC
  5
486
  8
1外形線
 10
420.06799056382857
 20
502.21005964326167
 30
0.0
 40
1.0
 50
180.0
 51
0.0
  0
LINE
  5
487
  8
1外形線
 10
417.06799056382852
 20
499.30612475378609
 30
0.0
 11
417.06799056382852
 21
502.21005964326167
 31
0.0
  0
ARC
  5
488
  8
1外形線
 10
416.56799056382857
 20
499.30612475378609
 30
0.0
 40
0.5
 50
277.11201248722767
 51
0.0000000000065138
  0
ARC
  5
489
  8
1外形線
 10
422.06799056382857
 20
502.21005964326167
 30
0.0
 40
1.0
 50
0.0
 51
180.0
  0
LINE
  5
48A
  8
1外形線
 10
423.06799056382857
 20
497.21005964326167
 30
0.0
 11
423.06799056382857
 21
502.21005964326167
 31
0.0
  0
LINE
  5
48B
  8
1外形線
 10
425.06799056382857
 20
502.21005964326167
 30
0.0
 11
425.06799056382812
 21
499.65050205176919
 31
0.0
  0
LINE
  5
48C
  8
1外形線
 10
423.06799056382818
 20
502.21005964326167
 30
0.0
 11
423.06799056382857
 21
497.21005964326167
 31
0.0
  0
ARC
  5
48D
  8
1外形線
 10
423.06799056382857
 20
447.21005964326162
 30
0.0
 40
51.0
 50
78.635123032968323
 51
90.0
  0
ARC
  5
48E
  8
1外形線
 10
423.06799056382857
 20
447.21005964326162
 30
0.0
 40
52.0
 50
78.11634435647548
 51
90.0
  0
ARC
  5
48F
  8
1外形線
 10
425.56799056382857
 20
499.65050205176919
 30
0.0
 40
0.5
 50
180.0
 51
267.27059736322212
  0
ARC
  5
490
  8
1外形線
 10
422.06799056382857
 20
502.21005964326167
 30
0.0
 40
1.0
 50
0.0
 51
180.0
  0
ARC
  5
491
  8
1外形線
 10
436.06799056382812
 20
475.21005964326162
 30
0.0
 40
22.0
 50
0.0
 51
90.0
  0
CIRCLE
  5
492
  8
1外形線
 10
468.06799056382857
 20
507.21005964326162
 30
0.0
 40
2.0
  0
ARC
  5
493
  8
1外形線
 10
436.06799056382857
 20
475.21005964326162
 30
0.0
 40
58.5
 50
39.71513723182764
 51
41.224189497115063
  0
LINE
  5
494
  8
1外形線
 10
493.06799056382857
 20
475.21005964326162
 30
0.0
 11
493.06799056382857
 21
419.21005964326162
 31
0.0
  0
LINE
  5
495
  8
1外形線
 10
495.06799056382857
 20
475.21005964326162
 30
0.0
 11
495.06799056382857
 21
419.21005964326162
 31
0.0
  0
LINE
  5
496
  8
1外形線
 10
640.84706393344675
 20
594.21005964326173
 30
0.0
 11
19.51404360633785
 21
594.21005964326173
 31
0.0
  0
LINE
  5
497
  8
1外形線
 10
640.84706393344675
 20
811.21005964326184
 30
0.0
 11
19.51404360633785
 21
811.21005964326184
 31
0.0
  0
LINE
  5
498
  8
1外形線
 10
19.51404360633785
 20
1011.210059643261
 30
0.0
 11
640.84706393344675
 21
1011.210059643261
 31
0.0
  0
LINE
  5
499
  8
1外形線
 10
422.56799056382857
 20
518.21005964326162
 30
0.0
 11
370.4037749532809
 21
518.21005964326162
 31
0.0
  0
ARC
  5
49A
  8
1外形線
 10
410.06799056382857
 20
475.21005964326162
 30
0.0
 40
57.0
 50
90.0
 51
131.0282543699208
  0
LINE
  5
49B
  8
1外形線
 10
422.56799056382857
 20
517.21005964326173
 30
0.0
 11
369.3463746823341
 21
517.21005964326173
 31
0.0
  0
LINE
  5
49C
  8
1外形線
 10
421.06799056382852
 20
516.21005964326173
 30
0.0
 11
370.47001081738199
 21
516.21005964326173
 31
0.0
  0
ARC
  5
49D
  8
1外形線
 10
363.565377361103
 20
670.21005964326093
 30
0.0
 40
21.0
 50
264.02711978149262
 51
342.59414186762473
  0
LINE
  5
49E
  8
1外形線
 10
354.06537736110261
 20
633.71005964326093
 30
0.0
 11
388.8295484782048
 21
633.71005964326025
 31
0.0
  0
LINE
  5
49F
  8
1外形線
 10
353.06537736110249
 20
631.71005964326105
 30
0.0
 11
387.58167593407057
 21
631.71005964326025
 31
0.0
  0
LINE
  5
4A0
  8
1外形線
 10
353.06537736110249
 20
632.71005964326105
 30
0.0
 11
389.13670211171399
 21
632.71005964326025
 31
0.0
  0
ARC
  5
4A1
  8
1外形線
 10
364.565377361103
 20
669.21005964326093
 30
0.0
 40
43.0
 50
270.0
 51
299.29721918756331
  0
ARC
  5
4A2
  8
1外形線
 10
364.565377361103
 20
669.21005964326093
 30
0.0
 40
45.0
 50
270.0
 51
0.0
  0
ARC
  5
4A3
  8
1外形線
 10
363.565377361103
 20
670.21005964326093
 30
0.0
 40
20.0
 50
270.0
 51
0.0
  0
ARC
  5
4A4
  8
1外形線
 10
364.565377361103
 20
706.21005964326093
 30
0.0
 40
43.0
 50
60.702780812436629
 51
90.0
  0
LINE
  5
4A5
  8
1外形線
 10
354.065377361103
 20
741.71005964326093
 30
0.0
 11
388.82954847820531
 21
741.71005964326059
 31
0.0
  0
LINE
  5
4A6
  8
1外形線
 10
353.065377361103
 20
743.71005964326093
 30
0.0
 11
387.58167593407109
 21
743.71005964326071
 31
0.0
  0
LINE
  5
4A7
  8
1外形線
 10
353.065377361103
 20
742.71005964326093
 30
0.0
 11
389.1367021117145
 21
742.71005964326071
 31
0.0
  0
ARC
  5
4A8
  8
1外形線
 10
363.565377361103
 20
705.21005964326093
 30
0.0
 40
21.0
 50
17.405858132368991
 51
95.972880218507356
  0
ARC
  5
4A9
  8
1外形線
 10
363.565377361103
 20
705.21005964326093
 30
0.0
 40
20.0
 50
0.0
 51
90.0
  0
ARC
  5
4AA
  8
1外形線
 10
364.565377361103
 20
706.21005964326093
 30
0.0
 40
45.0
 50
0.0
 51
90.0
  0
ARC
  5
4AB
  8
1外形線
 10
340.51404360633779
 20
906.21005964326184
 30
0.0
 40
43.0
 50
0.0
 51
49.370671216671262
  0
ARC
  5
4AC
  8
1外形線
 10
340.51404360633779
 20
886.21005964326162
 30
0.0
 40
43.0
 50
310.62932878332867
 51
0.0
  0
ARC
  5
4AD
  8
1外形線
 10
340.51404360633779
 20
886.21005964326184
 30
0.0
 40
45.0
 50
270.0
 51
0.0
  0
ARC
  5
4AE
  8
1外形線
 10
340.51404360633779
 20
906.21005964326184
 30
0.0
 40
45.0
 50
0.0
 51
90.0
  0
ARC
  5
4AF
  8
1外形線
 10
139.51404360633799
 20
669.21005964326173
 30
0.0
 40
45.0
 50
270.0
 51
0.0
  0
ARC
  5
4B0
  8
1外形線
 10
138.51404360633799
 20
670.21005964326173
 30
0.0
 40
24.000000000000028
 50
270.0
 51
0.0
  0
ARC
  5
4B1
  8
1外形線
 10
138.51404360633799
 20
670.21005964326173
 30
0.0
 40
20.0
 50
270.0
 51
0.0
  0
ARC
  5
4B2
  8
1外形線
 10
139.51404360633799
 20
706.21005964326184
 30
0.0
 40
45.0
 50
0.0
 51
90.0
  0
ARC
  5
4B3
  8
1外形線
 10
138.51404360633799
 20
705.21005964326184
 30
0.0
 40
24.000000000000028
 50
0.0
 51
90.0
  0
ARC
  5
4B4
  8
1外形線
 10
138.51404360633799
 20
705.21005964326184
 30
0.0
 40
20.0
 50
0.0
 51
90.0
  0
LINE
  5
4B5
  8
1外形線
 10
158.51404360633799
 20
687.71005964326173
 30
0.0
 11
158.51404360633799
 21
670.21005964326184
 31
0.0
  0
LINE
  5
4B6
  8
1外形線
 10
95.51404360633785
 20
687.71005964326173
 30
0.0
 11
95.51404360633785
 21
670.21005964326173
 31
0.0
  0
LINE
  5
4B7
  8
1外形線
 10
91.514043606337736
 20
687.71005964326173
 30
0.0
 11
91.51404360633785
 21
670.21005964326173
 31
0.0
  0
LINE
  5
4B8
  8
1外形線
 10
69.51404360633785
 20
669.21005964326162
 30
0.0
 11
69.51404360633785
 21
687.71005964326162
 31
0.0
  0
TEXT
  5
4B9
  8
1外形線
 10
69.514043738672513
 20
564.21006108092206
 30
0.0
 40
10.0
  1
SWC-100
  7
KANJI
  0
LINE
  5
4BA
  8
1外形線
 10
141.51404360633779
 20
534.21005964326173
 30
0.0
 11
128.51404360633779
 21
534.21005964326173
 31
0.0
  0
LINE
  5
4BB
  8
1外形線
 10
154.51404360633779
 20
534.21005964326173
 30
0.0
 11
141.51404360633779
 21
534.21005964326173
 31
0.0
  0
ARC
  5
4BC
  8
1外形線
 10
115.51404360633779
 20
670.21005964326173
 30
0.0
 40
20.0
 50
180.0
 51
270.0
  0
ARC
  5
4BD
  8
1外形線
 10
115.51404360633779
 20
670.21005964326173
 30
0.0
 40
24.000000000000028
 50
180.0
 51
270.0
  0
ARC
  5
4BE
  8
1外形線
 10
114.51404360633779
 20
669.21005964326173
 30
0.0
 40
45.0
 50
180.0
 51
270.0
  0
LINE
  5
4BF
  8
1外形線
 10
127.01404360633791
 20
642.21005964326173
 30
0.0
 11
127.01404360633791
 21
624.21005964326173
 31
0.0
  0
LINE
  5
4C0
  8
1外形線
 10
127.01404360633791
 20
624.21005964326173
 30
0.0
 11
139.51404360633799
 21
624.21005964326173
 31
0.0
  0
LINE
  5
4C1
  8
1外形線
 10
127.01404360633791
 20
624.21005964326173
 30
0.0
 11
114.51404360633779
 21
624.21005964326173
 31
0.0
  0
LINE
  5
4C2
  8
1外形線
 10
127.01404360633791
 20
650.21005964326173
 30
0.0
 11
138.51404360633799
 21
650.21005964326173
 31
0.0
  0
LINE
  5
4C3
  8
1外形線
 10
127.01404360633791
 20
646.21005964326173
 30
0.0
 11
138.51404360633799
 21
646.21005964326173
 31
0.0
  0
LINE
  5
4C4
  8
1外形線
 10
127.01404360633791
 20
646.21005964326173
 30
0.0
 11
115.51404360633779
 21
646.21005964326162
 31
0.0
  0
LINE
  5
4C5
  8
1外形線
 10
127.01404360633791
 20
650.21005964326173
 30
0.0
 11
115.51404360633779
 21
650.21005964326173
 31
0.0
  0
LINE
  5
4C6
  8
1外形線
 10
127.01404360633791
 20
645.21005964326173
 30
0.0
 11
127.01404360633791
 21
650.21005964326173
 31
0.0
  0
LINE
  5
4C7
  8
1外形線
 10
127.01404360633791
 20
650.21005964326184
 30
0.0
 11
127.01404360633791
 21
645.2100596432615
 31
0.0
  0
LINE
  5
4C8
  8
1外形線
 10
128.01404360633791
 20
642.21005964326173
 30
0.0
 11
127.01404360633791
 21
642.21005964326173
 31
0.0
  0
ARC
  5
4C9
  8
1外形線
 10
128.01404360633791
 20
641.2100596432615
 30
0.0
 40
1.0
 50
90.0
 51
180.0
  0
ARC
  5
4CA
  8
1外形線
 10
130.01404360633791
 20
645.21005964326173
 30
0.0
 40
1.0
 50
0.0
 51
180.0
  0
ARC
  5
4CB
  8
1外形線
 10
130.01404360633791
 20
645.2100596432615
 30
0.0
 40
1.0
 50
0.0
 51
180.0
  0
ARC
  5
4CC
  8
1外形線
 10
128.01404360633791
 20
645.21005964326173
 30
0.0
 40
1.0
 50
180.0
 51
0.0
  0
ARC
  5
4CD
  8
1外形線
 10
128.01404360633791
 20
645.21005964326173
 30
0.0
 40
3.0
 50
270.0
 51
0.0
  0
ARC
  5
4CE
  8
1外形線
 10
128.01404360633791
 20
645.2100596432615
 30
0.0
 40
1.0
 50
180.0
 51
0.0
  0
ARC
  5
4CF
  8
1外形線
 10
128.01404360633791
 20
645.2100596432615
 30
0.0
 40
3.0
 50
270.0
 51
0.0
  0
LINE
  5
4D0
  8
1外形線
 10
127.01404360633791
 20
650.21005964326184
 30
0.0
 11
127.01404360633791
 21
645.2100596432615
 31
0.0
  0
LINE
  5
4D1
  8
1外形線
 10
127.01404360633791
 20
645.21005964326173
 30
0.0
 11
127.01404360633791
 21
650.21005964326173
 31
0.0
  0
ARC
  5
4D2
  8
1外形線
 10
114.51404360633779
 20
706.21005964326184
 30
0.0
 40
45.0
 50
90.0
 51
180.0
  0
LINE
  5
4D3
  8
1外形線
 10
127.01404360633791
 20
733.21005964326184
 30
0.0
 11
127.01404360633791
 21
751.21005964326184
 31
0.0
  0
ARC
  5
4D4
  8
1外形線
 10
115.51404360633779
 20
705.21005964326184
 30
0.0
 40
24.000000000000028
 50
90.0
 51
180.0
  0
ARC
  5
4D5
  8
1外形線
 10
115.51404360633779
 20
705.21005964326184
 30
0.0
 40
20.0
 50
90.0
 51
180.0
  0
LINE
  5
4D6
  8
1外形線
 10
69.51404360633785
 20
706.21005964326184
 30
0.0
 11
69.51404360633785
 21
687.71005964326184
 31
0.0
  0
LINE
  5
4D7
  8
1外形線
 10
91.514043606337736
 20
687.71005964326184
 30
0.0
 11
91.51404360633785
 21
705.21005964326173
 31
0.0
  0
LINE
  5
4D8
  8
1外形線
 10
95.51404360633785
 20
687.71005964326184
 30
0.0
 11
95.51404360633785
 21
705.21005964326173
 31
0.0
  0
LINE
  5
4D9
  8
1外形線
 10
158.51404360633799
 20
687.71005964326184
 30
0.0
 11
158.51404360633799
 21
705.21005964326173
 31
0.0
  0
LINE
  5
4DA
  8
1外形線
 10
127.01404360633791
 20
729.21005964326184
 30
0.0
 11
138.51404360633799
 21
729.21005964326184
 31
0.0
  0
LINE
  5
4DB
  8
1外形線
 10
127.01404360633791
 20
725.21005964326184
 30
0.0
 11
138.51404360633799
 21
725.21005964326184
 31
0.0
  0
LINE
  5
4DC
  8
1外形線
 10
127.01404360633791
 20
730.21005964326184
 30
0.0
 11
127.01404360633791
 21
725.21005964326184
 31
0.0
  0
LINE
  5
4DD
  8
1外形線
 10
127.01404360633791
 20
725.21005964326162
 30
0.0
 11
127.01404360633791
 21
730.21005964326184
 31
0.0
  0
LINE
  5
4DE
  8
1外形線
 10
127.01404360633791
 20
725.21005964326162
 30
0.0
 11
127.01404360633791
 21
730.21005964326184
 31
0.0
  0
LINE
  5
4DF
  8
1外形線
 10
127.01404360633791
 20
730.21005964326184
 30
0.0
 11
127.01404360633791
 21
725.21005964326184
 31
0.0
  0
LINE
  5
4E0
  8
1外形線
 10
127.01404360633791
 20
725.21005964326184
 30
0.0
 11
115.51404360633779
 21
725.21005964326184
 31
0.0
  0
LINE
  5
4E1
  8
1外形線
 10
127.01404360633791
 20
729.21005964326184
 30
0.0
 11
115.51404360633779
 21
729.21005964326184
 31
0.0
  0
ARC
  5
4E2
  8
1外形線
 10
128.01404360633791
 20
730.21005964326184
 30
0.0
 40
3.0
 50
0.0
 51
90.0
  0
ARC
  5
4E3
  8
1外形線
 10
128.01404360633791
 20
734.21005964326184
 30
0.0
 40
1.0
 50
180.0
 51
270.0
  0
ARC
  5
4E4
  8
1外形線
 10
128.01404360633791
 20
730.21005964326184
 30
0.0
 40
1.0
 50
0.0
 51
180.0
  0
ARC
  5
4E5
  8
1外形線
 10
130.01404360633791
 20
730.21005964326184
 30
0.0
 40
1.0
 50
180.0
 51
0.0
  0
ARC
  5
4E6
  8
1外形線
 10
128.01404360633791
 20
730.21005964326184
 30
0.0
 40
3.0
 50
0.0
 51
90.0
  0
ARC
  5
4E7
  8
1外形線
 10
130.01404360633791
 20
730.21005964326184
 30
0.0
 40
1.0
 50
180.0
 51
0.0
  0
LINE
  5
4E8
  8
1外形線
 10
128.01404360633791
 20
733.21005964326184
 30
0.0
 11
127.01404360633791
 21
733.21005964326184
 31
0.0
  0
ARC
  5
4E9
  8
1外形線
 10
128.01404360633791
 20
730.21005964326184
 30
0.0
 40
1.0
 50
0.0
 51
180.0
  0
TEXT
  5
4EA
  8
1外形線
 10
69.514043738672513
 20
781.21006108092206
 30
0.0
 40
10.0
  1
SWC-77
  7
KANJI
  0
LINE
  5
4EB
  8
1外形線
 10
127.01404360633791
 20
751.21005964326184
 30
0.0
 11
139.51404360633799
 21
751.21005964326184
 31
0.0
  0
LINE
  5
4EC
  8
1外形線
 10
127.01404360633791
 20
751.21005964326184
 30
0.0
 11
114.51404360633779
 21
751.21005964326184
 31
0.0
  0
LINE
  5
4ED
  8
1外形線
 10
294.565377361103
 20
669.21005964326116
 30
0.0
 11
294.565377361103
 21
687.71005964326127
 31
0.0
  0
LINE
  5
4EE
  8
1外形線
 10
296.565377361103
 20
669.21005964326116
 30
0.0
 11
296.565377361103
 21
687.71005964326127
 31
0.0
  0
LINE
  5
4EF
  8
1外形線
 10
320.565377361103
 20
687.71005964326116
 30
0.0
 11
320.565377361103
 21
670.21005964326105
 31
0.0
  0
ARC
  5
4F0
  8
1外形線
 10
352.06537736110351
 20
687.71005964326105
 30
0.0
 40
39.5
 50
180.0
 51
217.01854996561099
  0
ARC
  5
4F1
  8
1外形線
 10
352.06537736110351
 20
687.71005964326105
 30
0.0
 40
38.5
 50
180.0
 51
217.27741356546369
  0
LINE
  5
4F2
  8
1外形線
 10
306.06537736110351
 20
687.71005964326127
 30
0.0
 11
306.065377361103
 21
640.68375599206911
 31
0.0
  0
LINE
  5
4F3
  8
1外形線
 10
307.06537736110351
 20
687.71005964326127
 30
0.0
 11
307.065377361103
 21
639.54947974333311
 31
0.0
  0
LINE
  5
4F4
  8
1外形線
 10
308.06537736110351
 20
687.71005964326127
 30
0.0
 11
308.065377361103
 21
639.93976753675804
 31
0.0
  0
LINE
  5
4F5
  8
1外形線
 10
259.5664389518455
 20
648.21005964326173
 30
0.0
 11
259.56643895184561
 21
687.71005964326173
 31
0.0
  0
LINE
  5
4F6
  8
1外形線
 10
262.56643895184561
 20
687.71005964326173
 30
0.0
 11
262.56643895184538
 21
649.21005964326184
 31
0.0
  0
LINE
  5
4F7
  8
1外形線
 10
222.56643895184541
 20
650.66947135141743
 30
0.0
 11
222.56643895184561
 21
687.71005964326184
 31
0.0
  0
LINE
  5
4F8
  8
1外形線
 10
232.56643895184541
 20
687.71005964326173
 30
0.0
 11
232.56643895184541
 21
627.21005964326184
 31
0.0
  0
LINE
  5
4F9
  8
1外形線
 10
238.5664389518453
 20
624.21005964326184
 30
0.0
 11
238.5664389518453
 21
687.71005964326173
 31
0.0
  0
LINE
  5
4FA
  8
1外形線
 10
184.51404360633799
 20
669.21005964326173
 30
0.0
 11
184.51404360633799
 21
687.71005964326173
 31
0.0
  0
LINE
  5
4FB
  8
1外形線
 10
162.51404360633811
 20
687.71005964326173
 30
0.0
 11
162.51404360633799
 21
670.21005964326184
 31
0.0
  0
LINE
  5
4FC
  8
1外形線
 10
235.5664389518453
 20
624.21005964326184
 30
0.0
 11
238.5664389518453
 21
624.21005964326184
 31
0.0
  0
ARC
  5
4FD
  8
1外形線
 10
235.5664389518453
 20
627.21005964326184
 30
0.0
 40
3.0
 50
180.0
 51
270.0
  0
LINE
  5
4FE
  8
1外形線
 10
259.56643895184533
 20
648.21005964326173
 30
0.0
 11
238.5664389518453
 21
648.21005964326184
 31
0.0
  0
LINE
  5
4FF
  8
1外形線
 10
232.56643895184541
 20
646.21005964326184
 30
0.0
 11
224.97809054643091
 21
647.72772932434464
 31
0.0
  0
ARC
  5
500
  8
1外形線
 10
225.5664389518455
 20
650.66947135141743
 30
0.0
 40
3.0
 50
180.0
 51
258.69006752598227
  0
ARC
  5
501
  8
1外形線
 10
259.56643895184533
 20
653.21005964326173
 30
0.0
 40
5.0
 50
270.0
 51
306.86989764584661
  0
LINE
  5
502
  8
1外形線
 10
279.84453721690539
 20
534.21005964326173
 30
0.0
 11
282.34453721690539
 21
534.21005964326173
 31
0.0
  0
ARC
  5
503
  8
1外形線
 10
279.84453721690539
 20
530.71005964326173
 30
0.0
 40
3.5
 50
90.0
 51
180.0
  0
ARC
  5
504
  8
1外形線
 10
410.06799056382857
 20
475.21005964326162
 30
0.0
 40
58.5
 50
132.6891727166186
 51
134.11461854821439
  0
ARC
  5
505
  8
1外形線
 10
339.565377361103
 20
669.21005964326105
 30
0.0
 40
43.0
 50
240.70278081243649
 51
270.0
  0
LINE
  5
506
  8
1外形線
 10
351.065377361103
 20
632.71005964326105
 30
0.0
 11
314.99405261049162
 21
632.71005964326127
 31
0.0
  0
LINE
  5
507
  8
1外形線
 10
351.065377361103
 20
631.71005964326105
 30
0.0
 11
316.54907878813498
 21
631.71005964326116
 31
0.0
  0
LINE
  5
508
  8
1外形線
 10
350.065377361103
 20
633.71005964326105
 30
0.0
 11
315.30120624400081
 21
633.71005964326127
 31
0.0
  0
ARC
  5
509
  8
1外形線
 10
340.565377361103
 20
670.21005964326105
 30
0.0
 40
21.0
 50
197.40585813236891
 51
275.97288021850733
  0
ARC
  5
50A
  8
1外形線
 10
340.565377361103
 20
670.21005964326105
 30
0.0
 40
20.0
 50
180.0
 51
270.0
  0
ARC
  5
50B
  8
1外形線
 10
339.565377361103
 20
669.21005964326105
 30
0.0
 40
45.0
 50
180.0
 51
270.0
  0
ARC
  5
50C
  8
1外形線
 10
339.565377361103
 20
669.21005964326105
 30
0.0
 40
44.0
 50
236.05207347297571
 51
238.4597309325849
  0
ARC
  5
50D
  8
1外形線
 10
339.565377361103
 20
669.21005964326105
 30
0.0
 40
43.0
 50
180.0
 51
218.82451708148619
  0
ARC
  5
50E
  8
1外形線
 10
339.565377361103
 20
669.21005964326105
 30
0.0
 40
43.0
 50
222.89871718193419
 51
235.64748022953941
  0
ARC
  5
50F
  8
1外形線
 10
339.565377361103
 20
669.21005964326105
 30
0.0
 40
44.0
 50
220.4154390214527
 51
222.38461613079519
  0
CIRCLE
  5
510
  8
1外形線
 10
317.065377361103
 20
640.71005964326127
 30
0.0
 40
2.0
  0
LINE
  5
511
  8
1外形線
 10
351.065377361103
 20
632.71005964326105
 30
0.0
 11
351.065377361103
 21
631.71005964326105
 31
0.0
  0
LINE
  5
512
  8
1外形線
 10
352.065377361103
 20
642.21005964326093
 30
0.0
 11
352.06537736110261
 21
624.21005964326093
 31
0.0
  0
LINE
  5
513
  8
1外形線
 10
354.065377361103
 20
640.31108015769451
 30
0.0
 11
354.06537736110261
 21
626.21005964326093
 31
0.0
  0
LINE
  5
514
  8
1外形線
 10
352.06537736110261
 20
624.21005964326093
 30
0.0
 11
364.565377361103
 21
624.21005964326093
 31
0.0
  0
LINE
  5
515
  8
1外形線
 10
350.065377361103
 20
631.71005964326105
 30
0.0
 11
350.06537736110261
 21
626.21005964326093
 31
0.0
  0
LINE
  5
516
  8
1外形線
 10
352.06537736110261
 20
624.21005964326093
 30
0.0
 11
339.56537736110261
 21
624.21005964326105
 31
0.0
  0
LINE
  5
517
  8
1外形線
 10
350.06537736110261
 20
626.21005964326093
 30
0.0
 11
339.56537736110261
 21
626.21005964326105
 31
0.0
  0
LINE
  5
518
  8
1外形線
 10
354.06537736110261
 20
626.21005964326093
 30
0.0
 11
364.565377361103
 21
626.21005964326093
 31
0.0
  0
LINE
  5
519
  8
1外形線
 10
352.065377361103
 20
650.21005964326093
 30
0.0
 11
363.565377361103
 21
650.21005964326093
 31
0.0
  0
LINE
  5
51A
  8
1外形線
 10
353.065377361103
 20
642.21005964326093
 30
0.0
 11
352.065377361103
 21
642.21005964326093
 31
0.0
  0
ARC
  5
51B
  8
1外形線
 10
353.065377361103
 20
641.21005964326093
 30
0.0
 40
1.0
 50
90.0
 51
180.0
  0
ARC
  5
51C
  8
1外形線
 10
353.065377361103
 20
645.21005964326093
 30
0.0
 40
1.0
 50
180.0
 51
0.0
  0
ARC
  5
51D
  8
1外形線
 10
353.065377361103
 20
645.21005964326093
 30
0.0
 40
1.0
 50
180.0
 51
0.0
  0
ARC
  5
51E
  8
1外形線
 10
352.06537736110351
 20
687.71005964326105
 30
0.0
 40
39.5
 50
256.36018838526849
 51
283.6398116147314
  0
ARC
  5
51F
  8
1外形線
 10
352.06537736110351
 20
687.71005964326105
 30
0.0
 40
38.5
 50
256.91264733544278
 51
283.08735266455062
  0
LINE
  5
520
  8
1外形線
 10
352.065377361103
 20
645.21005964326093
 30
0.0
 11
352.065377361103
 21
650.21005964326093
 31
0.0
  0
LINE
  5
521
  8
1外形線
 10
352.065377361103
 20
650.21005964326105
 30
0.0
 11
352.065377361103
 21
645.21005964326093
 31
0.0
  0
LINE
  5
522
  8
1外形線
 10
352.065377361103
 20
650.21005964326105
 30
0.0
 11
352.065377361103
 21
645.21005964326093
 31
0.0
  0
LINE
  5
523
  8
1外形線
 10
352.065377361103
 20
645.21005964326093
 30
0.0
 11
352.065377361103
 21
650.21005964326093
 31
0.0
  0
LINE
  5
524
  8
1外形線
 10
352.065377361103
 20
650.21005964326093
 30
0.0
 11
340.56537736110249
 21
650.21005964326105
 31
0.0
  0
LINE
  5
525
  8
1外形線
 10
350.065377361103
 20
648.26072504811225
 30
0.0
 11
350.065377361103
 21
633.71005964326105
 31
0.0
  0
ARC
  5
526
  8
1外形線
 10
355.065377361103
 20
645.21005964326093
 30
0.0
 40
1.0
 50
0.0
 51
180.0
  0
ARC
  5
527
  8
1外形線
 10
355.065377361103
 20
645.21005964326093
 30
0.0
 40
1.0
 50
0.0
 51
180.0
  0
ARC
  5
528
  8
1外形線
 10
353.065377361103
 20
645.21005964326093
 30
0.0
 40
3.0
 50
270.0
 51
0.0
  0
ARC
  5
529
  8
1外形線
 10
353.065377361103
 20
645.21005964326093
 30
0.0
 40
3.0
 50
270.0
 51
0.0
  0
LINE
  5
52A
  8
1外形線
 10
358.065377361103
 20
645.21005964326093
 30
0.0
 11
358.065377361103
 21
648.66841521068102
 31
0.0
  0
ARC
  5
52B
  8
1外形線
 10
353.065377361103
 20
645.21005964326093
 30
0.0
 40
5.0
 50
281.53695903281812
 51
0.0
  0
LINE
  5
52C
  8
1外形線
 10
232.56643895184541
 20
687.71005964326184
 30
0.0
 11
232.56643895184561
 21
748.21005964326184
 31
0.0
  0
LINE
  5
52D
  8
1外形線
 10
238.56643895184561
 20
751.21005964326184
 30
0.0
 11
238.5664389518453
 21
687.71005964326184
 31
0.0
  0
LINE
  5
52E
  8
1外形線
 10
184.51404360633799
 20
706.21005964326184
 30
0.0
 11
184.51404360633799
 21
687.71005964326184
 31
0.0
  0
LINE
  5
52F
  8
1外形線
 10
162.51404360633811
 20
687.71005964326184
 30
0.0
 11
162.51404360633799
 21
705.21005964326173
 31
0.0
  0
LINE
  5
530
  8
1外形線
 10
259.56643895184561
 20
727.21005964326184
 30
0.0
 11
259.56643895184561
 21
687.71005964326173
 31
0.0
  0
LINE
  5
531
  8
1外形線
 10
262.56643895184561
 20
687.71005964326173
 30
0.0
 11
262.56643895184561
 21
726.21005964326173
 31
0.0
  0
LINE
  5
532
  8
1外形線
 10
222.56643895184561
 20
724.75064793510614
 30
0.0
 11
222.56643895184561
 21
687.71005964326184
 31
0.0
  0
LINE
  5
533
  8
1外形線
 10
259.5664389518455
 20
727.21005964326184
 30
0.0
 11
238.5664389518455
 21
727.21005964326184
 31
0.0
  0
LINE
  5
534
  8
1外形線
 10
232.56643895184561
 20
729.21005964326184
 30
0.0
 11
224.97809054643099
 21
727.69238996217905
 31
0.0
  0
ARC
  5
535
  8
1外形線
 10
225.56643895184561
 20
724.75064793510614
 30
0.0
 40
3.0
 50
101.3099324740176
 51
180.0
  0
ARC
  5
536
  8
1外形線
 10
259.5664389518455
 20
722.21005964326184
 30
0.0
 40
5.0
 50
53.13010235415333
 51
90.0
  0
LINE
  5
537
  8
1外形線
 10
235.56643895184561
 20
751.21005964326184
 30
0.0
 11
238.56643895184561
 21
751.21005964326184
 31
0.0
  0
ARC
  5
538
  8
1外形線
 10
235.56643895184561
 20
748.21005964326184
 30
0.0
 40
3.0
 50
90.0
 51
180.0
  0
LINE
  5
539
  8
1外形線
 10
354.065377361103
 20
743.71005964326093
 30
0.0
 11
354.06537736110351
 21
749.21005964326093
 31
0.0
  0
LINE
  5
53A
  8
1外形線
 10
350.065377361103
 20
735.10903912882736
 30
0.0
 11
350.06537736110351
 21
749.21005964326093
 31
0.0
  0
ARC
  5
53B
  8
1外形線
 10
339.565377361103
 20
706.21005964326105
 30
0.0
 40
43.0
 50
90.0
 51
119.2972191875633
  0
LINE
  5
53C
  8
1外形線
 10
352.065377361103
 20
733.21005964326093
 30
0.0
 11
352.06537736110351
 21
751.21005964326093
 31
0.0
  0
ARC
  5
53D
  8
1外形線
 10
339.565377361103
 20
706.21005964326105
 30
0.0
 40
45.0
 50
90.0
 51
180.0
  0
LINE
  5
53E
  8
1外形線
 10
351.06537736110351
 20
742.71005964326093
 30
0.0
 11
314.99405261049202
 21
742.71005964326162
 31
0.0
  0
LINE
  5
53F
  8
1外形線
 10
351.06537736110351
 20
743.71005964326093
 30
0.0
 11
316.54907878813538
 21
743.71005964326162
 31
0.0
  0
LINE
  5
540
  8
1外形線
 10
350.06537736110351
 20
741.71005964326093
 30
0.0
 11
315.30120624400121
 21
741.71005964326162
 31
0.0
  0
ARC
  5
541
  8
1外形線
 10
340.565377361103
 20
705.21005964326105
 30
0.0
 40
21.0
 50
84.027119781492658
 51
162.59414186762481
  0
ARC
  5
542
  8
1外形線
 10
340.565377361103
 20
705.21005964326105
 30
0.0
 40
20.0
 50
90.0
 51
180.0
  0
ARC
  5
543
  8
1外形線
 10
339.565377361103
 20
706.21005964326105
 30
0.0
 40
43.0
 50
141.1754829185177
 51
180.0
  0
LINE
  5
544
  8
1外形線
 10
306.06537736110261
 20
687.71005964326184
 30
0.0
 11
306.06537736110351
 21
734.73636329445389
 31
0.0
  0
LINE
  5
545
  8
1外形線
 10
307.06537736110249
 20
687.71005964326184
 30
0.0
 11
307.06537736110351
 21
735.87063954319001
 31
0.0
  0
LINE
  5
546
  8
1外形線
 10
308.06537736110261
 20
687.71005964326184
 30
0.0
 11
308.06537736110351
 21
735.48035174976485
 31
0.0
  0
ARC
  5
547
  8
1外形線
 10
352.06537736110261
 20
687.71005964326093
 30
0.0
 40
38.5
 50
142.7225864345323
 51
180.0
  0
ARC
  5
548
  8
1外形線
 10
352.06537736110261
 20
687.71005964326093
 30
0.0
 40
39.5
 50
142.98145003438501
 51
180.0
  0
LINE
  5
549
  8
1外形線
 10
296.565377361103
 20
706.21005964326116
 30
0.0
 11
296.565377361103
 21
687.71005964326127
 31
0.0
  0
LINE
  5
54A
  8
1外形線
 10
294.565377361103
 20
706.21005964326139
 30
0.0
 11
294.565377361103
 21
687.71005964326127
 31
0.0
  0
LINE
  5
54B
  8
1外形線
 10
320.565377361103
 20
687.71005964326116
 30
0.0
 11
320.565377361103
 21
705.21005964326116
 31
0.0
  0
ARC
  5
54C
  8
1外形線
 10
339.565377361103
 20
706.21005964326105
 30
0.0
 40
43.0
 50
124.3525197704551
 51
137.1012828180657
  0
ARC
  5
54D
  8
1外形線
 10
339.56537736110261
 20
706.21005964326116
 30
0.0
 40
44.0
 50
137.61538386920469
 51
139.58456097854719
  0
ARC
  5
54E
  8
1外形線
 10
339.56537736110261
 20
706.21005964326116
 30
0.0
 40
44.0
 50
121.5402690674149
 51
123.94792652702419
  0
CIRCLE
  5
54F
  8
1外形線
 10
317.065377361103
 20
734.71005964326162
 30
0.0
 40
2.0
  0
ARC
  5
550
  8
1外形線
 10
352.06537736110261
 20
687.71005964326093
 30
0.0
 40
38.5
 50
76.912647335442813
 51
103.08735266455071
  0
ARC
  5
551
  8
1外形線
 10
352.06537736110261
 20
687.71005964326093
 30
0.0
 40
39.5
 50
76.360188385268543
 51
103.6398116147314
  0
LINE
  5
552
  8
1外形線
 10
352.065377361103
 20
725.21005964326093
 30
0.0
 11
363.56537736110351
 21
725.21005964326093
 31
0.0
  0
LINE
  5
553
  8
1外形線
 10
346.065377361103
 20
730.21005964326105
 30
0.0
 11
346.065377361103
 21
726.75170407584085
 31
0.0
  0
LINE
  5
554
  8
1外形線
 10
352.065377361103
 20
730.21005964326093
 30
0.0
 11
352.065377361103
 21
725.21005964326093
 31
0.0
  0
LINE
  5
555
  8
1外形線
 10
352.065377361103
 20
725.21005964326093
 30
0.0
 11
352.065377361103
 21
730.21005964326105
 31
0.0
  0
LINE
  5
556
  8
1外形線
 10
352.065377361103
 20
725.21005964326093
 30
0.0
 11
352.065377361103
 21
730.21005964326105
 31
0.0
  0
LINE
  5
557
  8
1外形線
 10
352.065377361103
 20
730.21005964326093
 30
0.0
 11
352.065377361103
 21
725.21005964326093
 31
0.0
  0
LINE
  5
558
  8
1外形線
 10
352.065377361103
 20
725.21005964326093
 30
0.0
 11
340.565377361103
 21
725.21005964326105
 31
0.0
  0
ARC
  5
559
  8
1外形線
 10
351.065377361103
 20
730.21005964326105
 30
0.0
 40
5.0
 50
101.5369590328181
 51
180.0
  0
LINE
  5
55A
  8
1外形線
 10
351.065377361103
 20
733.21005964326093
 30
0.0
 11
352.065377361103
 21
733.21005964326093
 31
0.0
  0
ARC
  5
55B
  8
1外形線
 10
351.065377361103
 20
734.21005964326105
 30
0.0
 40
1.0
 50
270.0
 51
0.0
  0
ARC
  5
55C
  8
1外形線
 10
349.065377361103
 20
730.21005964326105
 30
0.0
 40
1.0
 50
180.0
 51
0.0
  0
ARC
  5
55D
  8
1外形線
 10
349.065377361103
 20
730.21005964326105
 30
0.0
 40
1.0
 50
180.0
 51
0.0
  0
ARC
  5
55E
  8
1外形線
 10
351.065377361103
 20
730.21005964326093
 30
0.0
 40
1.0
 50
0.0
 51
180.0
  0
ARC
  5
55F
  8
1外形線
 10
351.065377361103
 20
730.21005964326093
 30
0.0
 40
3.0
 50
90.0
 51
180.0
  0
ARC
  5
560
  8
1外形線
 10
351.065377361103
 20
730.21005964326105
 30
0.0
 40
1.0
 50
0.0
 51
180.0
  0
ARC
  5
561
  8
1外形線
 10
351.065377361103
 20
730.21005964326105
 30
0.0
 40
3.0
 50
90.0
 51
180.0
  0
LINE
  5
562
  8
1外形線
 10
354.065377361103
 20
727.15939423840962
 30
0.0
 11
354.065377361103
 21
741.71005964326093
 31
0.0
  0
LINE
  5
563
  8
1外形線
 10
353.065377361103
 20
742.71005964326093
 30
0.0
 11
353.065377361103
 21
743.71005964326093
 31
0.0
  0
LINE
  5
564
  8
1外形線
 10
352.06537736110351
 20
751.21005964326093
 30
0.0
 11
364.56537736110351
 21
751.21005964326093
 31
0.0
  0
LINE
  5
565
  8
1外形線
 10
350.06537736110351
 20
749.21005964326093
 30
0.0
 11
339.565377361103
 21
749.21005964326105
 31
0.0
  0
LINE
  5
566
  8
1外形線
 10
352.06537736110351
 20
751.21005964326093
 30
0.0
 11
339.565377361103
 21
751.21005964326105
 31
0.0
  0
LINE
  5
567
  8
1外形線
 10
354.06537736110351
 20
749.21005964326093
 30
0.0
 11
364.56537736110351
 21
749.21005964326093
 31
0.0
  0
ARC
  5
568
  8
1外形線
 10
132.51404360633779
 20
906.21005964326184
 30
0.0
 40
45.0
 50
0.0
 51
90.0
  0
ARC
  5
569
  8
1外形線
 10
132.51404360633779
 20
886.21005964326162
 30
0.0
 40
45.0
 50
270.0
 51
0.0
  0
LINE
  5
56A
  8
1外形線
 10
156.51404360633779
 20
886.21005964326162
 30
0.0
 11
156.51404360633779
 21
906.21005964326184
 31
0.0
  0
LINE
  5
56B
  8
1外形線
 10
152.51404360633779
 20
886.21005964326162
 30
0.0
 11
152.51404360633779
 21
906.21005964326184
 31
0.0
  0
LINE
  5
56C
  8
1外形線
 10
94.514043606337864
 20
906.21005964326184
 30
0.0
 11
94.514043606337864
 21
886.21005964326184
 31
0.0
  0
LINE
  5
56D
  8
1外形線
 10
90.51404360633785
 20
906.21005964326184
 30
0.0
 11
90.51404360633785
 21
886.21005964326184
 31
0.0
  0
LINE
  5
56E
  8
1外形線
 10
69.51404360633785
 20
886.21005964326184
 30
0.0
 11
69.51404360633785
 21
906.21005964326184
 31
0.0
  0
ARC
  5
56F
  8
1外形線
 10
114.51404360633779
 20
886.21005964326162
 30
0.0
 40
20.0
 50
180.0
 51
270.0
  0
ARC
  5
570
  8
1外形線
 10
114.51404360633779
 20
886.21005964326184
 30
0.0
 40
45.0
 50
180.0
 51
270.0
  0
ARC
  5
571
  8
1外形線
 10
114.51404360633779
 20
886.21005964326162
 30
0.0
 40
24.000000000000028
 50
180.0
 51
270.0
  0
LINE
  5
572
  8
1外形線
 10
123.51404360633779
 20
861.21005964326162
 30
0.0
 11
123.51404360633779
 21
866.2100596432615
 31
0.0
  0
ARC
  5
573
  8
1外形線
 10
132.51404360633779
 20
886.21005964326162
 30
0.0
 40
20.0
 50
270.0
 51
0.0
  0
ARC
  5
574
  8
1外形線
 10
132.51404360633779
 20
886.21005964326162
 30
0.0
 40
24.000000000000028
 50
270.0
 51
0.0
  0
LINE
  5
575
  8
1外形線
 10
123.51404360633779
 20
866.21005964326196
 30
0.0
 11
123.51404360633779
 21
861.21005964326162
 31
0.0
  0
LINE
  5
576
  8
1外形線
 10
123.51404360633779
 20
858.2100596432615
 30
0.0
 11
123.51404360633779
 21
841.21005964326196
 31
0.0
  0
LINE
  5
577
  8
1外形線
 10
123.51404360633779
 20
857.21005964326162
 30
0.0
 11
123.51404360633779
 21
841.21005964326196
 31
0.0
  0
LINE
  5
578
  8
1外形線
 10
123.51404360633779
 20
841.21005964326196
 30
0.0
 11
114.51404360633779
 21
841.21005964326196
 31
0.0
  0
LINE
  5
579
  8
1外形線
 10
132.51404360633779
 20
841.21005964326196
 30
0.0
 11
123.51404360633779
 21
841.21005964326196
 31
0.0
  0
ARC
  5
57A
  8
1外形線
 10
122.51404360633779
 20
861.21005964326162
 30
0.0
 40
1.0
 50
180.0
 51
0.0
  0
ARC
  5
57B
  8
1外形線
 10
122.51404360633779
 20
861.21005964326162
 30
0.0
 40
3.0
 50
180.0
 51
270.0
  0
ARC
  5
57C
  8
1外形線
 10
122.51404360633779
 20
861.21005964326162
 30
0.0
 40
1.0
 50
180.0
 51
0.0
  0
LINE
  5
57D
  8
1外形線
 10
123.51404360633779
 20
862.21005964326162
 30
0.0
 11
114.51404360633779
 21
862.21005964326162
 31
0.0
  0
ARC
  5
57E
  8
1外形線
 10
122.51404360633779
 20
861.21005964326162
 30
0.0
 40
3.0
 50
180.0
 51
270.0
  0
ARC
  5
57F
  8
1外形線
 10
120.51404360633779
 20
861.21005964326162
 30
0.0
 40
1.0
 50
0.0
 51
180.0
  0
ARC
  5
580
  8
1外形線
 10
120.51404360633779
 20
861.21005964326162
 30
0.0
 40
1.0
 50
0.0
 51
180.0
  0
LINE
  5
581
  8
1外形線
 10
122.51404360633779
 20
858.2100596432615
 30
0.0
 11
123.51404360633779
 21
858.2100596432615
 31
0.0
  0
LINE
  5
582
  8
1外形線
 10
123.51404360633779
 20
862.21005964326162
 30
0.0
 11
132.51404360633779
 21
862.21005964326162
 31
0.0
  0
ARC
  5
583
  8
1外形線
 10
122.51404360633779
 20
857.21005964326162
 30
0.0
 40
1.0
 50
0.0
 51
90.0
  0
LINE
  5
584
  8
1外形線
 10
123.51404360633779
 20
866.2100596432615
 30
0.0
 11
114.51404360633779
 21
866.2100596432615
 31
0.0
  0
LINE
  5
585
  8
1外形線
 10
123.51404360633779
 20
866.21005964326173
 30
0.0
 11
132.51404360633779
 21
866.21005964326173
 31
0.0
  0
ARC
  5
586
  8
1外形線
 10
114.51404360633779
 20
906.21005964326184
 30
0.0
 40
24.000000000000028
 50
90.0
 51
180.0
  0
ARC
  5
587
  8
1外形線
 10
114.51404360633779
 20
906.21005964326184
 30
0.0
 40
20.0
 50
90.0
 51
180.0
  0
ARC
  5
588
  8
1外形線
 10
114.51404360633779
 20
906.21005964326184
 30
0.0
 40
45.0
 50
90.0
 51
180.0
  0
LINE
  5
589
  8
1外形線
 10
123.51404360633779
 20
935.21005964326184
 30
0.0
 11
123.51404360633779
 21
951.21005964326173
 31
0.0
  0
LINE
  5
58A
  8
1外形線
 10
123.51404360633779
 20
934.21005964326196
 30
0.0
 11
123.51404360633779
 21
951.21005964326173
 31
0.0
  0
ARC
  5
58B
  8
1外形線
 10
132.51404360633779
 20
906.21005964326184
 30
0.0
 40
20.0
 50
0.0
 51
90.0
  0
ARC
  5
58C
  8
1外形線
 10
132.51404360633779
 20
906.21005964326184
 30
0.0
 40
24.000000000000028
 50
0.0
 51
90.0
  0
LINE
  5
58D
  8
1外形線
 10
123.51404360633779
 20
926.21005964326196
 30
0.0
 11
114.51404360633779
 21
926.21005964326196
 31
0.0
  0
LINE
  5
58E
  8
1外形線
 10
123.51404360633779
 20
930.21005964326184
 30
0.0
 11
114.51404360633779
 21
930.21005964326184
 31
0.0
  0
ARC
  5
58F
  8
1外形線
 10
126.51404360633779
 20
931.21005964326184
 30
0.0
 40
1.0
 50
180.0
 51
0.0
  0
LINE
  5
590
  8
1外形線
 10
123.51404360633779
 20
926.21005964326173
 30
0.0
 11
123.51404360633779
 21
931.21005964326184
 31
0.0
  0
ARC
  5
591
  8
1外形線
 10
124.51404360633779
 20
931.21005964326184
 30
0.0
 40
1.0
 50
0.0
 51
180.0
  0
LINE
  5
592
  8
1外形線
 10
123.51404360633779
 20
930.21005964326184
 30
0.0
 11
132.51404360633779
 21
930.21005964326184
 31
0.0
  0
LINE
  5
593
  8
1外形線
 10
123.51404360633779
 20
926.21005964326196
 30
0.0
 11
132.51404360633779
 21
926.21005964326196
 31
0.0
  0
ARC
  5
594
  8
1外形線
 10
124.51404360633779
 20
935.21005964326184
 30
0.0
 40
1.0
 50
180.0
 51
270.0
  0
ARC
  5
595
  8
1外形線
 10
124.51404360633779
 20
931.21005964326184
 30
0.0
 40
3.0
 50
0.0
 51
90.0
  0
LINE
  5
596
  8
1外形線
 10
124.51404360633779
 20
934.21005964326196
 30
0.0
 11
123.51404360633779
 21
934.21005964326196
 31
0.0
  0
ARC
  5
597
  8
1外形線
 10
124.51404360633779
 20
931.21005964326184
 30
0.0
 40
1.0
 50
0.0
 51
180.0
  0
ARC
  5
598
  8
1外形線
 10
124.51404360633779
 20
931.21005964326184
 30
0.0
 40
3.0
 50
0.0
 51
90.0
  0
LINE
  5
599
  8
1外形線
 10
123.51404360633779
 20
931.21005964326184
 30
0.0
 11
123.51404360633779
 21
926.21005964326196
 31
0.0
  0
ARC
  5
59A
  8
1外形線
 10
126.51404360633779
 20
931.21005964326184
 30
0.0
 40
1.0
 50
180.0
 51
0.0
  0
LINE
  5
59B
  8
1外形線
 10
114.51404360633779
 20
951.21005964326173
 30
0.0
 11
123.51404360633779
 21
951.21005964326173
 31
0.0
  0
LINE
  5
59C
  8
1外形線
 10
123.51404360633779
 20
951.21005964326173
 30
0.0
 11
132.51404360633779
 21
951.21005964326173
 31
0.0
  0
TEXT
  5
59D
  8
1外形線
 10
69.514043738672513
 20
981.21006108092206
 30
0.0
 40
10.0
  1
SWC-66
  7
KANJI
  0
ARC
  5
59E
  8
1外形線
 10
322.51404360633779
 20
906.21005964326184
 30
0.0
 40
45.0
 50
90.0
 51
180.0
  0
ARC
  5
59F
  8
1外形線
 10
322.51404360633779
 20
886.21005964326162
 30
0.0
 40
45.0
 50
180.0
 51
270.0
  0
LINE
  5
5A0
  8
1外形線
 10
244.51404360633779
 20
928.21005964326184
 30
0.0
 11
244.51404360633779
 21
896.21005964326184
 31
0.0
  0
LINE
  5
5A1
  8
1外形線
 10
177.51404360633779
 20
906.21005964326184
 30
0.0
 11
177.51404360633779
 21
886.21005964326162
 31
0.0
  0
LINE
  5
5A2
  8
1外形線
 10
223.51404360633779
 20
951.21005964326173
 30
0.0
 11
223.51404360633771
 21
896.21005964326184
 31
0.0
  0
LINE
  5
5A3
  8
1外形線
 10
217.51404360633771
 20
896.21005964326184
 30
0.0
 11
217.51404360633779
 21
948.21005964326173
 31
0.0
  0
LINE
  5
5A4
  8
1外形線
 10
247.51404360633779
 20
896.21005964326184
 30
0.0
 11
247.51404360633779
 21
927.21005964326184
 31
0.0
  0
LINE
  5
5A5
  8
1外形線
 10
207.51404360633779
 20
925.75064793510626
 30
0.0
 11
207.51404360633779
 21
896.21005964326184
 31
0.0
  0
LINE
  5
5A6
  8
1外形線
 10
217.51404360633771
 20
862.21005964326162
 30
0.0
 11
209.92569520092309
 21
863.72772932434441
 31
0.0
  0
ARC
  5
5A7
  8
1外形線
 10
210.51404360633771
 20
866.66947135141731
 30
0.0
 40
3.0
 50
180.0
 51
258.69006752598227
  0
LINE
  5
5A8
  8
1外形線
 10
207.51404360633771
 20
866.66947135141731
 30
0.0
 11
207.51404360633779
 21
896.21005964326184
 31
0.0
  0
ARC
  5
5A9
  8
1外形線
 10
244.51404360633771
 20
869.21005964326173
 30
0.0
 40
5.0
 50
270.0
 51
306.86989764584661
  0
LINE
  5
5AA
  8
1外形線
 10
217.51404360633771
 20
896.21005964326184
 30
0.0
 11
217.51404360633759
 21
844.21005964326184
 31
0.0
  0
LINE
  5
5AB
  8
1外形線
 10
223.51404360633759
 20
841.21005964326196
 30
0.0
 11
223.51404360633771
 21
896.21005964326184
 31
0.0
  0
ARC
  5
5AC
  8
1外形線
 10
220.51404360633759
 20
844.21005964326184
 30
0.0
 40
3.0
 50
180.0
 51
270.0
  0
LINE
  5
5AD
  8
1外形線
 10
220.51404360633759
 20
841.21005964326196
 30
0.0
 11
223.51404360633759
 21
841.21005964326196
 31
0.0
  0
LINE
  5
5AE
  8
1外形線
 10
244.51404360633771
 20
864.21005964326162
 30
0.0
 11
223.51404360633771
 21
864.21005964326184
 31
0.0
  0
LINE
  5
5AF
  8
1外形線
 10
244.51404360633771
 20
864.21005964326162
 30
0.0
 11
244.51404360633779
 21
896.21005964326184
 31
0.0
  0
LINE
  5
5B0
  8
1外形線
 10
247.51404360633779
 20
896.21005964326184
 30
0.0
 11
247.51404360633771
 21
865.21005964326162
 31
0.0
  0
LINE
  5
5B1
  8
1外形線
 10
217.51404360633779
 20
930.21005964326184
 30
0.0
 11
209.92569520092329
 21
928.69238996217905
 31
0.0
  0
ARC
  5
5B2
  8
1外形線
 10
210.51404360633779
 20
925.75064793510626
 30
0.0
 40
3.0
 50
101.3099324740176
 51
180.0
  0
LINE
  5
5B3
  8
1外形線
 10
244.51404360633779
 20
928.21005964326184
 30
0.0
 11
223.51404360633779
 21
928.21005964326184
 31
0.0
  0
ARC
  5
5B4
  8
1外形線
 10
244.51404360633779
 20
923.21005964326173
 30
0.0
 40
5.0
 50
53.13010235415333
 51
90.0
  0
LINE
  5
5B5
  8
1外形線
 10
220.51404360633779
 20
951.21005964326173
 30
0.0
 11
223.51404360633779
 21
951.21005964326173
 31
0.0
  0
ARC
  5
5B6
  8
1外形線
 10
220.51404360633779
 20
948.21005964326173
 30
0.0
 40
3.0
 50
90.0
 51
180.0
  0
ARC
  5
5B7
  8
1外形線
 10
331.51404360633779
 20
896.21005964326184
 30
0.0
 40
31.0
 50
159.16979928421841
 51
200.8302007157815
  0
ARC
  5
5B8
  8
1外形線
 10
331.51404360633779
 20
896.21005964326184
 30
0.0
 40
32.0
 50
159.45039206557979
 51
200.54960793441401
  0
ARC
  5
5B9
  8
1外形線
 10
331.51404360633779
 20
896.21005964326184
 30
0.0
 40
30.0
 50
165.16488841802459
 51
194.83511158197541
  0
LINE
  5
5BA
  8
1外形線
 10
279.51404360633779
 20
906.21005964326184
 30
0.0
 11
279.51404360633779
 21
886.21005964326162
 31
0.0
  0
LINE
  5
5BB
  8
1外形線
 10
277.51404360633779
 20
906.21005964326184
 30
0.0
 11
277.51404360633779
 21
886.21005964326162
 31
0.0
  0
LINE
  5
5BC
  8
1外形線
 10
294.51404360633779
 20
940.15118514021617
 30
0.0
 11
294.51404360633779
 21
852.2689341463074
 31
0.0
  0
LINE
  5
5BD
  8
1外形線
 10
295.51404360633779
 20
940.95196517534225
 30
0.0
 11
295.51404360633779
 21
851.46815411118121
 31
0.0
  0
LINE
  5
5BE
  8
1外形線
 10
296.51404360633779
 20
851.96097206417437
 30
0.0
 11
296.51404360633779
 21
940.45914722234943
 31
0.0
  0
LINE
  5
5BF
  8
1外形線
 10
366.51404360633779
 20
940.4591472223492
 30
0.0
 11
366.51404360633779
 21
851.96097206417414
 31
0.0
  0
LINE
  5
5C0
  8
1外形線
 10
367.51404360633779
 20
851.46815411118121
 30
0.0
 11
367.51404360633779
 21
940.95196517534225
 31
0.0
  0
LINE
  5
5C1
  8
1外形線
 10
368.51404360633779
 20
852.26893414630717
 30
0.0
 11
368.51404360633779
 21
940.15118514021594
 31
0.0
  0
ARC
  5
5C2
  8
1外形線
 10
331.51404360633779
 20
896.21005964326184
 30
0.0
 40
30.0
 50
345.16488841802459
 51
14.83511158197537
  0
ARC
  5
5C3
  8
1外形線
 10
331.51404360633779
 20
896.21005964326184
 30
0.0
 40
32.0
 50
339.45039206557971
 51
20.549607934414119
  0
ARC
  5
5C4
  8
1外形線
 10
331.51404360633779
 20
896.21005964326184
 30
0.0
 40
31.0
 50
339.16979928421841
 51
20.830200715781569
  0
LINE
  5
5C5
  8
1外形線
 10
322.51404360633779
 20
841.21005964326196
 30
0.0
 11
331.51404360633779
 21
841.21005964326196
 31
0.0
  0
LINE
  5
5C6
  8
1外形線
 10
322.51404360633779
 20
843.21005964326184
 30
0.0
 11
329.51404360633779
 21
843.21005964326184
 31
0.0
  0
LINE
  5
5C7
  8
1外形線
 10
330.51404360633779
 20
850.21005964326196
 30
0.0
 11
297.2158223249906
 21
850.21005964326196
 31
0.0
  0
LINE
  5
5C8
  8
1外形線
 10
330.51404360633779
 20
849.21005964326173
 30
0.0
 11
298.7022818067565
 21
849.21005964326173
 31
0.0
  0
LINE
  5
5C9
  8
1外形線
 10
329.51404360633779
 20
851.21005964326196
 30
0.0
 11
297.53405161274429
 21
851.21005964326196
 31
0.0
  0
LINE
  5
5CA
  8
1外形線
 10
331.51404360633779
 20
866.21005964326173
 30
0.0
 11
322.51404360633779
 21
866.21005964326173
 31
0.0
  0
ARC
  5
5CB
  8
1外形線
 10
331.51404360633779
 20
896.21005964326184
 30
0.0
 40
31.0
 50
255.40744939796841
 51
270.0
  0
ARC
  5
5CC
  8
1外形線
 10
331.51404360633779
 20
896.21005964326184
 30
0.0
 40
32.0
 50
255.6384884370855
 51
270.0
  0
ARC
  5
5CD
  8
1外形線
 10
322.51404360633779
 20
886.21005964326162
 30
0.0
 40
43.0
 50
180.0
 51
229.37067121667121
  0
ARC
  5
5CE
  8
1外形線
 10
322.51404360633779
 20
886.21005964326162
 30
0.0
 40
21.0
 50
183.3648789009209
 51
270.0
  0
ARC
  5
5CF
  8
1外形線
 10
322.51404360633779
 20
886.21005964326162
 30
0.0
 40
20.0
 50
180.0
 51
270.0
  0
ARC
  5
5D0
  8
1外形線
 10
322.51404360633779
 20
886.21005964326162
 30
0.0
 40
44.0
 50
234.90319877241831
 51
237.23624224114511
  0
ARC
  5
5D1
  8
1外形線
 10
322.51404360633779
 20
886.21005964326162
 30
0.0
 40
44.0
 50
230.47880364135989
 51
232.14709726765659
  0
ARC
  5
5D2
  8
1外形線
 10
322.51404360633779
 20
886.21005964326162
 30
0.0
 40
43.0
 50
232.79625600932661
 51
234.4840162354686
  0
ARC
  5
5D3
  8
1外形線
 10
322.51404360633779
 20
886.21005964326162
 30
0.0
 40
43.0
 50
239.36884629438501
 51
270.0
  0
CIRCLE
  5
5D4
  8
1外形線
 10
301.51404360633779
 20
856.21005964326184
 30
0.0
 40
2.0
  0
LINE
  5
5D5
  8
1外形線
 10
323.57678967314428
 20
865.21005964326173
 30
0.0
 11
322.51404360633779
 21
865.21005964326173
 31
0.0
  0
LINE
  5
5D6
  8
1外形線
 10
302.51404360633779
 20
886.21005964326184
 30
0.0
 11
302.51404360633779
 21
888.52891389539332
 31
0.0
  0
LINE
  5
5D7
  8
1外形線
 10
329.51404360633779
 20
864.27262079791899
 30
0.0
 11
329.51404360633779
 21
851.21005964326196
 31
0.0
  0
LINE
  5
5D8
  8
1外形線
 10
331.51404360633779
 20
861.21005964326162
 30
0.0
 11
331.51404360633779
 21
866.2100596432615
 31
0.0
  0
ARC
  5
5D9
  8
1外形線
 10
331.51404360633779
 20
896.21005964326184
 30
0.0
 40
32.0
 50
270.0
 51
284.36151156291442
  0
LINE
  5
5DA
  8
1外形線
 10
331.51404360633779
 20
866.21005964326196
 30
0.0
 11
331.51404360633779
 21
861.21005964326162
 31
0.0
  0
LINE
  5
5DB
  8
1外形線
 10
337.51404360633779
 20
864.77759235225824
 30
0.0
 11
337.51404360633779
 21
861.21005964326162
 31
0.0
  0
ARC
  5
5DC
  8
1外形線
 10
340.51404360633779
 20
886.21005964326162
 30
0.0
 40
20.0
 50
270.0
 51
0.0
  0
ARC
  5
5DD
  8
1外形線
 10
340.51404360633779
 20
886.21005964326162
 30
0.0
 40
21.0
 50
270.0
 51
356.63512109907902
  0
ARC
  5
5DE
  8
1外形線
 10
340.51404360633779
 20
886.21005964326184
 30
0.0
 40
43.0
 50
270.0
 51
300.63115370561479
  0
LINE
  5
5DF
  8
1外形線
 10
333.51404360633779
 20
851.21005964326173
 30
0.0
 11
365.49403559993141
 21
851.21005964326173
 31
0.0
  0
LINE
  5
5E0
  8
1外形線
 10
332.51404360633779
 20
850.21005964326173
 30
0.0
 11
365.81226488768499
 21
850.21005964326173
 31
0.0
  0
LINE
  5
5E1
  8
1外形線
 10
332.51404360633779
 20
849.21005964326173
 30
0.0
 11
364.32580540591908
 21
849.21005964326173
 31
0.0
  0
LINE
  5
5E2
  8
1外形線
 10
329.51404360633779
 20
849.21005964326173
 30
0.0
 11
329.51404360633779
 21
843.21005964326184
 31
0.0
  0
LINE
  5
5E3
  8
1外形線
 10
331.51404360633779
 20
858.2100596432615
 30
0.0
 11
331.51404360633779
 21
841.21005964326196
 31
0.0
  0
LINE
  5
5E4
  8
1外形線
 10
333.51404360633779
 20
849.21005964326173
 30
0.0
 11
333.51404360633779
 21
843.21005964326184
 31
0.0
  0
LINE
  5
5E5
  8
1外形線
 10
331.51404360633779
 20
857.21005964326162
 30
0.0
 11
331.51404360633779
 21
841.21005964326196
 31
0.0
  0
LINE
  5
5E6
  8
1外形線
 10
331.51404360633779
 20
841.21005964326196
 30
0.0
 11
340.51404360633779
 21
841.21005964326196
 31
0.0
  0
LINE
  5
5E7
  8
1外形線
 10
333.51404360633779
 20
843.21005964326184
 30
0.0
 11
340.51404360633779
 21
843.21005964326184
 31
0.0
  0
LINE
  5
5E8
  8
1外形線
 10
330.51404360633779
 20
850.21005964326196
 30
0.0
 11
330.51404360633779
 21
849.21005964326173
 31
0.0
  0
ARC
  5
5E9
  8
1外形線
 10
334.51404360633779
 20
861.21005964326162
 30
0.0
 40
1.0
 50
0.0
 51
180.0
  0
ARC
  5
5EA
  8
1外形線
 10
332.51404360633779
 20
861.21005964326162
 30
0.0
 40
3.0
 50
270.0
 51
0.0
  0
ARC
  5
5EB
  8
1外形線
 10
332.51404360633779
 20
861.21005964326162
 30
0.0
 40
1.0
 50
180.0
 51
0.0
  0
LINE
  5
5EC
  8
1外形線
 10
332.51404360633779
 20
858.2100596432615
 30
0.0
 11
331.51404360633779
 21
858.2100596432615
 31
0.0
  0
LINE
  5
5ED
  8
1外形線
 10
329.51404360633779
 20
857.71005964326184
 30
0.0
 11
329.51404360633779
 21
858.76343095655625
 31
0.0
  0
ARC
  5
5EE
  8
1外形線
 10
332.51404360633779
 20
857.21005964326162
 30
0.0
 40
1.0
 50
90.0
 51
180.0
  0
ARC
  5
5EF
  8
1外形線
 10
332.51404360633779
 20
861.21005964326162
 30
0.0
 40
1.0
 50
180.0
 51
0.0
  0
ARC
  5
5F0
  8
1外形線
 10
332.51404360633779
 20
861.21005964326162
 30
0.0
 40
3.0
 50
270.0
 51
0.0
  0
LINE
  5
5F1
  8
1外形線
 10
333.51404360633779
 20
856.31108015769519
 30
0.0
 11
333.51404360633779
 21
851.21005964326173
 31
0.0
  0
ARC
  5
5F2
  8
1外形線
 10
332.51404360633779
 20
861.21005964326162
 30
0.0
 40
5.0
 50
281.53695903281812
 51
0.0
  0
ARC
  5
5F3
  8
1外形線
 10
334.51404360633779
 20
861.21005964326162
 30
0.0
 40
1.0
 50
0.0
 51
180.0
  0
LINE
  5
5F4
  8
1外形線
 10
332.51404360633779
 20
850.21005964326173
 30
0.0
 11
332.51404360633779
 21
849.21005964326173
 31
0.0
  0
ARC
  5
5F5
  8
1外形線
 10
340.51404360633779
 20
886.21005964326162
 30
0.0
 40
43.0
 50
305.51598376453131
 51
307.20374399067339
  0
ARC
  5
5F6
  8
1外形線
 10
340.51404360633779
 20
886.21005964326162
 30
0.0
 40
44.0
 50
302.76375775885481
 51
305.09680122758158
  0
CIRCLE
  5
5F7
  8
1外形線
 10
361.51404360633779
 20
856.21005964326184
 30
0.0
 40
2.0
  0
ARC
  5
5F8
  8
1外形線
 10
340.51404360633779
 20
886.21005964326162
 30
0.0
 40
44.0
 50
307.85290273234318
 51
309.52119635864011
  0
LINE
  5
5F9
  8
1外形線
 10
331.51404360633779
 20
866.2100596432615
 30
0.0
 11
340.51404360633779
 21
866.2100596432615
 31
0.0
  0
ARC
  5
5FA
  8
1外形線
 10
331.51404360633779
 20
896.21005964326184
 30
0.0
 40
31.0
 50
270.0
 51
284.59255060203151
  0
LINE
  5
5FB
  8
1外形線
 10
339.45129753953131
 20
865.21005964326162
 30
0.0
 11
340.51404360633779
 21
865.21005964326162
 31
0.0
  0
LINE
  5
5FC
  8
1外形線
 10
360.51404360633779
 20
888.52891389539309
 30
0.0
 11
360.51404360633779
 21
886.21005964326184
 31
0.0
  0
LINE
  5
5FD
  8
1外形線
 10
331.51404360633779
 20
926.21005964326196
 30
0.0
 11
322.51404360633779
 21
926.21005964326196
 31
0.0
  0
ARC
  5
5FE
  8
1外形線
 10
331.51404360633779
 20
896.21005964326184
 30
0.0
 40
31.0
 50
90.0
 51
104.59255060203149
  0
ARC
  5
5FF
  8
1外形線
 10
331.51404360633779
 20
896.21005964326184
 30
0.0
 40
32.0
 50
90.0
 51
104.3615115629144
  0
ARC
  5
600
  8
1外形線
 10
330.51404360633779
 20
931.21005964326184
 30
0.0
 40
5.0
 50
101.5369590328181
 51
180.0
  0
LINE
  5
601
  8
1外形線
 10
330.51404360633779
 20
942.21005964326196
 30
0.0
 11
297.2158223249906
 21
942.21005964326196
 31
0.0
  0
LINE
  5
602
  8
1外形線
 10
329.51404360633779
 20
941.21005964326196
 30
0.0
 11
297.53405161274429
 21
941.21005964326196
 31
0.0
  0
LINE
  5
603
  8
1外形線
 10
331.51404360633779
 20
951.21005964326173
 30
0.0
 11
322.51404360633779
 21
951.21005964326173
 31
0.0
  0
LINE
  5
604
  8
1外形線
 10
329.51404360633779
 20
949.21005964326173
 30
0.0
 11
322.51404360633779
 21
949.21005964326173
 31
0.0
  0
LINE
  5
605
  8
1外形線
 10
330.51404360633779
 20
943.21005964326184
 30
0.0
 11
298.7022818067565
 21
943.21005964326184
 31
0.0
  0
ARC
  5
606
  8
1外形線
 10
322.51404360633779
 20
906.21005964326184
 30
0.0
 40
20.0
 50
90.0
 51
180.0
  0
ARC
  5
607
  8
1外形線
 10
322.51404360633779
 20
906.21005964326184
 30
0.0
 40
21.0
 50
90.0
 51
176.6351210990791
  0
ARC
  5
608
  8
1外形線
 10
322.51404360633779
 20
906.21005964326184
 30
0.0
 40
43.0
 50
130.6293287833287
 51
180.0
  0
ARC
  5
609
  8
1外形線
 10
322.51404360633779
 20
906.21005964326184
 30
0.0
 40
44.0
 50
127.8529027323431
 51
129.52119635864011
  0
ARC
  5
60A
  8
1外形線
 10
322.51404360633779
 20
906.21005964326184
 30
0.0
 40
43.0
 50
125.5159837645313
 51
127.2037439906733
  0
LINE
  5
60B
  8
1外形線
 10
302.51404360633779
 20
903.89120539113048
 30
0.0
 11
302.51404360633779
 21
906.21005964326184
 31
0.0
  0
CIRCLE
  5
60C
  8
1外形線
 10
301.51404360633779
 20
936.21005964326184
 30
0.0
 40
2.0
  0
LINE
  5
60D
  8
1外形線
 10
323.57678967314428
 20
927.21005964326184
 30
0.0
 11
322.51404360633779
 21
927.21005964326184
 31
0.0
  0
LINE
  5
60E
  8
1外形線
 10
325.51404360633779
 20
927.64252693426522
 30
0.0
 11
325.51404360633779
 21
931.21005964326184
 31
0.0
  0
ARC
  5
60F
  8
1外形線
 10
322.51404360633779
 20
906.21005964326184
 30
0.0
 40
44.0
 50
122.76375775885469
 51
125.09680122758159
  0
ARC
  5
610
  8
1外形線
 10
322.51404360633779
 20
906.21005964326184
 30
0.0
 40
43.0
 50
90.0
 51
120.63115370561469
  0
LINE
  5
611
  8
1外形線
 10
331.51404360633779
 20
935.21005964326184
 30
0.0
 11
331.51404360633779
 21
951.21005964326173
 31
0.0
  0
LINE
  5
612
  8
1外形線
 10
331.51404360633779
 20
934.21005964326196
 30
0.0
 11
331.51404360633779
 21
951.21005964326173
 31
0.0
  0
ARC
  5
613
  8
1外形線
 10
340.51404360633779
 20
906.21005964326184
 30
0.0
 40
20.0
 50
0.0
 51
90.0
  0
ARC
  5
614
  8
1外形線
 10
340.51404360633779
 20
906.21005964326184
 30
0.0
 40
21.0
 50
3.364878900920905
 51
90.0
  0
LINE
  5
615
  8
1外形線
 10
333.51404360633779
 20
941.21005964326173
 30
0.0
 11
365.49403559993141
 21
941.21005964326173
 31
0.0
  0
LINE
  5
616
  8
1外形線
 10
331.51404360633779
 20
926.21005964326196
 30
0.0
 11
340.51404360633779
 21
926.21005964326196
 31
0.0
  0
ARC
  5
617
  8
1外形線
 10
331.51404360633779
 20
896.21005964326184
 30
0.0
 40
32.0
 50
75.638488437085513
 51
90.0
  0
ARC
  5
618
  8
1外形線
 10
331.51404360633779
 20
896.21005964326184
 30
0.0
 40
31.0
 50
75.407449397968477
 51
90.0
  0
ARC
  5
619
  8
1外形線
 10
330.51404360633779
 20
931.21005964326184
 30
0.0
 40
3.0
 50
90.0
 51
180.0
  0
ARC
  5
61A
  8
1外形線
 10
330.51404360633779
 20
931.21005964326184
 30
0.0
 40
1.0
 50
0.0
 51
180.0
  0
ARC
  5
61B
  8
1外形線
 10
330.51404360633779
 20
935.21005964326184
 30
0.0
 40
1.0
 50
270.0
 51
0.0
  0
LINE
  5
61C
  8
1外形線
 10
329.51404360633779
 20
936.10903912882816
 30
0.0
 11
329.51404360633779
 21
941.21005964326196
 31
0.0
  0
ARC
  5
61D
  8
1外形線
 10
328.51404360633779
 20
931.21005964326184
 30
0.0
 40
1.0
 50
180.0
 51
0.0
  0
LINE
  5
61E
  8
1外形線
 10
331.51404360633779
 20
926.21005964326173
 30
0.0
 11
331.51404360633779
 21
931.21005964326184
 31
0.0
  0
LINE
  5
61F
  8
1外形線
 10
333.51404360633779
 20
934.71005964326184
 30
0.0
 11
333.51404360633779
 21
933.65668832996721
 31
0.0
  0
LINE
  5
620
  8
1外形線
 10
333.51404360633779
 20
928.14749848860436
 30
0.0
 11
333.51404360633779
 21
941.21005964326173
 31
0.0
  0
LINE
  5
621
  8
1外形線
 10
331.51404360633779
 20
931.21005964326184
 30
0.0
 11
331.51404360633779
 21
926.21005964326196
 31
0.0
  0
ARC
  5
622
  8
1外形線
 10
330.51404360633779
 20
931.21005964326184
 30
0.0
 40
3.0
 50
90.0
 51
180.0
  0
ARC
  5
623
  8
1外形線
 10
328.51404360633779
 20
931.21005964326184
 30
0.0
 40
1.0
 50
180.0
 51
0.0
  0
LINE
  5
624
  8
1外形線
 10
330.51404360633779
 20
934.21005964326196
 30
0.0
 11
331.51404360633779
 21
934.21005964326196
 31
0.0
  0
ARC
  5
625
  8
1外形線
 10
330.51404360633779
 20
931.21005964326184
 30
0.0
 40
1.0
 50
0.0
 51
180.0
  0
LINE
  5
626
  8
1外形線
 10
339.45129753953131
 20
927.21005964326184
 30
0.0
 11
340.51404360633779
 21
927.21005964326184
 31
0.0
  0
LINE
  5
627
  8
1外形線
 10
360.51404360633779
 20
906.21005964326184
 30
0.0
 11
360.51404360633779
 21
903.89120539113026
 31
0.0
  0
ARC
  5
628
  8
1外形線
 10
340.51404360633779
 20
906.21005964326184
 30
0.0
 40
43.0
 50
52.79625600932664
 51
54.48401623546863
  0
CIRCLE
  5
629
  8
1外形線
 10
361.51404360633779
 20
936.21005964326162
 30
0.0
 40
2.0
  0
ARC
  5
62A
  8
1外形線
 10
340.51404360633779
 20
906.21005964326184
 30
0.0
 40
44.0
 50
50.478803641359889
 51
52.147097267656811
  0
ARC
  5
62B
  8
1外形線
 10
340.51404360633779
 20
906.21005964326184
 30
0.0
 40
43.0
 50
59.368846294385222
 51
90.0
  0
LINE
  5
62C
  8
1外形線
 10
332.51404360633779
 20
943.21005964326173
 30
0.0
 11
364.32580540591908
 21
943.21005964326173
 31
0.0
  0
LINE
  5
62D
  8
1外形線
 10
332.51404360633779
 20
942.21005964326173
 30
0.0
 11
365.81226488768499
 21
942.21005964326173
 31
0.0
  0
LINE
  5
62E
  8
1外形線
 10
340.51404360633779
 20
949.21005964326173
 30
0.0
 11
333.51404360633779
 21
949.21005964326173
 31
0.0
  0
LINE
  5
62F
  8
1外形線
 10
340.51404360633779
 20
951.21005964326173
 30
0.0
 11
331.51404360633779
 21
951.21005964326173
 31
0.0
  0
LINE
  5
630
  8
1外形線
 10
329.51404360633779
 20
943.21005964326184
 30
0.0
 11
329.51404360633779
 21
949.2100596432615
 31
0.0
  0
LINE
  5
631
  8
1外形線
 10
330.51404360633779
 20
942.21005964326196
 30
0.0
 11
330.51404360633779
 21
943.21005964326184
 31
0.0
  0
LINE
  5
632
  8
1外形線
 10
333.51404360633779
 20
943.21005964326173
 30
0.0
 11
333.51404360633779
 21
949.21005964326173
 31
0.0
  0
LINE
  5
633
  8
1外形線
 10
332.51404360633779
 20
942.21005964326173
 30
0.0
 11
332.51404360633779
 21
943.21005964326173
 31
0.0
  0
ARC
  5
634
  8
1外形線
 10
340.51404360633779
 20
906.21005964326184
 30
0.0
 40
44.0
 50
54.903198772418349
 51
57.236242241145192
  0
LINE
  5
635
  8
1外形線
 10
383.565377361103
 20
687.71005964326082
 30
0.0
 11
383.565377361103
 21
670.21005964326071
 31
0.0
  0
LINE
  5
636
  8
1外形線
 10
409.565377361103
 20
669.21005964326059
 30
0.0
 11
409.565377361103
 21
687.71005964326048
 31
0.0
  0
LINE
  5
637
  8
1外形線
 10
407.565377361103
 20
669.21005964326071
 30
0.0
 11
407.565377361103
 21
687.71005964326059
 31
0.0
  0
ARC
  5
638
  8
1外形線
 10
352.06537736110351
 20
687.71005964326105
 30
0.0
 40
39.5
 50
322.98145003438498
 51
0.0
  0
ARC
  5
639
  8
1外形線
 10
352.06537736110351
 20
687.71005964326105
 30
0.0
 40
38.5
 50
322.72258643453222
 51
0.0
  0
LINE
  5
63A
  8
1外形線
 10
396.06537736110351
 20
687.71005964326014
 30
0.0
 11
396.06537736110261
 21
639.9397675367569
 31
0.0
  0
LINE
  5
63B
  8
1外形線
 10
397.06537736110351
 20
687.71005964326014
 30
0.0
 11
397.06537736110261
 21
639.54947974333186
 31
0.0
  0
LINE
  5
63C
  8
1外形線
 10
398.06537736110351
 20
687.71005964326014
 30
0.0
 11
398.06537736110261
 21
640.68375599206786
 31
0.0
  0
LINE
  5
63D
  8
1外形線
 10
425.06799056382857
 20
516.21005964326173
 30
0.0
 11
475.6659703102751
 21
516.21005964326173
 31
0.0
  0
LINE
  5
63E
  8
1外形線
 10
423.56799056382857
 20
518.21005964326173
 30
0.0
 11
475.73220617437579
 21
518.21005964326173
 31
0.0
  0
LINE
  5
63F
  8
1外形線
 10
423.56799056382857
 20
517.21005964326173
 30
0.0
 11
476.7896064453231
 21
517.21005964326173
 31
0.0
  0
LINE
  5
640
  8
1外形線
 10
425.06799056382857
 20
532.21005964326162
 30
0.0
 11
436.06799056382857
 21
532.21005964326162
 31
0.0
  0
LINE
  5
641
  8
1外形線
 10
423.06799056382857
 20
534.21005964326162
 30
0.0
 11
436.06799056382857
 21
534.21005964326162
 31
0.0
  0
LINE
  5
642
  8
1外形線
 10
410.06799056382857
 20
532.21005964326162
 30
0.0
 11
421.06799056382852
 21
532.21005964326173
 31
0.0
  0
LINE
  5
643
  8
1外形線
 10
410.06799056382857
 20
534.21005964326162
 30
0.0
 11
423.06799056382857
 21
534.21005964326162
 31
0.0
  0
LINE
  5
644
  8
1外形線
 10
421.06799056382852
 20
518.21005964326162
 30
0.0
 11
421.06799056382852
 21
532.21005964326173
 31
0.0
  0
LINE
  5
645
  8
1外形線
 10
422.56799056382857
 20
517.21005964326173
 30
0.0
 11
422.56799056382857
 21
518.21005964326162
 31
0.0
  0
LINE
  5
646
  8
1外形線
 10
423.56799056382857
 20
517.21005964326173
 30
0.0
 11
423.56799056382857
 21
518.21005964326173
 31
0.0
  0
LINE
  5
647
  8
1外形線
 10
425.06799056382857
 20
518.21005964326173
 30
0.0
 11
425.06799056382857
 21
532.21005964326162
 31
0.0
  0
ARC
  5
648
  8
1外形線
 10
436.06799056382857
 20
475.21005964326162
 30
0.0
 40
57.0
 50
48.97174563007912
 51
90.0
  0
ARC
  5
649
  8
1外形線
 10
436.06799056382857
 20
475.21005964326162
 30
0.0
 40
58.5
 50
45.88538145178552
 51
47.310827283381357
  0
ARC
  5
64A
  8
1外形線
 10
364.56537736110351
 20
669.21005964326071
 30
0.0
 40
44.0
 50
301.54026906741501
 51
303.94792652702421
  0
ARC
  5
64B
  8
1外形線
 10
364.565377361103
 20
669.21005964326093
 30
0.0
 40
43.0
 50
321.17548291851767
 51
0.0
  0
ARC
  5
64C
  8
1外形線
 10
364.565377361103
 20
669.21005964326093
 30
0.0
 40
43.0
 50
304.3525197704551
 51
317.10128281806573
  0
CIRCLE
  5
64D
  8
1外形線
 10
387.065377361103
 20
640.71005964326025
 30
0.0
 40
2.0
  0
ARC
  5
64E
  8
1外形線
 10
364.56537736110351
 20
669.21005964326071
 30
0.0
 40
44.0
 50
317.61538386920478
 51
319.58456097854719
  0
LINE
  5
64F
  8
1外形線
 10
398.06537736110261
 20
687.71005964326059
 30
0.0
 11
398.065377361103
 21
734.73636329445276
 31
0.0
  0
LINE
  5
650
  8
1外形線
 10
396.06537736110261
 20
687.71005964326059
 30
0.0
 11
396.065377361103
 21
735.48035174976383
 31
0.0
  0
LINE
  5
651
  8
1外形線
 10
397.06537736110261
 20
687.71005964326059
 30
0.0
 11
397.065377361103
 21
735.87063954318876
 31
0.0
  0
ARC
  5
652
  8
1外形線
 10
364.565377361103
 20
706.21005964326093
 30
0.0
 40
43.0
 50
0.0
 51
38.824517081486228
  0
ARC
  5
653
  8
1外形線
 10
352.06537736110261
 20
687.71005964326093
 30
0.0
 40
38.5
 50
0.0
 51
37.277413565458552
  0
ARC
  5
654
  8
1外形線
 10
352.06537736110261
 20
687.71005964326093
 30
0.0
 40
39.5
 50
0.0
 51
37.018549965611008
  0
LINE
  5
655
  8
1外形線
 10
383.565377361103
 20
687.71005964326082
 30
0.0
 11
383.565377361103
 21
705.21005964326071
 31
0.0
  0
LINE
  5
656
  8
1外形線
 10
407.565377361103
 20
706.21005964326071
 30
0.0
 11
407.565377361103
 21
687.71005964326059
 31
0.0
  0
LINE
  5
657
  8
1外形線
 10
409.565377361103
 20
706.21005964326071
 30
0.0
 11
409.565377361103
 21
687.71005964326059
 31
0.0
  0
ARC
  5
658
  8
1外形線
 10
364.565377361103
 20
706.21005964326093
 30
0.0
 40
43.0
 50
42.898717181934273
 51
55.647480229539461
  0
ARC
  5
659
  8
1外形線
 10
364.565377361103
 20
706.21005964326093
 30
0.0
 40
44.0
 50
56.052073472975728
 51
58.459730932584982
  0
CIRCLE
  5
65A
  8
1外形線
 10
387.065377361103
 20
734.71005964326071
 30
0.0
 40
2.0
  0
ARC
  5
65B
  8
1外形線
 10
364.565377361103
 20
706.21005964326093
 30
0.0
 40
44.0
 50
40.415439021452748
 51
42.384616130795251
  0
LINE
  5
65C
  8
1外形線
 10
385.51404360633779
 20
886.21005964326184
 30
0.0
 11
385.51404360633779
 21
906.21005964326184
 31
0.0
  0
LINE
  5
65D
  8
1外形線
 10
383.51404360633779
 20
886.21005964326184
 30
0.0
 11
383.51404360633779
 21
906.21005964326184
 31
0.0
  0
LINE
  5
65E
  8
1外形線
 10
640.84706393344675
 20
20.210059643261609
 30
0.0
 11
19.51404360633785
 21
20.210059643261609
 31
0.0
  0
LINE
  5
65F
  8
1外形線
 10
184.51404360633779
 20
50.210059643261609
 30
0.0
 11
159.51404360633779
 21
50.210059643261609
 31
0.0
  0
LINE
  5
660
  8
1外形線
 10
174.51404360633779
 20
86.210059643261616
 30
0.0
 11
159.51404360633779
 21
86.210059643261616
 31
0.0
  0
LINE
  5
661
  8
1外形線
 10
174.51404360633779
 20
90.210059643261616
 30
0.0
 11
159.51404360633779
 21
90.210059643261616
 31
0.0
  0
LINE
  5
662
  8
1外形線
 10
159.51404360633779
 20
50.210059643261609
 30
0.0
 11
159.51404360633779
 21
82.381632518515403
 31
0.0
  0
LINE
  5
663
  8
1外形線
 10
159.51404360633779
 20
81.210059643261616
 30
0.0
 11
159.51404360633779
 21
50.210059643261609
 31
0.0
  0
ARC
  5
664
  8
1外形線
 10
134.51404360633779
 20
115.2100596432616
 30
0.0
 40
65.0
 50
180.0
 51
270.0
  0
LINE
  5
665
  8
1外形線
 10
159.51404360633779
 20
50.210059643261609
 30
0.0
 11
134.51404360633779
 21
50.210059643261609
 31
0.0
  0
LINE
  5
666
  8
1外形線
 10
159.51404360633779
 20
90.210059643261616
 30
0.0
 11
159.51404360633779
 21
85.210059643261616
 31
0.0
  0
LINE
  5
667
  8
1外形線
 10
159.51404360633779
 20
90.210059643261616
 30
0.0
 11
159.51404360633779
 21
85.210059643261616
 31
0.0
  0
ARC
  5
668
  8
1外形線
 10
144.51404360633779
 20
115.2100596432616
 30
0.0
 40
25.0
 50
180.0
 51
270.0
  0
ARC
  5
669
  8
1外形線
 10
144.51404360633779
 20
115.2100596432616
 30
0.0
 40
29.0
 50
180.0
 51
270.0
  0
LINE
  5
66A
  8
1外形線
 10
159.51404360633779
 20
86.210059643261616
 30
0.0
 11
144.51404360633779
 21
86.210059643261616
 31
0.0
  0
ARC
  5
66B
  8
1外形線
 10
158.51404360633779
 20
85.210059643261616
 30
0.0
 40
3.0
 50
180.0
 51
289.47122063449189
  0
ARC
  5
66C
  8
1外形線
 10
158.51404360633779
 20
85.210059643261616
 30
0.0
 40
1.0
 50
180.0
 51
0.0
  0
ARC
  5
66D
  8
1外形線
 10
156.51404360633779
 20
85.210059643261616
 30
0.0
 40
1.0
 50
0.0
 51
180.0
  0
ARC
  5
66E
  8
1外形線
 10
158.51404360633779
 20
85.210059643261616
 30
0.0
 40
1.0
 50
180.0
 51
0.0
  0
ARC
  5
66F
  8
1外形線
 10
158.51404360633779
 20
81.210059643261616
 30
0.0
 40
1.0
 50
0.0
 51
90.0
  0
ARC
  5
670
  8
1外形線
 10
156.51404360633779
 20
85.210059643261616
 30
0.0
 40
1.0
 50
0.0
 51
180.0
  0
ARC
  5
671
  8
1外形線
 10
158.51404360633779
 20
85.210059643261616
 30
0.0
 40
3.0
 50
180.0
 51
270.0
  0
LINE
  5
672
  8
1外形線
 10
159.51404360633779
 20
90.210059643261616
 30
0.0
 11
144.51404360633779
 21
90.210059643261616
 31
0.0
  0
ARC
  5
673
  8
1外形線
 10
315.43169403663637
 20
53.710059643261623
 30
0.0
 40
3.5
 50
180.0
 51
270.0
  0
LINE
  5
674
  8
1外形線
 10
317.93169403663637
 20
50.210059643261609
 30
0.0
 11
317.93169403663637
 21
160.21005964326159
 31
0.0
  0
ARC
  5
675
  8
1外形線
 10
184.51404360633779
 20
115.2100596432616
 30
0.0
 40
65.0
 50
270.0
 51
0.0
  0
LINE
  5
676
  8
1外形線
 10
315.43169403663637
 20
50.210059643261609
 30
0.0
 11
317.93169403663637
 21
50.210059643261609
 31
0.0
  0
ARC
  5
677
  8
1外形線
 10
174.51404360633779
 20
115.2100596432616
 30
0.0
 40
29.0
 50
270.0
 51
0.0
  0
ARC
  5
678
  8
1外形線
 10
174.51404360633779
 20
115.2100596432616
 30
0.0
 40
25.0
 50
270.0
 51
0.0
  0
LINE
  5
679
  8
1外形線
 10
301.93169403663649
 20
90.669471351417201
 30
0.0
 11
301.93169403663649
 21
160.2100596432617
 31
0.0
  0
LINE
  5
67A
  8
1外形線
 10
341.93169403663649
 20
89.210059643261616
 30
0.0
 11
341.93169403663649
 21
160.2100596432617
 31
0.0
  0
LINE
  5
67B
  8
1外形線
 10
311.93169403663637
 20
160.2100596432617
 30
0.0
 11
311.93169403663637
 21
53.710059643261623
 31
0.0
  0
LINE
  5
67C
  8
1外形線
 10
338.93169403663637
 20
88.210059643261616
 30
0.0
 11
338.93169403663637
 21
160.21005964326159
 31
0.0
  0
LINE
  5
67D
  8
1外形線
 10
317.93169403663637
 20
88.210059643261616
 30
0.0
 11
338.93169403663637
 21
88.210059643261616
 31
0.0
  0
ARC
  5
67E
  8
1外形線
 10
304.93169403663637
 20
90.669471351417201
 30
0.0
 40
3.0
 50
180.0
 51
258.69006752598227
  0
LINE
  5
67F
  8
1外形線
 10
311.93169403663637
 20
86.210059643261616
 30
0.0
 11
304.34334563122172
 21
87.727729324344764
 31
0.0
  0
ARC
  5
680
  8
1外形線
 10
338.93169403663637
 20
93.210059643261616
 30
0.0
 40
5.0
 50
270.0
 51
306.86989764584661
  0
ARC
  5
681
  8
1外形線
 10
525.84706393344675
 20
115.2100596432618
 30
0.0
 40
65.0
 50
270.0
 51
0.0
  0
LINE
  5
682
  8
1外形線
 10
500.8470639334468
 20
50.210059643261843
 30
0.0
 11
500.8470639334468
 21
82.38163251851563
 31
0.0
  0
ARC
  5
683
  8
1外形線
 10
475.8470639334468
 20
115.2100596432618
 30
0.0
 40
63.0
 50
238.99728086612851
 51
270.0
  0
ARC
  5
684
  8
1外形線
 10
475.8470639334468
 20
115.2100596432618
 30
0.0
 40
65.0
 50
180.0
 51
270.0
  0
ARC
  5
685
  8
1外形線
 10
525.84706393344675
 20
115.2100596432618
 30
0.0
 40
63.0
 50
270.0
 51
301.00271913387138
  0
LINE
  5
686
  8
1外形線
 10
500.8470639334468
 20
81.210059643261843
 30
0.0
 11
500.8470639334468
 21
50.210059643261843
 31
0.0
  0
LINE
  5
687
  8
1外形線
 10
475.8470639334468
 20
50.210059643261843
 30
0.0
 11
500.8470639334468
 21
50.210059643261843
 31
0.0
  0
LINE
  5
688
  8
1外形線
 10
500.8470639334468
 20
50.210059643261843
 30
0.0
 11
525.84706393344675
 21
50.210059643261843
 31
0.0
  0
LINE
  5
689
  8
1外形線
 10
475.8470639334468
 20
52.21005964326185
 30
0.0
 11
498.84706393344669
 21
52.21005964326185
 31
0.0
  0
LINE
  5
68A
  8
1外形線
  6
CONTINUOUS
 10
500.34706393344669
 20
62.21005964326185
 30
0.0
 11
439.08771138202093
 21
62.21005964326185
 31
0.0
  0
LINE
  5
68B
  8
1外形線
  6
CONTINUOUS
 10
500.34706393344669
 20
61.210059643261843
 30
0.0
 11
440.57313588453178
 21
61.210059643261843
 31
0.0
  0
LINE
  5
68C
  8
1外形線
  6
CONTINUOUS
 10
498.84706393344669
 20
63.210059643261843
 30
0.0
 11
440.28022544588868
 21
63.210059643261843
 31
0.0
  0
ARC
  5
68D
  8
1外形線
 10
475.8470639334468
 20
115.2100596432618
 30
0.0
 40
63.0
 50
215.9505676196174
 51
235.62874397592179
  0
ARC
  5
68E
  8
1外形線
 10
475.8470639334468
 20
115.2100596432618
 30
0.0
 40
63.0
 50
180.0
 51
212.72554435862929
  0
ARC
  5
68F
  8
1外形線
 10
475.8470639334468
 20
115.2100596432618
 30
0.0
 40
64.5
 50
214.74412033996961
 51
216.27354445041391
  0
ARC
  5
690
  8
1外形線
 10
475.8470639334468
 20
115.2100596432618
 30
0.0
 40
64.5
 50
235.25587966003039
 51
236.84659158435991
  0
CIRCLE
  5
691
  8
1外形線
 10
446.84706393344669
 20
76.210059643261843
 30
0.0
 40
2.0
  0
ARC
  5
692
  8
1外形線
 10
485.84706393344669
 20
115.2100596432618
 30
0.0
 40
25.0
 50
180.0
 51
220.19411431332571
  0
LINE
  5
693
  8
1外形線
  6
CONTINUOUS
 10
501.34706393344669
 20
62.21005964326185
 30
0.0
 11
562.60641648487251
 21
62.21005964326185
 31
0.0
  0
LINE
  5
694
  8
1外形線
  6
CONTINUOUS
 10
502.84706393344669
 20
63.210059643261843
 30
0.0
 11
561.41390242100465
 21
63.210059643261843
 31
0.0
  0
LINE
  5
695
  8
1外形線
  6
CONTINUOUS
 10
501.34706393344669
 20
61.210059643261843
 30
0.0
 11
561.1209919823616
 21
61.210059643261843
 31
0.0
  0
LINE
  5
696
  8
1外形線
 10
500.8470639334468
 20
90.210059643261829
 30
0.0
 11
500.8470639334468
 21
85.210059643261829
 31
0.0
  0
LINE
  5
697
  8
1外形線
 10
500.8470639334468
 20
90.210059643261829
 30
0.0
 11
500.8470639334468
 21
85.210059643261829
 31
0.0
  0
LINE
  5
698
  8
1外形線
 10
502.84706393344669
 20
52.21005964326185
 30
0.0
 11
525.84706393344675
 21
52.21005964326185
 31
0.0
  0
LINE
  5
699
  8
1外形線
 10
498.84706393344669
 20
87.753175912314745
 30
0.0
 11
498.84706393344669
 21
63.21005964326207
 31
0.0
  0
LINE
  5
69A
  8
1外形線
 10
502.84706393344669
 20
80.311080157695315
 30
0.0
 11
502.84706393344669
 21
63.210059643261843
 31
0.0
  0
LINE
  5
69B
  8
1外形線
 10
500.34706393344669
 20
61.21005964326207
 30
0.0
 11
500.34706393344669
 21
62.21005964326185
 31
0.0
  0
LINE
  5
69C
  8
1外形線
 10
498.84706393344669
 20
61.21005964326207
 30
0.0
 11
498.84706393344669
 21
52.21005964326185
 31
0.0
  0
LINE
  5
69D
  8
1外形線
 10
501.34706393344669
 20
62.21005964326185
 30
0.0
 11
501.34706393344669
 21
61.210059643261843
 31
0.0
  0
LINE
  5
69E
  8
1外形線
 10
502.84706393344669
 20
61.210059643261843
 30
0.0
 11
502.84706393344669
 21
52.21005964326185
 31
0.0
  0
ARC
  5
69F
  8
1外形線
 10
501.84706393344669
 20
85.210059643261829
 30
0.0
 40
1.0
 50
180.0
 51
0.0
  0
ARC
  5
6A0
  8
1外形線
 10
501.84706393344669
 20
85.210059643261829
 30
0.0
 40
3.0
 50
180.0
 51
0.0
  0
ARC
  5
6A1
  8
1外形線
 10
501.84706393344669
 20
85.210059643261829
 30
0.0
 40
1.0
 50
180.0
 51
0.0
  0
ARC
  5
6A2
  8
1外形線
 10
501.84706393344669
 20
85.210059643261829
 30
0.0
 40
3.0
 50
270.0
 51
0.0
  0
ARC
  5
6A3
  8
1外形線
 10
498.34706393344669
 20
87.753175912314745
 30
0.0
 40
0.5
 50
0.0
 51
88.023891714283906
  0
ARC
  5
6A4
  8
1外形線
 10
501.84706393344669
 20
81.210059643261843
 30
0.0
 40
1.0
 50
90.0
 51
180.0
  0
ARC
  5
6A5
  8
1外形線
 10
503.84706393344669
 20
85.210059643261829
 30
0.0
 40
1.0
 50
0.0
 51
180.0
  0
LINE
  5
6A6
  8
1外形線
 10
506.84706393344669
 20
85.210059643261829
 30
0.0
 11
506.84706393344669
 21
88.002026849119034
 31
0.0
  0
ARC
  5
6A7
  8
1外形線
 10
507.34706393344669
 20
88.002026849119034
 30
0.0
 40
0.5
 50
95.143769729507454
 51
180.0
  0
ARC
  5
6A8
  8
1外形線
 10
507.34706393344669
 20
88.002026849119034
 30
0.0
 40
0.5
 50
95.143769729500875
 51
180.0
  0
ARC
  5
6A9
  8
1外形線
 10
503.84706393344669
 20
85.210059643261829
 30
0.0
 40
1.0
 50
0.0
 51
180.0
  0
ARC
  5
6AA
  8
1外形線
 10
501.84706393344669
 20
85.210059643261829
 30
0.0
 40
5.0
 50
281.53695903281812
 51
0.0
  0
ARC
  5
6AB
  8
1外形線
 10
515.84706393344675
 20
115.2100596432618
 30
0.0
 40
25.0
 50
319.80588568667417
 51
0.0
  0
ARC
  5
6AC
  8
1外形線
 10
525.84706393344675
 20
115.2100596432618
 30
0.0
 40
63.0
 50
327.27445564137059
 51
0.0
  0
ARC
  5
6AD
  8
1外形線
 10
525.84706393344675
 20
115.2100596432618
 30
0.0
 40
63.0
 50
304.37125602407809
 51
324.04943238038248
  0
ARC
  5
6AE
  8
1外形線
 10
525.84706393344675
 20
115.2100596432618
 30
0.0
 40
64.5
 50
303.15340841564
 51
304.74412033996953
  0
CIRCLE
  5
6AF
  8
1外形線
 10
554.84706393344675
 20
76.210059643261843
 30
0.0
 40
2.0
  0
ARC
  5
6B0
  8
1外形線
 10
525.84706393344675
 20
115.2100596432618
 30
0.0
 40
64.5
 50
323.72645554958598
 51
325.25587966003042
  0
ENDSEC
  0
EOF
