  0
SECTION
  2
HEADER
  9
$ACADVER
  1
AC1009
  9
$INSBASE
 10
0.0
 20
0.0
 30
0.0
  9
$EXTMIN
 10
22.67395119959723
 20
22.31034922822186
 30
-0.0015258207003583
  9
$EXTMAX
 10
484.70855818212561
 20
535.33960057834588
 30
0.0000000349246037
  9
$LIMMIN
 10
0.0
 20
0.0
  9
$LIMMAX
 10
420.0
 20
297.0
  9
$ORTHOMODE
 70
     0
  9
$REGENMODE
 70
     1
  9
$FILLMODE
 70
     1
  9
$QTEXTMODE
 70
     0
  9
$MIRRTEXT
 70
     1
  9
$DRAGMODE
 70
     2
  9
$LTSCALE
 40
1.0
  9
$OSMODE
 70
    37
  9
$ATTMODE
 70
     1
  9
$TEXTSIZE
 40
2.5
  9
$TRACEWID
 40
1.0
  9
$TEXTSTYLE
  7
STANDARD
  9
$CLAYER
  8
0
  9
$CELTYPE
  6
BYLAYER
  9
$CECOLOR
 62
   256
  9
$DIMSCALE
 40
1.0
  9
$DIMASZ
 40
2.5
  9
$DIMEXO
 40
0.625
  9
$DIMDLI
 40
3.75
  9
$DIMRND
 40
0.0
  9
$DIMDLE
 40
0.0
  9
$DIMEXE
 40
1.25
  9
$DIMTP
 40
0.0
  9
$DIMTM
 40
0.0
  9
$DIMTXT
 40
2.5
  9
$DIMCEN
 40
2.5
  9
$DIMTSZ
 40
0.0
  9
$DIMTOL
 70
     0
  9
$DIMLIM
 70
     0
  9
$DIMTIH
 70
     0
  9
$DIMTOH
 70
     0
  9
$DIMSE1
 70
     0
  9
$DIMSE2
 70
     0
  9
$DIMTAD
 70
     1
  9
$DIMZIN
 70
     8
  9
$DIMBLK
  1

  9
$DIMASO
 70
     1
  9
$DIMSHO
 70
     1
  9
$DIMPOST
  1

  9
$DIMAPOST
  1

  9
$DIMALT
 70
     0
  9
$DIMALTD
 70
     3
  9
$DIMALTF
 40
0.03937007874016
  9
$DIMLFAC
 40
1.0
  9
$DIMTOFL
 70
     1
  9
$DIMTVP
 40
0.0
  9
$DIMTIX
 70
     0
  9
$DIMSOXD
 70
     0
  9
$DIMSAH
 70
     0
  9
$DIMBLK1
  1

  9
$DIMBLK2
  1

  9
$DIMSTYLE
  2
ISO-25
  9
$DIMCLRD
 70
     0
  9
$DIMCLRE
 70
     0
  9
$DIMCLRT
 70
     0
  9
$DIMTFAC
 40
1.0
  9
$DIMGAP
 40
0.625
  9
$LUNITS
 70
     2
  9
$LUPREC
 70
     4
  9
$SKETCHINC
 40
1.0
  9
$FILLETRAD
 40
10.0
  9
$AUNITS
 70
     0
  9
$AUPREC
 70
     0
  9
$MENU
  1
.
  9
$ELEVATION
 40
0.0
  9
$PELEVATION
 40
0.0
  9
$THICKNESS
 40
0.0
  9
$LIMCHECK
 70
     0
  9
$BLIPMODE
 70
     0
  9
$CHAMFERA
 40
10.0
  9
$CHAMFERB
 40
10.0
  9
$SKPOLY
 70
     0
  9
$TDCREATE
 40
2452216.489204213
  9
$TDUPDATE
 40
2452216.4896240272
  9
$TDINDWG
 40
0.0004202778
  9
$TDUSRTIMER
 40
0.0004202778
  9
$USRTIMER
 70
     1
  9
$ANGBASE
 50
0.0
  9
$ANGDIR
 70
     0
  9
$PDMODE
 70
     0
  9
$PDSIZE
 40
0.0
  9
$PLINEWID
 40
0.0
  9
$COORDS
 70
     1
  9
$SPLFRAME
 70
     0
  9
$SPLINETYPE
 70
     6
  9
$SPLINESEGS
 70
     8
  9
$ATTDIA
 70
     0
  9
$ATTREQ
 70
     1
  9
$HANDLING
 70
-16383
  9
$HANDSEED
  5
5FD
  9
$SURFTAB1
 70
     6
  9
$SURFTAB2
 70
     6
  9
$SURFTYPE
 70
     6
  9
$SURFU
 70
     6
  9
$SURFV
 70
     6
  9
$UCSNAME
  2

  9
$UCSORG
 10
0.0
 20
0.0
 30
0.0
  9
$UCSXDIR
 10
1.0
 20
0.0
 30
0.0
  9
$UCSYDIR
 10
0.0
 20
1.0
 30
0.0
  9
$PUCSNAME
  2

  9
$PUCSORG
 10
0.0
 20
0.0
 30
0.0
  9
$PUCSXDIR
 10
1.0
 20
0.0
 30
0.0
  9
$PUCSYDIR
 10
0.0
 20
1.0
 30
0.0
  9
$USERI1
 70
     0
  9
$USERI2
 70
     0
  9
$USERI3
 70
     0
  9
$USERI4
 70
     0
  9
$USERI5
 70
     0
  9
$USERR1
 40
0.0
  9
$USERR2
 40
0.0
  9
$USERR3
 40
0.0
  9
$USERR4
 40
0.0
  9
$USERR5
 40
0.0
  9
$WORLDVIEW
 70
     1
  9
$SHADEDGE
 70
     3
  9
$SHADEDIF
 70
    70
  9
$TILEMODE
 70
     1
  9
$MAXACTVP
 70
    64
  9
$PLIMCHECK
 70
     0
  9
$PEXTMIN
 10
1.0000000000000000E+020
 20
1.0000000000000000E+020
 30
1.0000000000000000E+020
  9
$PEXTMAX
 10
-1.0000000000000000E+020
 20
-1.0000000000000000E+020
 30
-1.0000000000000000E+020
  9
$PLIMMIN
 10
0.0
 20
0.0
  9
$PLIMMAX
 10
420.0
 20
297.0
  9
$UNITMODE
 70
     0
  9
$VISRETAIN
 70
     1
  9
$PLINEGEN
 70
     0
  9
$PSLTSCALE
 70
     1
  0
ENDSEC
  0
SECTION
  2
TABLES
  0
TABLE
  2
VPORT
 70
     3
  0
VPORT
  2
*ACTIVE
 70
     0
 10
0.0
 20
0.0
 11
1.0
 21
1.0
 12
253.6912546908614
 22
278.82497490328387
 13
0.0
 23
0.0
 14
10.0
 24
10.0
 15
10.0
 25
10.0
 16
0.0
 26
0.0
 36
1.0
 17
0.0
 27
0.0
 37
0.0
 40
516.67206260231433
 41
1.430094786729857
 42
50.0
 43
0.0
 44
0.0
 50
0.0
 51
0.0
 71
     0
 72
   100
 73
     1
 74
     3
 75
     0
 76
     0
 77
     0
 78
     0
  0
ENDTAB
  0
TABLE
  2
LTYPE
 70
     2
  0
LTYPE
  2
CONTINUOUS
 70
     0
  3
Solid line
 72
    65
 73
     0
 40
0.0
  0
LTYPE
  2
HIDDEN2
 70
     0
  3
Hidden (.5x) _ _ _ _ _ _ _ _ _ _ _ _ _ _ _ _ _
 72
    65
 73
     2
 40
4.7624999999999993
 49
3.1749999999999989
 49
-1.587499999999999
  0
ENDTAB
  0
TABLE
  2
LAYER
 70
     2
  0
LAYER
  2
0
 70
     0
 62
     7
  6
CONTINUOUS
  0
LAYER
  2
1外形線
 70
     0
 62
     3
  6
CONTINUOUS
  0
ENDTAB
  0
TABLE
  2
STYLE
 70
     2
  0
STYLE
  2
STANDARD
 70
     0
 40
0.0
 41
1.0
 50
0.0
 71
     0
 42
2.5
  3
txt
  4

  0
STYLE
  2
KANJI
 70
     0
 40
0.0
 41
1.0
 50
0.0
 71
     0
 42
2.5
  3
simplex.shx
  4
extfont.shx
  0
ENDTAB
  0
TABLE
  2
VIEW
 70
     0
  0
ENDTAB
  0
TABLE
  2
UCS
 70
     0
  0
ENDTAB
  0
TABLE
  2
APPID
 70
     1
  0
APPID
  2
ACAD
 70
     0
  0
ENDTAB
  0
TABLE
  2
DIMSTYLE
 70
     2
  0
DIMSTYLE
  2
ISO-25
 70
     0
  3

  4

  5

  6

  7

 40
1.0
 41
2.5
 42
0.625
 43
3.75
 44
1.25
 45
0.0
 46
0.0
 47
0.0
 48
0.0
140
2.5
141
2.5
142
0.0
143
0.03937007874016
144
1.0
145
0.0
146
1.0
147
0.625
 71
     0
 72
     0
 73
     0
 74
     0
 75
     0
 76
     0
 77
     1
 78
     8
170
     0
171
     3
172
     1
173
     0
174
     0
175
     0
176
     0
177
     0
178
     0
  0
DIMSTYLE
  2
STANDARD
 70
     0
  3

  4

  5

  6

  7

 40
1.0
 41
0.18
 42
0.0625
 43
0.38
 44
0.18
 45
0.0
 46
0.0
 47
0.0
 48
0.0
140
0.18
141
0.09
142
0.0
143
25.399999999999999
144
1.0
145
0.0
146
1.0
147
0.09
 71
     0
 72
     0
 73
     1
 74
     1
 75
     0
 76
     0
 77
     0
 78
     0
170
     0
171
     2
172
     0
173
     0
174
     0
175
     0
176
     0
177
     0
178
     0
  0
ENDTAB
  0
ENDSEC
  0
SECTION
  2
BLOCKS
  0
BLOCK
  8
0
  2
$MODEL_SPACE
 70
     0
 10
0.0
 20
0.0
 30
0.0
  3
$MODEL_SPACE
  1

  0
ENDBLK
  5
21
  8
0
  0
BLOCK
 67
     1
  8
0
  2
$PAPER_SPACE
 70
     0
 10
0.0
 20
0.0
 30
0.0
  3
$PAPER_SPACE
  1

  0
ENDBLK
  5
1D
 67
     1
  8
0
  0
BLOCK
  8
0
  2
2
 70
     0
 10
0.0
 20
0.0
 30
0.0
  3
2
  1

  0
INSERT
  5
2C
  8
0
  6
CONTINUOUS
  2
*U3
 10
0.0
 20
0.0
 30
0.0
1001
ACAD
1002
{
1000
R14_HATCH_DATA
1000
2C
1011
1.0
1021
3.6407190074888659E+059
1031
6.8543538185950722E+025
1021
0.0
1031
0.0
1011
0.0
1021
3.6407190074888659E+059
1031
6.8543538185950722E+025
1021
1.0
1031
0.0
1011
0.0
1021
3.6407190074888659E+059
1031
6.8543538185950722E+025
1021
0.0
1031
1.0
1040
0.0
1010
0.0
1020
0.0
1030
1.0
1000
SOLID
1070
     1
1070
     1
1071
        1
1071
        7
1070
     0
1070
     1
1071
        3
1040
0.0000000000000284
1040
0.0
1040
-0.899999999998343
1040
0.2411542731875897
1040
-0.8999999999983572
1040
-0.2411542731875613
1071
        3
1005
2F
1005
2D
1005
30
1070
     0
1070
     1
1040
0.0028941747346077
1071
        1
1040
-0.5303136156475148
1040
-0.0796654556697263
1040
0.0
1002
}
  0
LINE
  5
2D
  8
0
 10
-0.8999999999983572
 20
0.2411542731879876
 30
0.0
 11
-0.8999999999983572
 21
-0.2411542731880445
 31
0.0
  0
LINE
  5
2E
  8
0
 10
-0.9999999999983515
 20
0.0
 30
0.0
 11
0.0
 21
0.0
 31
0.0
  0
LINE
  5
2F
  8
0
 10
-0.8999999999984424
 20
0.2411542731875897
 30
0.0
 11
0.0
 21
0.0
 31
0.0
  0
LINE
  5
30
  8
0
 10
-0.8999999999984424
 20
-0.2411542731875897
 30
0.0
 11
0.0
 21
0.0
 31
0.0
  0
ENDBLK
  5
32
  8
0
  0
BLOCK
  8
0
  2
*U3
 70
     1
 10
0.0
 20
0.0
 30
0.0
  3
*U3
  1

  0
SOLID
  5
4F4
  8
0
  6
CONTINUOUS
 10
-0.5999999999988905
 20
0.0000000000000095
 30
0.0
 11
0.0000000000000284
 21
0.0
 31
0.0
 12
-0.899999999998343
 22
0.2411542731875897
 32
0.0
 13
-0.899999999998343
 23
0.2411542731875897
 33
0.0
210
0.0
220
0.0
230
1.0
  0
SOLID
  5
4F5
  8
0
  6
CONTINUOUS
 10
-0.5999999999988905
 20
0.0000000000000095
 30
0.0
 11
-0.899999999998343
 21
0.2411542731875897
 31
0.0
 12
-0.8999999999983572
 22
-0.2411542731875613
 32
0.0
 13
-0.8999999999983572
 23
-0.2411542731875613
 33
0.0
  0
SOLID
  5
4F6
  8
0
  6
CONTINUOUS
 10
-0.5999999999988905
 20
0.0000000000000095
 30
0.0
 11
-0.8999999999983572
 21
-0.2411542731875613
 31
0.0
 12
0.0000000000000284
 22
0.0
 32
0.0
 13
0.0000000000000284
 23
0.0
 33
0.0
210
0.0
220
0.0
230
1.0
  0
ENDBLK
  5
4F8
  8
0
  0
ENDSEC
  0
SECTION
  2
ENTITIES
  0
LINE
  5
294
  8
1外形線
 10
484.67848499818501
 20
22.318934871922121
 30
0.0
 11
22.678484998185009
 21
22.318934871922121
 31
0.0
  0
LINE
  5
295
  8
1外形線
 10
22.678484998185009
 20
535.31893487192212
 30
0.0
 11
484.67848499818501
 21
535.31893487192212
 31
0.0
  0
LINE
  5
296
  8
1外形線
 10
137.17848499818501
 20
455.31893487192212
 30
0.0
 11
167.67848499818501
 21
455.31893487192212
 31
0.0
  0
LINE
  5
297
  8
1外形線
 10
107.678484998185
 20
364.31893487192212
 30
0.0
 11
262.67848499818513
 21
364.31893487192212
 31
0.0
  0
LINE
  5
298
  8
1外形線
 10
107.678484998185
 20
443.31893487192212
 30
0.0
 11
262.67848499818513
 21
443.31893487192212
 31
0.0
  0
LINE
  5
299
  8
1外形線
 10
137.17848499818501
 20
352.31893487192212
 30
0.0
 11
167.67848499818501
 21
352.31893487192212
 31
0.0
  0
LINE
  5
29A
  8
1外形線
 10
136.67848499818501
 20
207.3189348719221
 30
0.0
 11
178.67848499818501
 21
207.3189348719221
 31
0.0
  0
LINE
  5
29B
  8
1外形線
 10
223.97848499818471
 20
239.3189348719221
 30
0.0
 11
141.67848499818501
 21
217.26671633484059
 31
0.0
  0
LINE
  5
29C
  8
1外形線
 10
136.67848499818501
 20
205.3189348719221
 30
0.0
 11
301.17848499818501
 21
205.3189348719221
 31
0.0
  0
LINE
  5
29D
  8
1外形線
 10
134.82635729546729
 20
152.81893487192229
 30
0.0
 11
159.24104900076631
 21
152.81893487192229
 31
0.0
  0
LINE
  5
29E
  8
1外形線
 10
137.1784849981849
 20
175.3189348719221
 30
0.0
 11
167.67848499818481
 21
175.3189348719221
 31
0.0
  0
CIRCLE
  5
29F
  8
1外形線
 10
162.20848499818459
 20
123.8189348719221
 30
0.0
 40
3.5
  0
LINE
  5
2A0
  8
1外形線
 10
134.82635729546729
 20
94.818934871921897
 30
0.0
 11
159.24104900076631
 21
94.818934871921897
 31
0.0
  0
LINE
  5
2A1
  8
1外形線
 10
137.1784849981849
 20
72.318934871922124
 30
0.0
 11
167.67848499818481
 21
72.318934871922124
 31
0.0
  0
ARC
  5
2A2
  8
1外形線
 10
146.14848499818461
 20
109.348934871922
 30
0.0
 40
19.558530930560721
 50
270.0
 51
0.0
  0
ARC
  5
2A3
  8
1外形線
 10
146.14848499818461
 20
109.348934871922
 30
0.0
 40
21.321800737645269
 50
270.0
 51
0.0
  0
ARC
  5
2A4
  8
1外形線
 10
146.14848499818461
 20
138.28893487192209
 30
0.0
 40
19.558530930560721
 50
0.0
 51
90.0
  0
ARC
  5
2A5
  8
1外形線
 10
146.14848499818461
 20
138.28893487192209
 30
0.0
 40
21.321800737645269
 50
0.0
 51
90.0
  0
ARC
  5
2A6
  8
1外形線
 10
149.1784849981849
 20
123.8189348719221
 30
0.0
 40
37.5
 50
270.0
 51
90.0
  0
LINE
  5
2A7
  8
1外形線
 10
92.178484998185013
 20
272.31893487192212
 30
0.0
 11
262.67848499818462
 21
272.31893487192212
 31
0.0
  0
LINE
  5
2A8
  8
1外形線
 10
167.9552947153652
 20
322.01508993216618
 30
0.0
 11
116.0300974800611
 21
312.85927668097372
 31
0.0
  0
LINE
  5
2A9
  8
1外形線
 10
132.42848499818481
 20
136.8189348719221
 30
0.0
 11
165.70701592874579
 21
136.8189348719221
 31
0.0
  0
LINE
  5
2AA
  8
1外形線
 10
132.42848499818481
 20
136.81893487192229
 30
0.0
 11
165.70701592874579
 21
136.81893487192229
 31
0.0
  0
LINE
  5
2AB
  8
1外形線
 10
132.42848499818481
 20
135.31893487192229
 30
0.0
 11
165.70701592874579
 21
135.31893487192229
 31
0.0
  0
LINE
  5
2AC
  8
1外形線
 10
132.42848499818481
 20
105.3189348719218
 30
0.0
 11
165.287325928651
 21
105.3189348719218
 31
0.0
  0
LINE
  5
2AD
  8
1外形線
 10
132.42848499818481
 20
103.8189348719221
 30
0.0
 11
164.9089549326425
 21
103.8189348719221
 31
0.0
  0
LINE
  5
2AE
  8
1外形線
 10
132.42848499818481
 20
103.8189348719219
 30
0.0
 11
164.9089549326425
 21
103.8189348719219
 31
0.0
  0
LINE
  5
2AF
  8
1外形線
 10
132.42848499818481
 20
100.3189348719221
 30
0.0
 11
163.4976991637225
 21
100.3189348719218
 31
0.0
  0
LINE
  5
2B0
  8
1外形線
 10
132.42848499818481
 20
100.3189348719218
 30
0.0
 11
163.4976991637225
 21
100.3189348719218
 31
0.0
  0
LINE
  5
2B1
  8
1外形線
 10
132.42848499818481
 20
101.8189348719219
 30
0.0
 11
164.19939168349299
 21
101.8189348719219
 31
0.0
  0
LINE
  5
2B2
  8
1外形線
 10
132.42848499818481
 20
107.3189348719221
 30
0.0
 11
165.60138278133519
 21
107.3189348719221
 31
0.0
  0
LINE
  5
2B3
  8
1外形線
 10
132.42848499818481
 20
107.3189348719219
 30
0.0
 11
165.60138278133519
 21
107.3189348719219
 31
0.0
  0
LINE
  5
2B4
  8
1外形線
 10
132.42848499818481
 20
110.8189348719221
 30
0.0
 11
165.70701592874579
 21
110.8189348719221
 31
0.0
  0
LINE
  5
2B5
  8
1外形線
 10
132.42848499818481
 20
108.8189348719218
 30
0.0
 11
165.69983360030699
 21
108.8189348719218
 31
0.0
  0
LINE
  5
2B6
  8
1外形線
 10
132.42848499818481
 20
110.8189348719218
 30
0.0
 11
165.70701592874579
 21
110.8189348719218
 31
0.0
  0
LINE
  5
2B7
  8
1外形線
 10
132.42848499818481
 20
114.3189348719221
 30
0.0
 11
165.70701592874579
 21
114.3189348719221
 31
0.0
  0
LINE
  5
2B8
  8
1外形線
 10
132.42848499818481
 20
112.3189348719219
 30
0.0
 11
165.70701592874579
 21
112.3189348719219
 31
0.0
  0
LINE
  5
2B9
  8
1外形線
 10
132.42848499818481
 20
114.3189348719219
 30
0.0
 11
165.70701592874579
 21
114.3189348719219
 31
0.0
  0
LINE
  5
2BA
  8
1外形線
 10
132.42848499818481
 20
117.8189348719221
 30
0.0
 11
165.70701592874579
 21
117.8189348719221
 31
0.0
  0
LINE
  5
2BB
  8
1外形線
 10
132.42848499818481
 20
115.8189348719218
 30
0.0
 11
165.70701592874579
 21
115.8189348719218
 31
0.0
  0
LINE
  5
2BC
  8
1外形線
 10
132.42848499818481
 20
117.8189348719218
 30
0.0
 11
165.70701592874579
 21
117.8189348719218
 31
0.0
  0
LINE
  5
2BD
  8
1外形線
 10
132.42848499818481
 20
119.3189348719218
 30
0.0
 11
165.70701592874579
 21
119.3189348719218
 31
0.0
  0
LINE
  5
2BE
  8
1外形線
 10
132.42848499818481
 20
133.3189348719221
 30
0.0
 11
165.70701592874579
 21
133.3189348719221
 31
0.0
  0
LINE
  5
2BF
  8
1外形線
 10
132.42848499818481
 20
133.31893487192229
 30
0.0
 11
165.70701592874579
 21
133.31893487192229
 31
0.0
  0
LINE
  5
2C0
  8
1外形線
 10
132.42848499818481
 20
129.8189348719221
 30
0.0
 11
165.70701592874579
 21
129.8189348719221
 31
0.0
  0
LINE
  5
2C1
  8
1外形線
 10
132.42848499818481
 20
131.81893487192229
 30
0.0
 11
165.70701592874579
 21
131.81893487192229
 31
0.0
  0
LINE
  5
2C2
  8
1外形線
 10
132.42848499818481
 20
129.81893487192229
 30
0.0
 11
165.70701592874579
 21
129.81893487192229
 31
0.0
  0
LINE
  5
2C3
  8
1外形線
 10
132.42848499818481
 20
128.31893487192229
 30
0.0
 11
165.70701592874579
 21
128.31893487192229
 31
0.0
  0
LINE
  5
2C4
  8
1外形線
 10
132.42848499818481
 20
96.818934871922124
 30
0.0
 11
161.16631547271419
 21
96.818934871922124
 31
0.0
  0
LINE
  5
2C5
  8
1外形線
 10
132.42848499818481
 20
96.818934871921911
 30
0.0
 11
161.16631547271371
 21
96.818934871921911
 31
0.0
  0
LINE
  5
2C6
  8
1外形線
 10
132.42848499818481
 20
98.318934871921897
 30
0.0
 11
162.3001174903419
 21
98.318934871921897
 31
0.0
  0
LINE
  5
2C7
  8
1外形線
 10
132.42848499818481
 20
126.3189348719221
 30
0.0
 11
159.7589952554016
 21
126.3189348719221
 31
0.0
  0
LINE
  5
2C8
  8
1外形線
 10
132.42848499818481
 20
126.31893487192229
 30
0.0
 11
159.7589952554016
 21
126.31893487192229
 31
0.0
  0
LINE
  5
2C9
  8
1外形線
 10
132.42848499818481
 20
121.3189348719221
 30
0.0
 11
159.7589952554016
 21
121.3189348719221
 31
0.0
  0
LINE
  5
2CA
  8
1外形線
 10
132.42848499818481
 20
121.3189348719218
 30
0.0
 11
159.7589952554016
 21
121.3189348719218
 31
0.0
  0
LINE
  5
2CB
  8
1外形線
 10
132.42848499818481
 20
143.8189348719221
 30
0.0
 11
164.9089549326425
 21
143.8189348719221
 31
0.0
  0
LINE
  5
2CC
  8
1外形線
 10
132.42848499818481
 20
143.81893487192229
 30
0.0
 11
164.9089549326425
 21
143.81893487192229
 31
0.0
  0
LINE
  5
2CD
  8
1外形線
 10
132.42848499818481
 20
140.3189348719221
 30
0.0
 11
165.60138278133519
 21
140.3189348719221
 31
0.0
  0
LINE
  5
2CE
  8
1外形線
 10
132.42848499818481
 20
142.31893487192229
 30
0.0
 11
165.287325928651
 21
142.31893487192229
 31
0.0
  0
LINE
  5
2CF
  8
1外形線
 10
132.42848499818481
 20
140.31893487192229
 30
0.0
 11
165.60138278133519
 21
140.31893487192229
 31
0.0
  0
LINE
  5
2D0
  8
1外形線
 10
132.42848499818481
 20
138.81893487192229
 30
0.0
 11
165.69983360030699
 21
138.81893487192229
 31
0.0
  0
LINE
  5
2D1
  8
1外形線
 10
132.42848499818481
 20
147.3189348719221
 30
0.0
 11
163.4976991637225
 21
147.31893487192229
 31
0.0
  0
LINE
  5
2D2
  8
1外形線
 10
132.42848499818481
 20
147.31893487192229
 30
0.0
 11
163.4976991637225
 21
147.31893487192229
 31
0.0
  0
LINE
  5
2D3
  8
1外形線
 10
132.42848499818481
 20
145.81893487192229
 30
0.0
 11
164.19939168349299
 21
145.81893487192229
 31
0.0
  0
LINE
  5
2D4
  8
1外形線
 10
132.42848499818481
 20
150.8189348719221
 30
0.0
 11
161.16631547271419
 21
150.8189348719221
 31
0.0
  0
LINE
  5
2D5
  8
1外形線
 10
132.42848499818481
 20
150.81893487192229
 30
0.0
 11
161.16631547271371
 21
150.81893487192229
 31
0.0
  0
LINE
  5
2D6
  8
1外形線
 10
132.42848499818481
 20
149.31893487192229
 30
0.0
 11
162.3001174903419
 21
149.31893487192229
 31
0.0
  0
TEXT
  5
2D7
  8
1外形線
 10
72.914504655943801
 20
485.5227491051246
 30
0.0
 40
10.0
  1
SWK-77-66
  7
KANJI
  0
LINE
  5
2D8
  8
1外形線
 10
22.678484998185009
 20
535.31893487192212
 30
0.0
 11
22.678484998185009
 21
22.318934871922121
 31
0.0
  0
LINE
  5
2D9
  8
1外形線
 10
92.178484998185013
 20
272.31893487192212
 30
0.0
 11
95.751108096429107
 21
292.58028729734161
 31
0.0
  0
LINE
  5
2DA
  8
1外形線
 10
95.886684260539369
 20
109.348934871922
 30
0.0
 11
95.886684260539369
 21
123.0689348719221
 31
0.0
  0
LINE
  5
2DB
  8
1外形線
 10
86.678484998185013
 20
109.3189348719219
 30
0.0
 11
86.678484998185013
 21
138.3189348719221
 31
0.0
  0
LINE
  5
2DC
  8
1外形線
 10
97.649954067624094
 20
109.348934871922
 30
0.0
 11
97.649954067624094
 21
123.0689348719221
 31
0.0
  0
LINE
  5
2DD
  8
1外形線
 10
93.856684260539623
 20
107.3189348719221
 30
0.0
 11
93.856684260539623
 21
140.3189348719219
 31
0.0
  0
LINE
  5
2DE
  8
1外形線
 10
72.678484998185013
 20
107.3189348719221
 30
0.0
 11
72.678484998185013
 21
140.3189348719221
 31
0.0
  0
LINE
  5
2DF
  8
1外形線
 10
102.1906545236556
 20
96.818934871922352
 30
0.0
 11
130.9284849981849
 21
96.818934871922352
 31
0.0
  0
LINE
  5
2E0
  8
1外形線
 10
102.1906545236556
 20
96.818934871922124
 30
0.0
 11
130.9284849981849
 21
96.818934871922124
 31
0.0
  0
LINE
  5
2E1
  8
1外形線
 10
106.00244947433831
 20
93.318934871922352
 30
0.0
 11
128.17861357197481
 21
93.318934871922352
 31
0.0
  0
LINE
  5
2E2
  8
1外形線
 10
106.0024494743388
 20
93.318934871922124
 30
0.0
 11
128.17861357197481
 21
93.318934871922124
 31
0.0
  0
LINE
  5
2E3
  8
1外形線
 10
104.1159209956031
 20
94.818934871922124
 30
0.0
 11
128.53061270090211
 21
94.818934871922124
 31
0.0
  0
LINE
  5
2E4
  8
1外形線
 10
98.0696440677184
 20
105.3189348719221
 30
0.0
 11
130.9284849981849
 21
105.3189348719221
 31
0.0
  0
LINE
  5
2E5
  8
1外形線
 10
98.448015063726885
 20
103.81893487192229
 30
0.0
 11
130.9284849981849
 21
103.81893487192229
 31
0.0
  0
LINE
  5
2E6
  8
1外形線
 10
98.448015063726885
 20
103.8189348719221
 30
0.0
 11
130.9284849981849
 21
103.8189348719221
 31
0.0
  0
LINE
  5
2E7
  8
1外形線
 10
99.859270832646871
 20
100.31893487192229
 30
0.0
 11
130.9284849981849
 21
100.31893487192229
 31
0.0
  0
LINE
  5
2E8
  8
1外形線
 10
101.05685250602799
 20
98.318934871922124
 30
0.0
 11
130.9284849981849
 21
98.318934871922124
 31
0.0
  0
LINE
  5
2E9
  8
1外形線
 10
99.859270832646871
 20
100.3189348719221
 30
0.0
 11
130.9284849981849
 21
100.3189348719221
 31
0.0
  0
LINE
  5
2EA
  8
1外形線
 10
99.157578312876922
 20
101.8189348719221
 30
0.0
 11
130.9284849981849
 21
101.8189348719221
 31
0.0
  0
LINE
  5
2EB
  8
1外形線
 10
97.755587215034225
 20
107.31893487192229
 30
0.0
 11
130.9284849981849
 21
107.31893487192229
 31
0.0
  0
LINE
  5
2EC
  8
1外形線
 10
97.755587215034225
 20
107.3189348719221
 30
0.0
 11
130.9284849981849
 21
107.3189348719221
 31
0.0
  0
LINE
  5
2ED
  8
1外形線
 10
97.649954067624094
 20
110.8189348719221
 30
0.0
 11
130.9284849981849
 21
110.81893487192229
 31
0.0
  0
LINE
  5
2EE
  8
1外形線
 10
97.657136396062924
 20
108.8189348719221
 30
0.0
 11
130.9284849981849
 21
108.8189348719221
 31
0.0
  0
LINE
  5
2EF
  8
1外形線
 10
97.649954067624094
 20
110.8189348719221
 30
0.0
 11
130.9284849981849
 21
110.8189348719221
 31
0.0
  0
LINE
  5
2F0
  8
1外形線
 10
97.649954067624094
 20
114.3189348719221
 30
0.0
 11
130.9284849981849
 21
114.31893487192229
 31
0.0
  0
LINE
  5
2F1
  8
1外形線
 10
97.649954067624094
 20
112.3189348719219
 30
0.0
 11
130.9284849981849
 21
112.3189348719221
 31
0.0
  0
LINE
  5
2F2
  8
1外形線
 10
97.649954067624094
 20
114.3189348719219
 30
0.0
 11
130.9284849981849
 21
114.3189348719221
 31
0.0
  0
LINE
  5
2F3
  8
1外形線
 10
97.649954067624094
 20
117.8189348719221
 30
0.0
 11
130.9284849981849
 21
117.81893487192229
 31
0.0
  0
LINE
  5
2F4
  8
1外形線
 10
97.649954067624094
 20
115.8189348719218
 30
0.0
 11
130.9284849981849
 21
115.8189348719221
 31
0.0
  0
LINE
  5
2F5
  8
1外形線
 10
97.649954067624094
 20
117.8189348719218
 30
0.0
 11
130.9284849981849
 21
117.8189348719221
 31
0.0
  0
ARC
  5
2F6
  8
1外形線
 10
109.6784849981849
 20
109.3189348719219
 30
0.0
 40
23.0
 50
180.0
 51
270.0
  0
ARC
  5
2F7
  8
1外形線
 10
117.2084849981846
 20
109.348934871922
 30
0.0
 40
19.558530930560721
 50
180.0
 51
270.0
  0
ARC
  5
2F8
  8
1外形線
 10
117.2084849981846
 20
109.348934871922
 30
0.0
 40
21.321800737645269
 50
180.0
 51
270.0
  0
ARC
  5
2F9
  8
1外形線
 10
114.8566842605395
 20
107.3189348719221
 30
0.0
 40
21.0
 50
180.0
 51
270.0
  0
LINE
  5
2FA
  8
1外形線
 10
107.678484998185
 20
72.318934871922124
 30
0.0
 11
136.1784849981849
 21
72.318934871922124
 31
0.0
  0
ARC
  5
2FB
  8
1外形線
 10
107.6784849981849
 20
107.3189348719221
 30
0.0
 40
35.0
 50
180.0
 51
270.0
  0
ARC
  5
2FC
  8
1外形線
 10
109.6784849981849
 20
109.3189348719219
 30
0.0
 40
23.5
 50
180.0
 51
229.9922460865136
  0
ARC
  5
2FD
  8
1外形線
 10
109.6784849981849
 20
109.3189348719219
 30
0.0
 40
23.800000000000001
 50
229.13931169458061
 51
235.01755357178121
  0
LINE
  5
2FE
  8
1外形線
 10
94.108000098863144
 20
91.318934871922124
 30
0.0
 11
94.570540068446462
 21
91.318934871922124
 31
0.0
  0
LINE
  5
2FF
  8
1外形線
 10
97.482174080534151
 20
89.818934871922124
 30
0.0
 11
96.033339341212013
 21
89.818934871922124
 31
0.0
  0
LINE
  5
300
  8
1外形線
 10
86.678484998185013
 20
115.8189348719221
 30
0.0
 11
85.878484998184817
 21
115.8189348719221
 31
0.0
  0
LINE
  5
301
  8
1外形線
 10
85.878484998184817
 20
114.3189348719221
 30
0.0
 11
86.178484998185013
 21
114.3189348719221
 31
0.0
  0
LINE
  5
302
  8
1外形線
 10
86.178484998185013
 20
114.3189348719221
 30
0.0
 11
86.178484998185013
 21
109.3189348719219
 31
0.0
  0
LINE
  5
303
  8
1外形線
 10
85.878484998184817
 20
115.8189348719221
 30
0.0
 11
85.878484998184817
 21
114.3189348719221
 31
0.0
  0
LINE
  5
304
  8
1外形線
 10
136.6784849981849
 20
72.818934871922124
 30
0.0
 11
136.6784849981849
 21
86.318934871922124
 31
0.0
  0
LINE
  5
305
  8
1外形線
 10
136.6784849981849
 20
72.818934871922124
 30
0.0
 11
136.6784849981849
 21
86.318934871921897
 31
0.0
  0
ARC
  5
306
  8
1外形線
 10
136.1784849981849
 20
72.818934871922124
 30
0.0
 40
0.5
 50
270.0
 51
0.0
  0
ARC
  5
307
  8
1外形線
 10
137.1784849981849
 20
72.818934871922124
 30
0.0
 40
0.5
 50
180.0
 51
270.0
  0
CIRCLE
  5
308
  8
1外形線
 10
131.6784849981849
 20
93.288934871922166
 30
0.0
 40
3.5
  0
LINE
  5
309
  8
1外形線
 10
146.14848499818461
 20
88.027134134276707
 30
0.0
 11
117.2084849981847
 21
88.027134134276707
 31
0.0
  0
LINE
  5
30A
  8
1外形線
 10
136.6784849981849
 20
86.318934871922124
 30
0.0
 11
109.678484998185
 21
86.318934871922124
 31
0.0
  0
LINE
  5
30B
  8
1外形線
 10
146.14848499818461
 20
88.112204679006823
 30
0.0
 11
132.42848499818481
 21
88.112204679006595
 31
0.0
  0
LINE
  5
30C
  8
1外形線
 10
146.14848499818461
 20
89.790403941361433
 30
0.0
 11
132.42848499818481
 21
89.790403941361433
 31
0.0
  0
LINE
  5
30D
  8
1外形線
 10
130.9284849981849
 20
98.318934871922124
 30
0.0
 11
130.9284849981849
 21
100.3189348719221
 31
0.0
  0
LINE
  5
30E
  8
1外形線
 10
132.42848499818481
 20
98.318934871921897
 30
0.0
 11
132.42848499818439
 21
100.3189348719218
 31
0.0
  0
LINE
  5
30F
  8
1外形線
 10
130.9284849981849
 20
89.790403941361433
 30
0.0
 11
117.2084849981847
 21
89.790403941361433
 31
0.0
  0
LINE
  5
310
  8
1外形線
 10
109.6285620327648
 20
91.318934871922124
 30
0.0
 11
128.17861357197481
 21
91.318934871922124
 31
0.0
  0
LINE
  5
311
  8
1外形線
 10
130.9284849981849
 20
88.112204679006823
 30
0.0
 11
130.9284849981849
 21
89.790403941361433
 31
0.0
  0
LINE
  5
312
  8
1外形線
 10
132.42848499818481
 20
88.112204679006595
 30
0.0
 11
132.42848499818481
 21
89.790403941361433
 31
0.0
  0
LINE
  5
313
  8
1外形線
 10
130.9284849981849
 20
96.707633454716529
 30
0.0
 11
130.9284849981849
 21
96.818934871922124
 31
0.0
  0
LINE
  5
314
  8
1外形線
 10
132.42848499818481
 20
96.707633454716529
 30
0.0
 11
132.42848499818481
 21
96.818934871921911
 31
0.0
  0
LINE
  5
315
  8
1外形線
 10
132.42848499818481
 20
88.9513043101839
 30
0.0
 11
132.42848499818481
 21
89.790403941361433
 31
0.0
  0
LINE
  5
316
  8
1外形線
 10
128.17861357197481
 20
93.318934871922124
 30
0.0
 11
128.17861357197481
 21
91.318934871922124
 31
0.0
  0
LINE
  5
317
  8
1外形線
 10
130.9284849981849
 20
105.3189348719221
 30
0.0
 11
130.9284849981849
 21
107.3189348719221
 31
0.0
  0
LINE
  5
318
  8
1外形線
 10
132.42848499818439
 20
105.3189348719218
 30
0.0
 11
132.42848499818439
 21
107.3189348719219
 31
0.0
  0
LINE
  5
319
  8
1外形線
 10
130.9284849981849
 20
101.8189348719221
 30
0.0
 11
130.9284849981849
 21
103.8189348719221
 31
0.0
  0
LINE
  5
31A
  8
1外形線
 10
132.42848499818481
 20
101.8189348719221
 30
0.0
 11
132.42848499818481
 21
103.8189348719219
 31
0.0
  0
LINE
  5
31B
  8
1外形線
 10
130.9284849981849
 20
115.81893487192229
 30
0.0
 11
130.9284849981849
 21
117.8189348719221
 31
0.0
  0
LINE
  5
31C
  8
1外形線
 10
132.42848499818439
 20
115.8189348719218
 30
0.0
 11
132.42848499818439
 21
117.8189348719218
 31
0.0
  0
LINE
  5
31D
  8
1外形線
 10
130.9284849981849
 20
112.31893487192229
 30
0.0
 11
130.9284849981849
 21
114.31893487192229
 31
0.0
  0
LINE
  5
31E
  8
1外形線
 10
132.42848499818439
 20
112.3189348719219
 30
0.0
 11
132.42848499818439
 21
114.3189348719219
 31
0.0
  0
LINE
  5
31F
  8
1外形線
 10
130.92848499818439
 20
108.8189348719221
 30
0.0
 11
130.9284849981849
 21
110.8189348719221
 31
0.0
  0
LINE
  5
320
  8
1外形線
 10
132.42848499818439
 20
108.8189348719218
 30
0.0
 11
132.42848499818439
 21
110.8189348719218
 31
0.0
  0
LINE
  5
321
  8
1外形線
 10
135.17835642439451
 20
93.318934871922124
 30
0.0
 11
157.35452052203101
 21
93.318934871922124
 31
0.0
  0
LINE
  5
322
  8
1外形線
 10
135.17835642439451
 20
93.318934871921897
 30
0.0
 11
157.35452052203061
 21
93.318934871921897
 31
0.0
  0
LINE
  5
323
  8
1外形線
 10
136.6784849981849
 20
86.318934871922124
 30
0.0
 11
149.1784849981849
 21
86.318934871922124
 31
0.0
  0
LINE
  5
324
  8
1外形線
 10
135.17835642439451
 20
91.318934871921897
 30
0.0
 11
153.7284079636045
 21
91.318934871921897
 31
0.0
  0
LINE
  5
325
  8
1外形線
 10
135.17835642439451
 20
93.318934871922124
 30
0.0
 11
135.17835642439451
 21
91.318934871921897
 31
0.0
  0
LINE
  5
326
  8
1外形線
 10
102.1906545236556
 20
150.8189348719219
 30
0.0
 11
130.9284849981849
 21
150.8189348719219
 31
0.0
  0
LINE
  5
327
  8
1外形線
 10
102.1906545236556
 20
150.8189348719221
 30
0.0
 11
130.9284849981849
 21
150.8189348719221
 31
0.0
  0
LINE
  5
328
  8
1外形線
 10
104.1159209956031
 20
152.8189348719221
 30
0.0
 11
128.53061270090211
 21
152.8189348719221
 31
0.0
  0
LINE
  5
329
  8
1外形線
 10
106.00244947433831
 20
154.31893487192181
 30
0.0
 11
128.17861357197481
 21
154.31893487192181
 31
0.0
  0
LINE
  5
32A
  8
1外形線
 10
106.0024494743388
 20
154.3189348719221
 30
0.0
 11
128.17861357197481
 21
154.3189348719221
 31
0.0
  0
LINE
  5
32B
  8
1外形線
 10
98.448015063726885
 20
143.8189348719219
 30
0.0
 11
130.9284849981849
 21
143.8189348719219
 31
0.0
  0
LINE
  5
32C
  8
1外形線
 10
98.448015063726885
 20
143.8189348719221
 30
0.0
 11
130.9284849981849
 21
143.8189348719221
 31
0.0
  0
LINE
  5
32D
  8
1外形線
 10
97.755587215034225
 20
140.3189348719219
 30
0.0
 11
130.9284849981849
 21
140.3189348719219
 31
0.0
  0
LINE
  5
32E
  8
1外形線
 10
98.0696440677184
 20
142.3189348719221
 30
0.0
 11
130.9284849981849
 21
142.3189348719221
 31
0.0
  0
LINE
  5
32F
  8
1外形線
 10
97.755587215034225
 20
140.3189348719221
 30
0.0
 11
130.9284849981849
 21
140.3189348719221
 31
0.0
  0
LINE
  5
330
  8
1外形線
 10
97.657136396062924
 20
138.8189348719221
 30
0.0
 11
130.9284849981849
 21
138.8189348719221
 31
0.0
  0
LINE
  5
331
  8
1外形線
 10
99.859270832646871
 20
147.31893487192181
 30
0.0
 11
130.9284849981849
 21
147.31893487192181
 31
0.0
  0
LINE
  5
332
  8
1外形線
 10
101.05685250602799
 20
149.3189348719221
 30
0.0
 11
130.9284849981849
 21
149.3189348719221
 31
0.0
  0
LINE
  5
333
  8
1外形線
 10
99.859270832646871
 20
147.3189348719221
 30
0.0
 11
130.9284849981849
 21
147.3189348719221
 31
0.0
  0
LINE
  5
334
  8
1外形線
 10
99.157578312876922
 20
145.8189348719221
 30
0.0
 11
130.9284849981849
 21
145.8189348719221
 31
0.0
  0
ARC
  5
335
  8
1外形線
 10
114.8566842605395
 20
140.3189348719219
 30
0.0
 40
21.0
 50
90.0
 51
180.0
  0
LINE
  5
336
  8
1外形線
 10
103.5979747409683
 20
126.3189348719218
 30
0.0
 11
130.9284849981849
 21
126.3189348719218
 31
0.0
  0
LINE
  5
337
  8
1外形線
 10
103.5979747409683
 20
121.31893487192229
 30
0.0
 11
130.9284849981849
 21
121.31893487192229
 31
0.0
  0
LINE
  5
338
  8
1外形線
 10
97.649954067624094
 20
119.3189348719221
 30
0.0
 11
130.9284849981849
 21
119.3189348719221
 31
0.0
  0
LINE
  5
339
  8
1外形線
 10
97.649954067624094
 20
136.8189348719221
 30
0.0
 11
130.9284849981849
 21
136.81893487192181
 31
0.0
  0
LINE
  5
33A
  8
1外形線
 10
97.649954067624094
 20
136.8189348719221
 30
0.0
 11
130.9284849981849
 21
136.8189348719221
 31
0.0
  0
LINE
  5
33B
  8
1外形線
 10
97.649954067624094
 20
133.3189348719221
 30
0.0
 11
130.9284849981849
 21
133.3189348719219
 31
0.0
  0
LINE
  5
33C
  8
1外形線
 10
97.649954067624094
 20
135.31893487192229
 30
0.0
 11
130.9284849981849
 21
135.3189348719221
 31
0.0
  0
LINE
  5
33D
  8
1外形線
 10
97.649954067624094
 20
133.31893487192229
 30
0.0
 11
130.9284849981849
 21
133.3189348719221
 31
0.0
  0
LINE
  5
33E
  8
1外形線
 10
97.649954067624094
 20
129.8189348719221
 30
0.0
 11
130.9284849981849
 21
129.8189348719219
 31
0.0
  0
LINE
  5
33F
  8
1外形線
 10
97.649954067624094
 20
131.81893487192229
 30
0.0
 11
130.9284849981849
 21
131.8189348719221
 31
0.0
  0
LINE
  5
340
  8
1外形線
 10
97.649954067624094
 20
129.81893487192229
 30
0.0
 11
130.9284849981849
 21
129.8189348719221
 31
0.0
  0
LINE
  5
341
  8
1外形線
 10
97.649954067624094
 20
128.3189348719221
 30
0.0
 11
130.9284849981849
 21
128.3189348719221
 31
0.0
  0
ARC
  5
342
  8
1外形線
 10
109.6784849981849
 20
138.3189348719221
 30
0.0
 40
23.0
 50
90.0
 51
180.0
  0
ARC
  5
343
  8
1外形線
 10
117.2084849981846
 20
138.28893487192209
 30
0.0
 40
19.558530930560721
 50
90.0
 51
180.0
  0
ARC
  5
344
  8
1外形線
 10
117.2084849981846
 20
138.28893487192209
 30
0.0
 40
21.321800737645269
 50
90.0
 51
180.0
  0
LINE
  5
345
  8
1外形線
 10
107.678484998185
 20
175.3189348719221
 30
0.0
 11
136.1784849981849
 21
175.3189348719221
 31
0.0
  0
ARC
  5
346
  8
1外形線
 10
107.6784849981849
 20
140.3189348719221
 30
0.0
 40
35.0
 50
90.0
 51
180.0
  0
CIRCLE
  5
347
  8
1外形線
 10
78.678484998184956
 20
123.8189348719221
 30
0.0
 40
2.25
  0
ARC
  5
348
  8
1外形線
 10
109.6784849981849
 20
138.3189348719221
 30
0.0
 40
23.5
 50
130.00775391348481
 51
180.0
  0
LINE
  5
349
  8
1外形線
 10
85.878484998184817
 20
133.3189348719221
 30
0.0
 11
86.178484998185013
 21
133.3189348719221
 31
0.0
  0
LINE
  5
34A
  8
1外形線
 10
85.878484998184817
 20
131.8189348719221
 30
0.0
 11
85.878484998184817
 21
133.3189348719221
 31
0.0
  0
LINE
  5
34B
  8
1外形線
 10
86.678484998185013
 20
131.8189348719221
 30
0.0
 11
85.878484998184817
 21
131.8189348719221
 31
0.0
  0
LINE
  5
34C
  8
1外形線
 10
86.178484998185013
 20
138.3189348719219
 30
0.0
 11
86.178484998185013
 21
133.3189348719221
 31
0.0
  0
LINE
  5
34D
  8
1外形線
 10
95.886684260539369
 20
124.5689348719221
 30
0.0
 11
95.886684260539369
 21
138.28893487192209
 31
0.0
  0
LINE
  5
34E
  8
1外形線
 10
97.649954067624094
 20
124.56893487192229
 30
0.0
 11
97.649954067624094
 21
138.28893487192209
 31
0.0
  0
CIRCLE
  5
34F
  8
1外形線
 10
101.1484849981847
 20
123.8189348719221
 30
0.0
 40
3.5
  0
LINE
  5
350
  8
1外形線
 10
101.1484849981848
 20
127.3189348719221
 30
0.0
 11
97.649954067624094
 21
127.3189348719221
 31
0.0
  0
LINE
  5
351
  8
1外形線
 10
95.886684260539369
 20
123.0689348719221
 30
0.0
 11
97.649954067624094
 21
123.0689348719221
 31
0.0
  0
LINE
  5
352
  8
1外形線
 10
95.886684260539369
 20
124.5689348719221
 30
0.0
 11
97.649954067624094
 21
124.56893487192229
 31
0.0
  0
LINE
  5
353
  8
1外形線
 10
101.1484849981848
 20
120.3189348719221
 30
0.0
 11
97.649954067624094
 21
120.3189348719221
 31
0.0
  0
ARC
  5
354
  8
1外形線
 10
109.6784849981849
 20
138.3189348719221
 30
0.0
 40
23.800000000000001
 50
124.9824464282184
 51
130.8606883054174
  0
LINE
  5
355
  8
1外形線
 10
94.108000098863144
 20
156.3189348719221
 30
0.0
 11
94.570540068446462
 21
156.3189348719221
 31
0.0
  0
LINE
  5
356
  8
1外形線
 10
97.482174080534151
 20
157.8189348719221
 30
0.0
 11
96.033339341212013
 21
157.8189348719221
 31
0.0
  0
LINE
  5
357
  8
1外形線
 10
130.92848499818439
 20
157.84746580248321
 30
0.0
 11
130.9284849981849
 21
159.61073560956771
 31
0.0
  0
LINE
  5
358
  8
1外形線
 10
132.42848499818481
 20
157.84746580248321
 30
0.0
 11
132.42848499818481
 21
159.61073560956751
 31
0.0
  0
CIRCLE
  5
359
  8
1外形線
 10
131.6784849981849
 20
154.34893487192201
 30
0.0
 40
3.5
  0
LINE
  5
35A
  8
1外形線
 10
146.14848499818461
 20
157.84746580248299
 30
0.0
 11
132.42848499818481
 21
157.84746580248321
 31
0.0
  0
LINE
  5
35B
  8
1外形線
 10
130.92848499818439
 20
138.8189348719221
 30
0.0
 11
130.9284849981849
 21
136.8189348719221
 31
0.0
  0
LINE
  5
35C
  8
1外形線
 10
132.42848499818439
 20
138.81893487192229
 30
0.0
 11
132.42848499818439
 21
136.81893487192229
 31
0.0
  0
LINE
  5
35D
  8
1外形線
 10
130.9284849981849
 20
119.3189348719221
 30
0.0
 11
130.9284849981849
 21
121.31893487192229
 31
0.0
  0
LINE
  5
35E
  8
1外形線
 10
132.42848499818439
 20
119.3189348719218
 30
0.0
 11
132.42848499818439
 21
121.3189348719218
 31
0.0
  0
LINE
  5
35F
  8
1外形線
 10
130.9284849981849
 20
128.3189348719221
 30
0.0
 11
130.9284849981849
 21
126.3189348719218
 31
0.0
  0
LINE
  5
360
  8
1外形線
 10
132.42848499818439
 20
128.31893487192229
 30
0.0
 11
132.42848499818439
 21
126.31893487192229
 31
0.0
  0
LINE
  5
361
  8
1外形線
 10
130.9284849981849
 20
131.81893487192181
 30
0.0
 11
130.9284849981849
 21
129.8189348719221
 31
0.0
  0
LINE
  5
362
  8
1外形線
 10
132.42848499818439
 20
131.81893487192229
 30
0.0
 11
132.42848499818439
 21
129.81893487192229
 31
0.0
  0
LINE
  5
363
  8
1外形線
 10
130.9284849981849
 20
135.3189348719219
 30
0.0
 11
130.9284849981849
 21
133.3189348719219
 31
0.0
  0
LINE
  5
364
  8
1外形線
 10
132.42848499818439
 20
135.31893487192229
 30
0.0
 11
132.42848499818439
 21
133.31893487192229
 31
0.0
  0
LINE
  5
365
  8
1外形線
 10
130.92848499818439
 20
157.84746580248321
 30
0.0
 11
117.2084849981847
 21
157.84746580248299
 31
0.0
  0
LINE
  5
366
  8
1外形線
 10
109.6285620327648
 20
156.3189348719221
 30
0.0
 11
128.17861357197481
 21
156.3189348719221
 31
0.0
  0
LINE
  5
367
  8
1外形線
 10
130.9284849981849
 20
149.3189348719221
 30
0.0
 11
130.9284849981849
 21
147.3189348719221
 31
0.0
  0
LINE
  5
368
  8
1外形線
 10
132.42848499818481
 20
149.31893487192229
 30
0.0
 11
132.42848499818439
 21
147.31893487192229
 31
0.0
  0
LINE
  5
369
  8
1外形線
 10
130.9284849981849
 20
142.3189348719221
 30
0.0
 11
130.9284849981849
 21
140.3189348719221
 31
0.0
  0
LINE
  5
36A
  8
1外形線
 10
130.9284849981849
 20
145.8189348719221
 30
0.0
 11
130.9284849981849
 21
143.8189348719221
 31
0.0
  0
LINE
  5
36B
  8
1外形線
 10
132.42848499818439
 20
142.31893487192229
 30
0.0
 11
132.42848499818439
 21
140.31893487192229
 31
0.0
  0
LINE
  5
36C
  8
1外形線
 10
132.42848499818481
 20
145.8189348719221
 30
0.0
 11
132.42848499818481
 21
143.81893487192229
 31
0.0
  0
LINE
  5
36D
  8
1外形線
 10
128.17861357197481
 20
154.31893487192181
 30
0.0
 11
128.17861357197481
 21
156.3189348719221
 31
0.0
  0
LINE
  5
36E
  8
1外形線
 10
130.9284849981849
 20
150.93023628912769
 30
0.0
 11
130.9284849981849
 21
150.8189348719221
 31
0.0
  0
LINE
  5
36F
  8
1外形線
 10
132.42848499818481
 20
150.93023628912769
 30
0.0
 11
132.42848499818481
 21
150.81893487192229
 31
0.0
  0
LINE
  5
370
  8
1外形線
 10
135.17835642439451
 20
154.3189348719221
 30
0.0
 11
157.35452052203101
 21
154.3189348719221
 31
0.0
  0
LINE
  5
371
  8
1外形線
 10
135.17835642439451
 20
154.31893487192229
 30
0.0
 11
157.35452052203061
 21
154.31893487192229
 31
0.0
  0
LINE
  5
372
  8
1外形線
 10
135.17835642439451
 20
156.3189348719221
 30
0.0
 11
153.7284079636045
 21
156.31893487192229
 31
0.0
  0
LINE
  5
373
  8
1外形線
 10
135.17835642439451
 20
154.3189348719221
 30
0.0
 11
135.17835642439451
 21
156.31893487192229
 31
0.0
  0
LINE
  5
374
  8
1外形線
 10
136.6784849981849
 20
161.3189348719221
 30
0.0
 11
109.678484998185
 21
161.3189348719221
 31
0.0
  0
LINE
  5
375
  8
1外形線
 10
146.14848499818461
 20
159.61073560956751
 30
0.0
 11
132.42848499818481
 21
159.61073560956751
 31
0.0
  0
LINE
  5
376
  8
1外形線
 10
130.9284849981849
 20
159.61073560956771
 30
0.0
 11
117.2084849981847
 21
159.61073560956751
 31
0.0
  0
LINE
  5
377
  8
1外形線
 10
136.6784849981849
 20
161.3189348719221
 30
0.0
 11
149.1784849981849
 21
161.3189348719221
 31
0.0
  0
LINE
  5
378
  8
1外形線
 10
136.6784849981849
 20
161.3189348719221
 30
0.0
 11
136.6784849981849
 21
174.8189348719221
 31
0.0
  0
LINE
  5
379
  8
1外形線
 10
136.6784849981849
 20
161.3189348719219
 30
0.0
 11
136.6784849981849
 21
174.8189348719221
 31
0.0
  0
ARC
  5
37A
  8
1外形線
 10
136.1784849981849
 20
174.8189348719221
 30
0.0
 40
0.5
 50
0.0
 51
90.0
  0
ARC
  5
37B
  8
1外形線
 10
137.1784849981849
 20
174.8189348719221
 30
0.0
 40
0.5
 50
90.0
 51
180.0
  0
LINE
  5
37C
  8
1外形線
 10
73.678484998185013
 20
207.3189348719221
 30
0.0
 11
141.17848499818501
 21
207.3189348719221
 31
0.0
  0
LINE
  5
37D
  8
1外形線
 10
72.678484998185013
 20
205.3189348719221
 30
0.0
 11
136.67848499818501
 21
205.3189348719221
 31
0.0
  0
LINE
  5
37E
  8
1外形線
 10
92.178484998185013
 20
272.31893487192212
 30
0.0
 11
84.678484998185013
 21
229.78432122478861
 31
0.0
  0
ARC
  5
37F
  8
1外形線
 10
73.678484998185013
 20
206.3189348719221
 30
0.0
 40
1.0
 50
90.0
 51
179.99999999999829
  0
LINE
  5
380
  8
1外形線
 10
72.678484998185013
 20
206.3189348719221
 30
0.0
 11
72.678484998185013
 21
205.3189348719221
 31
0.0
  0
LINE
  5
381
  8
1外形線
 10
84.678484998185013
 20
229.7843212247891
 30
0.0
 11
84.678484998185013
 21
209.3189348719221
 31
0.0
  0
ARC
  5
382
  8
1外形線
 10
82.678484998185013
 20
209.3189348719221
 30
0.0
 40
2.0
 50
270.0
 51
0.0
  0
LINE
  5
383
  8
1外形線
 10
141.67848499818501
 20
207.3189348719221
 30
0.0
 11
141.67848499818501
 21
217.26671633484059
 31
0.0
  0
LINE
  5
384
  8
1外形線
 10
136.67848499818501
 20
205.3189348719221
 30
0.0
 11
136.67848499818501
 21
207.3189348719221
 31
0.0
  0
LINE
  5
385
  8
1外形線
 10
136.17848499818541
 20
439.96872223846128
 30
0.0
 11
136.17848499818501
 21
434.3489348719221
 31
0.0
  0
LINE
  5
386
  8
1外形線
 10
127.178484998185
 20
439.96872223846128
 30
0.0
 11
127.178484998185
 21
434.3489348719221
 31
0.0
  0
ARC
  5
387
  8
1外形線
 10
117.178484998185
 20
418.31893487192212
 30
0.0
 40
25.0
 50
90.0
 51
180.0
  0
ARC
  5
388
  8
1外形線
 10
107.678484998185
 20
420.31893487192212
 30
0.0
 40
23.0
 50
90.0
 51
180.0
  0
ARC
  5
389
  8
1外形線
 10
107.678484998185
 20
420.31893487192212
 30
0.0
 40
35.0
 50
90.0
 51
180.0
  0
ARC
  5
38A
  8
1外形線
 10
107.678484998185
 20
387.31893487192212
 30
0.0
 40
35.0
 50
180.0
 51
270.0
  0
LINE
  5
38B
  8
1外形線
 10
136.67848499818501
 20
352.31893487192212
 30
0.0
 11
136.67848499818501
 21
364.31893487192212
 31
0.0
  0
ARC
  5
38C
  8
1外形線
 10
120.3713019217343
 20
288.23908285566841
 30
0.0
 40
25.0
 50
100.0000000000001
 51
169.9999999999998
  0
LINE
  5
38D
  8
1外形線
 10
107.678484998185
 20
352.31893487192212
 30
0.0
 11
136.67848499818501
 21
352.31893487192212
 31
0.0
  0
LINE
  5
38E
  8
1外形線
 10
127.178484998185
 20
291.31893487192212
 30
0.0
 11
136.17848499818501
 21
291.31893487192212
 31
0.0
  0
POLYLINE
  5
38F
  8
1外形線
 10
131.67848499818513
 20
312.80091479469968
 30
0.0
 66
     1
 70
     8
  0
VERTEX
  8
1
  5
4F9
 10
131.678
 20
312.801
 30
0.000000
  70
    32
  0
VERTEX
  8
1
  5
4FA
 10
131.734
 20
312.800
 30
0.000000
  70
    32
  0
VERTEX
  8
1
  5
4FB
 10
131.789
 20
312.798
 30
0.000000
  70
    32
  0
VERTEX
  8
1
  5
4FC
 10
131.844
 20
312.793
 30
0.000000
  70
    32
  0
VERTEX
  8
1
  5
4FD
 10
131.899
 20
312.788
 30
0.000000
  70
    32
  0
VERTEX
  8
1
  5
4FE
 10
131.954
 20
312.780
 30
0.000000
  70
    32
  0
VERTEX
  8
1
  5
4FF
 10
132.010
 20
312.771
 30
0.000000
  70
    32
  0
VERTEX
  8
1
  5
500
 10
132.065
 20
312.760
 30
0.000000
  70
    32
  0
VERTEX
  8
1
  5
501
 10
132.120
 20
312.747
 30
0.000000
  70
    32
  0
VERTEX
  8
1
  5
502
 10
132.174
 20
312.733
 30
0.000000
  70
    32
  0
VERTEX
  8
1
  5
503
 10
132.229
 20
312.717
 30
0.000000
  70
    32
  0
VERTEX
  8
1
  5
504
 10
132.284
 20
312.700
 30
0.000000
  70
    32
  0
VERTEX
  8
1
  5
505
 10
132.339
 20
312.681
 30
0.000000
  70
    32
  0
VERTEX
  8
1
  5
506
 10
132.393
 20
312.660
 30
0.000000
  70
    32
  0
VERTEX
  8
1
  5
507
 10
132.448
 20
312.637
 30
0.000000
  70
    32
  0
VERTEX
  8
1
  5
508
 10
132.502
 20
312.613
 30
0.000000
  70
    32
  0
VERTEX
  8
1
  5
509
 10
132.556
 20
312.587
 30
0.000000
  70
    32
  0
VERTEX
  8
1
  5
50A
 10
132.610
 20
312.560
 30
0.000000
  70
    32
  0
VERTEX
  8
1
  5
50B
 10
132.664
 20
312.531
 30
0.000000
  70
    32
  0
VERTEX
  8
1
  5
50C
 10
132.718
 20
312.500
 30
0.000000
  70
    32
  0
VERTEX
  8
1
  5
50D
 10
132.772
 20
312.468
 30
0.000000
  70
    32
  0
VERTEX
  8
1
  5
50E
 10
132.825
 20
312.434
 30
0.000000
  70
    32
  0
VERTEX
  8
1
  5
50F
 10
132.879
 20
312.399
 30
0.000000
  70
    32
  0
VERTEX
  8
1
  5
510
 10
132.932
 20
312.361
 30
0.000000
  70
    32
  0
VERTEX
  8
1
  5
511
 10
132.985
 20
312.323
 30
0.000000
  70
    32
  0
VERTEX
  8
1
  5
512
 10
133.038
 20
312.282
 30
0.000000
  70
    32
  0
VERTEX
  8
1
  5
513
 10
133.090
 20
312.240
 30
0.000000
  70
    32
  0
VERTEX
  8
1
  5
514
 10
133.142
 20
312.197
 30
0.000000
  70
    32
  0
VERTEX
  8
1
  5
515
 10
133.194
 20
312.152
 30
0.000000
  70
    32
  0
VERTEX
  8
1
  5
516
 10
133.246
 20
312.105
 30
0.000000
  70
    32
  0
VERTEX
  8
1
  5
517
 10
133.298
 20
312.057
 30
0.000000
  70
    32
  0
VERTEX
  8
1
  5
518
 10
133.349
 20
312.007
 30
0.000000
  70
    32
  0
VERTEX
  8
1
  5
519
 10
133.401
 20
311.955
 30
0.000000
  70
    32
  0
VERTEX
  8
1
  5
51A
 10
133.451
 20
311.902
 30
0.000000
  70
    32
  0
VERTEX
  8
1
  5
51B
 10
133.502
 20
311.848
 30
0.000000
  70
    32
  0
VERTEX
  8
1
  5
51C
 10
133.552
 20
311.792
 30
0.000000
  70
    32
  0
VERTEX
  8
1
  5
51D
 10
133.602
 20
311.734
 30
0.000000
  70
    32
  0
VERTEX
  8
1
  5
51E
 10
133.652
 20
311.675
 30
0.000000
  70
    32
  0
VERTEX
  8
1
  5
51F
 10
133.702
 20
311.615
 30
0.000000
  70
    32
  0
VERTEX
  8
1
  5
520
 10
133.751
 20
311.553
 30
0.000000
  70
    32
  0
VERTEX
  8
1
  5
521
 10
133.800
 20
311.489
 30
0.000000
  70
    32
  0
VERTEX
  8
1
  5
522
 10
133.848
 20
311.424
 30
0.000000
  70
    32
  0
VERTEX
  8
1
  5
523
 10
133.897
 20
311.358
 30
0.000000
  70
    32
  0
VERTEX
  8
1
  5
524
 10
133.944
 20
311.290
 30
0.000000
  70
    32
  0
VERTEX
  8
1
  5
525
 10
133.992
 20
311.221
 30
0.000000
  70
    32
  0
VERTEX
  8
1
  5
526
 10
134.039
 20
311.150
 30
0.000000
  70
    32
  0
VERTEX
  8
1
  5
527
 10
134.086
 20
311.078
 30
0.000000
  70
    32
  0
VERTEX
  8
1
  5
528
 10
134.132
 20
311.004
 30
0.000000
  70
    32
  0
VERTEX
  8
1
  5
529
 10
134.179
 20
310.929
 30
0.000000
  70
    32
  0
VERTEX
  8
1
  5
52A
 10
134.224
 20
310.852
 30
0.000000
  70
    32
  0
VERTEX
  8
1
  5
52B
 10
134.270
 20
310.775
 30
0.000000
  70
    32
  0
VERTEX
  8
1
  5
52C
 10
134.315
 20
310.696
 30
0.000000
  70
    32
  0
VERTEX
  8
1
  5
52D
 10
134.359
 20
310.615
 30
0.000000
  70
    32
  0
VERTEX
  8
1
  5
52E
 10
134.403
 20
310.533
 30
0.000000
  70
    32
  0
VERTEX
  8
1
  5
52F
 10
134.447
 20
310.450
 30
0.000000
  70
    32
  0
VERTEX
  8
1
  5
530
 10
134.490
 20
310.365
 30
0.000000
  70
    32
  0
VERTEX
  8
1
  5
531
 10
134.533
 20
310.280
 30
0.000000
  70
    32
  0
VERTEX
  8
1
  5
532
 10
134.576
 20
310.192
 30
0.000000
  70
    32
  0
VERTEX
  8
1
  5
533
 10
134.618
 20
310.104
 30
0.000000
  70
    32
  0
VERTEX
  8
1
  5
534
 10
134.659
 20
310.014
 30
0.000000
  70
    32
  0
VERTEX
  8
1
  5
535
 10
134.701
 20
309.923
 30
0.000000
  70
    32
  0
VERTEX
  8
1
  5
536
 10
134.741
 20
309.831
 30
0.000000
  70
    32
  0
VERTEX
  8
1
  5
537
 10
134.781
 20
309.738
 30
0.000000
  70
    32
  0
VERTEX
  8
1
  5
538
 10
134.821
 20
309.643
 30
0.000000
  70
    32
  0
VERTEX
  8
1
  5
539
 10
134.860
 20
309.548
 30
0.000000
  70
    32
  0
VERTEX
  8
1
  5
53A
 10
134.899
 20
309.451
 30
0.000000
  70
    32
  0
VERTEX
  8
1
  5
53B
 10
134.938
 20
309.352
 30
0.000000
  70
    32
  0
VERTEX
  8
1
  5
53C
 10
134.975
 20
309.253
 30
0.000000
  70
    32
  0
VERTEX
  8
1
  5
53D
 10
135.013
 20
309.153
 30
0.000000
  70
    32
  0
VERTEX
  8
1
  5
53E
 10
135.050
 20
309.051
 30
0.000000
  70
    32
  0
VERTEX
  8
1
  5
53F
 10
135.086
 20
308.948
 30
0.000000
  70
    32
  0
VERTEX
  8
1
  5
540
 10
135.122
 20
308.845
 30
0.000000
  70
    32
  0
VERTEX
  8
1
  5
541
 10
135.157
 20
308.740
 30
0.000000
  70
    32
  0
VERTEX
  8
1
  5
542
 10
135.192
 20
308.634
 30
0.000000
  70
    32
  0
VERTEX
  8
1
  5
543
 10
135.226
 20
308.527
 30
0.000000
  70
    32
  0
VERTEX
  8
1
  5
544
 10
135.260
 20
308.419
 30
0.000000
  70
    32
  0
VERTEX
  8
1
  5
545
 10
135.293
 20
308.310
 30
0.000000
  70
    32
  0
VERTEX
  8
1
  5
546
 10
135.326
 20
308.200
 30
0.000000
  70
    32
  0
VERTEX
  8
1
  5
547
 10
135.358
 20
308.089
 30
0.000000
  70
    32
  0
VERTEX
  8
1
  5
548
 10
135.389
 20
307.977
 30
0.000000
  70
    32
  0
VERTEX
  8
1
  5
549
 10
135.420
 20
307.864
 30
0.000000
  70
    32
  0
VERTEX
  8
1
  5
54A
 10
135.450
 20
307.750
 30
0.000000
  70
    32
  0
VERTEX
  8
1
  5
54B
 10
135.480
 20
307.636
 30
0.000000
  70
    32
  0
VERTEX
  8
1
  5
54C
 10
135.510
 20
307.520
 30
0.000000
  70
    32
  0
VERTEX
  8
1
  5
54D
 10
135.538
 20
307.404
 30
0.000000
  70
    32
  0
VERTEX
  8
1
  5
54E
 10
135.566
 20
307.286
 30
0.000000
  70
    32
  0
VERTEX
  8
1
  5
54F
 10
135.594
 20
307.168
 30
0.000000
  70
    32
  0
VERTEX
  8
1
  5
550
 10
135.621
 20
307.049
 30
0.000000
  70
    32
  0
VERTEX
  8
1
  5
551
 10
135.647
 20
306.929
 30
0.000000
  70
    32
  0
VERTEX
  8
1
  5
552
 10
135.673
 20
306.809
 30
0.000000
  70
    32
  0
VERTEX
  8
1
  5
553
 10
135.698
 20
306.687
 30
0.000000
  70
    32
  0
VERTEX
  8
1
  5
554
 10
135.723
 20
306.565
 30
0.000000
  70
    32
  0
VERTEX
  8
1
  5
555
 10
135.746
 20
306.442
 30
0.000000
  70
    32
  0
VERTEX
  8
1
  5
556
 10
135.770
 20
306.319
 30
0.000000
  70
    32
  0
VERTEX
  8
1
  5
557
 10
135.792
 20
306.194
 30
0.000000
  70
    32
  0
VERTEX
  8
1
  5
558
 10
135.814
 20
306.070
 30
0.000000
  70
    32
  0
VERTEX
  8
1
  5
559
 10
135.836
 20
305.944
 30
0.000000
  70
    32
  0
VERTEX
  8
1
  5
55A
 10
135.857
 20
305.818
 30
0.000000
  70
    32
  0
VERTEX
  8
1
  5
55B
 10
135.877
 20
305.691
 30
0.000000
  70
    32
  0
VERTEX
  8
1
  5
55C
 10
135.897
 20
305.563
 30
0.000000
  70
    32
  0
VERTEX
  8
1
  5
55D
 10
135.915
 20
305.435
 30
0.000000
  70
    32
  0
VERTEX
  8
1
  5
55E
 10
135.934
 20
305.307
 30
0.000000
  70
    32
  0
VERTEX
  8
1
  5
55F
 10
135.951
 20
305.177
 30
0.000000
  70
    32
  0
VERTEX
  8
1
  5
560
 10
135.968
 20
305.048
 30
0.000000
  70
    32
  0
VERTEX
  8
1
  5
561
 10
135.985
 20
304.918
 30
0.000000
  70
    32
  0
VERTEX
  8
1
  5
562
 10
136.000
 20
304.787
 30
0.000000
  70
    32
  0
VERTEX
  8
1
  5
563
 10
136.015
 20
304.656
 30
0.000000
  70
    32
  0
VERTEX
  8
1
  5
564
 10
136.030
 20
304.524
 30
0.000000
  70
    32
  0
VERTEX
  8
1
  5
565
 10
136.044
 20
304.392
 30
0.000000
  70
    32
  0
VERTEX
  8
1
  5
566
 10
136.057
 20
304.260
 30
0.000000
  70
    32
  0
VERTEX
  8
1
  5
567
 10
136.069
 20
304.127
 30
0.000000
  70
    32
  0
VERTEX
  8
1
  5
568
 10
136.081
 20
303.994
 30
0.000000
  70
    32
  0
VERTEX
  8
1
  5
569
 10
136.092
 20
303.860
 30
0.000000
  70
    32
  0
VERTEX
  8
1
  5
56A
 10
136.102
 20
303.726
 30
0.000000
  70
    32
  0
VERTEX
  8
1
  5
56B
 10
136.112
 20
303.592
 30
0.000000
  70
    32
  0
VERTEX
  8
1
  5
56C
 10
136.121
 20
303.458
 30
0.000000
  70
    32
  0
VERTEX
  8
1
  5
56D
 10
136.130
 20
303.323
 30
0.000000
  70
    32
  0
VERTEX
  8
1
  5
56E
 10
136.138
 20
303.188
 30
0.000000
  70
    32
  0
VERTEX
  8
1
  5
56F
 10
136.145
 20
303.053
 30
0.000000
  70
    32
  0
VERTEX
  8
1
  5
570
 10
136.151
 20
302.917
 30
0.000000
  70
    32
  0
VERTEX
  8
1
  5
571
 10
136.157
 20
302.782
 30
0.000000
  70
    32
  0
VERTEX
  8
1
  5
572
 10
136.162
 20
302.646
 30
0.000000
  70
    32
  0
VERTEX
  8
1
  5
573
 10
136.166
 20
302.510
 30
0.000000
  70
    32
  0
VERTEX
  8
1
  5
574
 10
136.170
 20
302.374
 30
0.000000
  70
    32
  0
VERTEX
  8
1
  5
575
 10
136.173
 20
302.238
 30
0.000000
  70
    32
  0
VERTEX
  8
1
  5
576
 10
136.175
 20
302.102
 30
0.000000
  70
    32
  0
VERTEX
  8
1
  5
577
 10
136.177
 20
301.966
 30
0.000000
  70
    32
  0
VERTEX
  8
1
  5
578
 10
136.178
 20
301.829
 30
0.000000
  70
    32
  0
VERTEX
  8
1
  5
579
 10
136.178
 20
301.693
 30
0.000000
  70
    32
  0
SEQEND
  8
1
  5
57A
  0
LINE
  5
390
  8
1外形線
 10
127.178484998185
 20
304.99203215479298
 30
0.0
 11
127.178484998185
 21
291.31893487192212
 31
0.0
  0
POLYLINE
  5
391
  8
1外形線
 10
127.17848499818501
 20
304.99203215479298
 30
0.0
 66
     1
 70
     8
  0
VERTEX
  8
1
  5
57B
 10
127.178
 20
304.992
 30
0.000000
  70
    32
  0
VERTEX
  8
1
  5
57C
 10
127.179
 20
305.088
 30
0.000000
  70
    32
  0
VERTEX
  8
1
  5
57D
 10
127.180
 20
305.184
 30
0.000000
  70
    32
  0
VERTEX
  8
1
  5
57E
 10
127.182
 20
305.279
 30
0.000000
  70
    32
  0
VERTEX
  8
1
  5
57F
 10
127.184
 20
305.375
 30
0.000000
  70
    32
  0
VERTEX
  8
1
  5
580
 10
127.187
 20
305.471
 30
0.000000
  70
    32
  0
VERTEX
  8
1
  5
581
 10
127.191
 20
305.566
 30
0.000000
  70
    32
  0
VERTEX
  8
1
  5
582
 10
127.195
 20
305.662
 30
0.000000
  70
    32
  0
VERTEX
  8
1
  5
583
 10
127.200
 20
305.757
 30
0.000000
  70
    32
  0
VERTEX
  8
1
  5
584
 10
127.206
 20
305.853
 30
0.000000
  70
    32
  0
VERTEX
  8
1
  5
585
 10
127.212
 20
305.948
 30
0.000000
  70
    32
  0
VERTEX
  8
1
  5
586
 10
127.219
 20
306.043
 30
0.000000
  70
    32
  0
VERTEX
  8
1
  5
587
 10
127.227
 20
306.138
 30
0.000000
  70
    32
  0
VERTEX
  8
1
  5
588
 10
127.236
 20
306.233
 30
0.000000
  70
    32
  0
VERTEX
  8
1
  5
589
 10
127.245
 20
306.327
 30
0.000000
  70
    32
  0
VERTEX
  8
1
  5
58A
 10
127.255
 20
306.421
 30
0.000000
  70
    32
  0
VERTEX
  8
1
  5
58B
 10
127.265
 20
306.515
 30
0.000000
  70
    32
  0
VERTEX
  8
1
  5
58C
 10
127.276
 20
306.609
 30
0.000000
  70
    32
  0
VERTEX
  8
1
  5
58D
 10
127.288
 20
306.703
 30
0.000000
  70
    32
  0
VERTEX
  8
1
  5
58E
 10
127.300
 20
306.796
 30
0.000000
  70
    32
  0
VERTEX
  8
1
  5
58F
 10
127.313
 20
306.889
 30
0.000000
  70
    32
  0
VERTEX
  8
1
  5
590
 10
127.327
 20
306.982
 30
0.000000
  70
    32
  0
VERTEX
  8
1
  5
591
 10
127.341
 20
307.075
 30
0.000000
  70
    32
  0
VERTEX
  8
1
  5
592
 10
127.357
 20
307.167
 30
0.000000
  70
    32
  0
VERTEX
  8
1
  5
593
 10
127.372
 20
307.259
 30
0.000000
  70
    32
  0
VERTEX
  8
1
  5
594
 10
127.389
 20
307.350
 30
0.000000
  70
    32
  0
VERTEX
  8
1
  5
595
 10
127.406
 20
307.442
 30
0.000000
  70
    32
  0
VERTEX
  8
1
  5
596
 10
127.423
 20
307.532
 30
0.000000
  70
    32
  0
VERTEX
  8
1
  5
597
 10
127.442
 20
307.623
 30
0.000000
  70
    32
  0
VERTEX
  8
1
  5
598
 10
127.460
 20
307.713
 30
0.000000
  70
    32
  0
VERTEX
  8
1
  5
599
 10
127.480
 20
307.802
 30
0.000000
  70
    32
  0
VERTEX
  8
1
  5
59A
 10
127.500
 20
307.892
 30
0.000000
  70
    32
  0
VERTEX
  8
1
  5
59B
 10
127.521
 20
307.980
 30
0.000000
  70
    32
  0
VERTEX
  8
1
  5
59C
 10
127.542
 20
308.069
 30
0.000000
  70
    32
  0
VERTEX
  8
1
  5
59D
 10
127.565
 20
308.157
 30
0.000000
  70
    32
  0
VERTEX
  8
1
  5
59E
 10
127.587
 20
308.244
 30
0.000000
  70
    32
  0
VERTEX
  8
1
  5
59F
 10
127.611
 20
308.331
 30
0.000000
  70
    32
  0
VERTEX
  8
1
  5
5A0
 10
127.634
 20
308.417
 30
0.000000
  70
    32
  0
VERTEX
  8
1
  5
5A1
 10
127.659
 20
308.503
 30
0.000000
  70
    32
  0
VERTEX
  8
1
  5
5A2
 10
127.684
 20
308.588
 30
0.000000
  70
    32
  0
VERTEX
  8
1
  5
5A3
 10
127.710
 20
308.673
 30
0.000000
  70
    32
  0
VERTEX
  8
1
  5
5A4
 10
127.736
 20
308.757
 30
0.000000
  70
    32
  0
VERTEX
  8
1
  5
5A5
 10
127.763
 20
308.841
 30
0.000000
  70
    32
  0
VERTEX
  8
1
  5
5A6
 10
127.791
 20
308.924
 30
0.000000
  70
    32
  0
VERTEX
  8
1
  5
5A7
 10
127.819
 20
309.007
 30
0.000000
  70
    32
  0
VERTEX
  8
1
  5
5A8
 10
127.847
 20
309.088
 30
0.000000
  70
    32
  0
VERTEX
  8
1
  5
5A9
 10
127.877
 20
309.170
 30
0.000000
  70
    32
  0
VERTEX
  8
1
  5
5AA
 10
127.906
 20
309.250
 30
0.000000
  70
    32
  0
VERTEX
  8
1
  5
5AB
 10
127.937
 20
309.330
 30
0.000000
  70
    32
  0
VERTEX
  8
1
  5
5AC
 10
127.968
 20
309.410
 30
0.000000
  70
    32
  0
VERTEX
  8
1
  5
5AD
 10
127.999
 20
309.488
 30
0.000000
  70
    32
  0
VERTEX
  8
1
  5
5AE
 10
128.031
 20
309.566
 30
0.000000
  70
    32
  0
VERTEX
  8
1
  5
5AF
 10
128.064
 20
309.644
 30
0.000000
  70
    32
  0
VERTEX
  8
1
  5
5B0
 10
128.097
 20
309.720
 30
0.000000
  70
    32
  0
VERTEX
  8
1
  5
5B1
 10
128.131
 20
309.796
 30
0.000000
  70
    32
  0
VERTEX
  8
1
  5
5B2
 10
128.165
 20
309.871
 30
0.000000
  70
    32
  0
VERTEX
  8
1
  5
5B3
 10
128.200
 20
309.946
 30
0.000000
  70
    32
  0
VERTEX
  8
1
  5
5B4
 10
128.235
 20
310.020
 30
0.000000
  70
    32
  0
VERTEX
  8
1
  5
5B5
 10
128.271
 20
310.093
 30
0.000000
  70
    32
  0
VERTEX
  8
1
  5
5B6
 10
128.307
 20
310.165
 30
0.000000
  70
    32
  0
VERTEX
  8
1
  5
5B7
 10
128.344
 20
310.236
 30
0.000000
  70
    32
  0
VERTEX
  8
1
  5
5B8
 10
128.382
 20
310.307
 30
0.000000
  70
    32
  0
VERTEX
  8
1
  5
5B9
 10
128.419
 20
310.377
 30
0.000000
  70
    32
  0
VERTEX
  8
1
  5
5BA
 10
128.458
 20
310.446
 30
0.000000
  70
    32
  0
VERTEX
  8
1
  5
5BB
 10
128.497
 20
310.514
 30
0.000000
  70
    32
  0
VERTEX
  8
1
  5
5BC
 10
128.536
 20
310.581
 30
0.000000
  70
    32
  0
VERTEX
  8
1
  5
5BD
 10
128.576
 20
310.648
 30
0.000000
  70
    32
  0
VERTEX
  8
1
  5
5BE
 10
128.616
 20
310.713
 30
0.000000
  70
    32
  0
VERTEX
  8
1
  5
5BF
 10
128.656
 20
310.778
 30
0.000000
  70
    32
  0
VERTEX
  8
1
  5
5C0
 10
128.698
 20
310.842
 30
0.000000
  70
    32
  0
VERTEX
  8
1
  5
5C1
 10
128.739
 20
310.905
 30
0.000000
  70
    32
  0
VERTEX
  8
1
  5
5C2
 10
128.781
 20
310.967
 30
0.000000
  70
    32
  0
VERTEX
  8
1
  5
5C3
 10
128.824
 20
311.028
 30
0.000000
  70
    32
  0
VERTEX
  8
1
  5
5C4
 10
128.867
 20
311.089
 30
0.000000
  70
    32
  0
VERTEX
  8
1
  5
5C5
 10
128.910
 20
311.148
 30
0.000000
  70
    32
  0
VERTEX
  8
1
  5
5C6
 10
128.954
 20
311.207
 30
0.000000
  70
    32
  0
VERTEX
  8
1
  5
5C7
 10
128.998
 20
311.264
 30
0.000000
  70
    32
  0
VERTEX
  8
1
  5
5C8
 10
129.042
 20
311.321
 30
0.000000
  70
    32
  0
VERTEX
  8
1
  5
5C9
 10
129.087
 20
311.376
 30
0.000000
  70
    32
  0
VERTEX
  8
1
  5
5CA
 10
129.133
 20
311.431
 30
0.000000
  70
    32
  0
VERTEX
  8
1
  5
5CB
 10
129.178
 20
311.485
 30
0.000000
  70
    32
  0
VERTEX
  8
1
  5
5CC
 10
129.225
 20
311.538
 30
0.000000
  70
    32
  0
VERTEX
  8
1
  5
5CD
 10
129.271
 20
311.589
 30
0.000000
  70
    32
  0
VERTEX
  8
1
  5
5CE
 10
129.318
 20
311.640
 30
0.000000
  70
    32
  0
VERTEX
  8
1
  5
5CF
 10
129.365
 20
311.690
 30
0.000000
  70
    32
  0
VERTEX
  8
1
  5
5D0
 10
129.413
 20
311.739
 30
0.000000
  70
    32
  0
VERTEX
  8
1
  5
5D1
 10
129.460
 20
311.786
 30
0.000000
  70
    32
  0
VERTEX
  8
1
  5
5D2
 10
129.509
 20
311.833
 30
0.000000
  70
    32
  0
VERTEX
  8
1
  5
5D3
 10
129.557
 20
311.879
 30
0.000000
  70
    32
  0
VERTEX
  8
1
  5
5D4
 10
129.606
 20
311.924
 30
0.000000
  70
    32
  0
VERTEX
  8
1
  5
5D5
 10
129.655
 20
311.967
 30
0.000000
  70
    32
  0
VERTEX
  8
1
  5
5D6
 10
129.705
 20
312.010
 30
0.000000
  70
    32
  0
VERTEX
  8
1
  5
5D7
 10
129.754
 20
312.051
 30
0.000000
  70
    32
  0
VERTEX
  8
1
  5
5D8
 10
129.805
 20
312.092
 30
0.000000
  70
    32
  0
VERTEX
  8
1
  5
5D9
 10
129.855
 20
312.131
 30
0.000000
  70
    32
  0
VERTEX
  8
1
  5
5DA
 10
129.906
 20
312.169
 30
0.000000
  70
    32
  0
VERTEX
  8
1
  5
5DB
 10
129.956
 20
312.206
 30
0.000000
  70
    32
  0
VERTEX
  8
1
  5
5DC
 10
130.008
 20
312.243
 30
0.000000
  70
    32
  0
VERTEX
  8
1
  5
5DD
 10
130.059
 20
312.278
 30
0.000000
  70
    32
  0
VERTEX
  8
1
  5
5DE
 10
130.111
 20
312.312
 30
0.000000
  70
    32
  0
VERTEX
  8
1
  5
5DF
 10
130.162
 20
312.344
 30
0.000000
  70
    32
  0
VERTEX
  8
1
  5
5E0
 10
130.215
 20
312.376
 30
0.000000
  70
    32
  0
VERTEX
  8
1
  5
5E1
 10
130.267
 20
312.407
 30
0.000000
  70
    32
  0
VERTEX
  8
1
  5
5E2
 10
130.319
 20
312.436
 30
0.000000
  70
    32
  0
VERTEX
  8
1
  5
5E3
 10
130.372
 20
312.465
 30
0.000000
  70
    32
  0
VERTEX
  8
1
  5
5E4
 10
130.425
 20
312.492
 30
0.000000
  70
    32
  0
VERTEX
  8
1
  5
5E5
 10
130.478
 20
312.518
 30
0.000000
  70
    32
  0
VERTEX
  8
1
  5
5E6
 10
130.532
 20
312.543
 30
0.000000
  70
    32
  0
VERTEX
  8
1
  5
5E7
 10
130.585
 20
312.567
 30
0.000000
  70
    32
  0
VERTEX
  8
1
  5
5E8
 10
130.639
 20
312.590
 30
0.000000
  70
    32
  0
VERTEX
  8
1
  5
5E9
 10
130.693
 20
312.611
 30
0.000000
  70
    32
  0
VERTEX
  8
1
  5
5EA
 10
130.746
 20
312.632
 30
0.000000
  70
    32
  0
VERTEX
  8
1
  5
5EB
 10
130.801
 20
312.651
 30
0.000000
  70
    32
  0
VERTEX
  8
1
  5
5EC
 10
130.855
 20
312.669
 30
0.000000
  70
    32
  0
VERTEX
  8
1
  5
5ED
 10
130.909
 20
312.686
 30
0.000000
  70
    32
  0
VERTEX
  8
1
  5
5EE
 10
130.964
 20
312.702
 30
0.000000
  70
    32
  0
VERTEX
  8
1
  5
5EF
 10
131.018
 20
312.716
 30
0.000000
  70
    32
  0
VERTEX
  8
1
  5
5F0
 10
131.073
 20
312.730
 30
0.000000
  70
    32
  0
VERTEX
  8
1
  5
5F1
 10
131.128
 20
312.742
 30
0.000000
  70
    32
  0
VERTEX
  8
1
  5
5F2
 10
131.182
 20
312.753
 30
0.000000
  70
    32
  0
VERTEX
  8
1
  5
5F3
 10
131.237
 20
312.763
 30
0.000000
  70
    32
  0
VERTEX
  8
1
  5
5F4
 10
131.292
 20
312.772
 30
0.000000
  70
    32
  0
VERTEX
  8
1
  5
5F5
 10
131.347
 20
312.780
 30
0.000000
  70
    32
  0
VERTEX
  8
1
  5
5F6
 10
131.403
 20
312.786
 30
0.000000
  70
    32
  0
VERTEX
  8
1
  5
5F7
 10
131.458
 20
312.792
 30
0.000000
  70
    32
  0
VERTEX
  8
1
  5
5F8
 10
131.513
 20
312.796
 30
0.000000
  70
    32
  0
VERTEX
  8
1
  5
5F9
 10
131.568
 20
312.799
 30
0.000000
  70
    32
  0
VERTEX
  8
1
  5
5FA
 10
131.623
 20
312.800
 30
0.000000
  70
    32
  0
VERTEX
  8
1
  5
5FB
 10
131.678
 20
312.801
 30
0.000000
  70
    32
  0
SEQEND
  8
1
  5
5FC
  0
LINE
  5
392
  8
1外形線
 10
136.17848499818501
 20
301.69315766387678
 30
0.0
 11
136.17848499818501
 21
291.31893487192212
 31
0.0
  0
ARC
  5
393
  8
1外形線
 10
137.17848499818501
 20
352.81893487192212
 30
0.0
 40
0.5
 50
180.0
 51
270.0
  0
ARC
  5
394
  8
1外形線
 10
117.178484998185
 20
389.31893487192212
 30
0.0
 40
25.0
 50
180.0
 51
270.0
  0
LINE
  5
395
  8
1外形線
 10
72.678484998185013
 20
387.31893487192212
 30
0.0
 11
72.678484998185013
 21
420.31893487192212
 31
0.0
  0
LINE
  5
396
  8
1外形線
 10
84.678484998185013
 20
387.31893487192212
 30
0.0
 11
84.678484998185013
 21
420.31893487192212
 31
0.0
  0
LINE
  5
397
  8
1外形線
 10
92.178484998185013
 20
418.31893487192212
 30
0.0
 11
92.178484998185013
 21
389.31893487192212
 31
0.0
  0
ARC
  5
398
  8
1外形線
 10
107.678484998185
 20
387.31893487192212
 30
0.0
 40
23.0
 50
180.0
 51
270.0
  0
LINE
  5
399
  8
1外形線
 10
103.678484998185
 20
390.81893487192212
 30
0.0
 11
103.678484998185
 21
388.81893487192212
 31
0.0
  0
LINE
  5
39A
  8
1外形線
 10
96.121860702183781
 20
388.81893487192212
 30
0.0
 11
96.121860702183781
 21
390.81893487192212
 31
0.0
  0
LINE
  5
39B
  8
1外形線
 10
103.678484998185
 20
388.81893487192212
 30
0.0
 11
96.121860702183781
 21
388.81893487192212
 31
0.0
  0
LINE
  5
39C
  8
1外形線
 10
103.678484998185
 20
392.31893487192212
 30
0.0
 11
96.121860702183781
 21
392.31893487192212
 31
0.0
  0
LINE
  5
39D
  8
1外形線
 10
103.678484998185
 20
390.81893487192212
 30
0.0
 11
96.121860702183781
 21
390.81893487192212
 31
0.0
  0
LINE
  5
39E
  8
1外形線
 10
103.678484998185
 20
397.81893487192212
 30
0.0
 11
96.121860702183781
 21
397.81893487192212
 31
0.0
  0
LINE
  5
39F
  8
1外形線
 10
103.678484998185
 20
395.81893487192212
 30
0.0
 11
96.121860702183781
 21
395.81893487192212
 31
0.0
  0
LINE
  5
3A0
  8
1外形線
 10
103.678484998185
 20
394.31893487192212
 30
0.0
 11
96.121860702183781
 21
394.31893487192212
 31
0.0
  0
LINE
  5
3A1
  8
1外形線
 10
96.121860702183781
 20
392.31893487192212
 30
0.0
 11
96.121860702183781
 21
394.31893487192212
 31
0.0
  0
LINE
  5
3A2
  8
1外形線
 10
96.121860702183781
 20
395.81893487192212
 30
0.0
 11
96.121860702183781
 21
397.81893487192212
 31
0.0
  0
LINE
  5
3A3
  8
1外形線
 10
103.678484998185
 20
394.31893487192212
 30
0.0
 11
103.678484998185
 21
392.31893487192212
 31
0.0
  0
LINE
  5
3A4
  8
1外形線
 10
103.678484998185
 20
397.81893487192212
 30
0.0
 11
103.678484998185
 21
395.81893487192212
 31
0.0
  0
CIRCLE
  5
3A5
  8
1外形線
 10
78.678484998185013
 20
403.81893487192212
 30
0.0
 40
2.25
  0
LINE
  5
3A6
  8
1外形線
 10
103.678484998185
 20
404.81893487192212
 30
0.0
 11
96.121860702183781
 21
404.81893487192212
 31
0.0
  0
LINE
  5
3A7
  8
1外形線
 10
103.678484998185
 20
406.31893487192201
 30
0.0
 11
96.121860702183781
 21
406.31893487192201
 31
0.0
  0
LINE
  5
3A8
  8
1外形線
 10
103.678484998185
 20
408.31893487192212
 30
0.0
 11
96.121860702183781
 21
408.31893487192212
 31
0.0
  0
LINE
  5
3A9
  8
1外形線
 10
103.678484998185
 20
401.31893487192212
 30
0.0
 11
96.121860702183781
 21
401.31893487192212
 31
0.0
  0
LINE
  5
3AA
  8
1外形線
 10
103.678484998185
 20
399.31893487192212
 30
0.0
 11
96.121860702183781
 21
399.31893487192212
 31
0.0
  0
LINE
  5
3AB
  8
1外形線
 10
103.678484998185
 20
402.81893487192212
 30
0.0
 11
96.121860702183781
 21
402.81893487192212
 31
0.0
  0
LINE
  5
3AC
  8
1外形線
 10
96.121860702183781
 20
408.31893487192212
 30
0.0
 11
96.121860702183781
 21
406.31893487192201
 31
0.0
  0
LINE
  5
3AD
  8
1外形線
 10
96.121860702183781
 20
399.31893487192212
 30
0.0
 11
96.121860702183781
 21
401.31893487192212
 31
0.0
  0
LINE
  5
3AE
  8
1外形線
 10
96.121860702183781
 20
404.81893487192212
 30
0.0
 11
96.121860702183781
 21
402.81893487192212
 31
0.0
  0
LINE
  5
3AF
  8
1外形線
 10
103.678484998185
 20
406.31893487192201
 30
0.0
 11
103.678484998185
 21
408.31893487192212
 31
0.0
  0
LINE
  5
3B0
  8
1外形線
 10
103.678484998185
 20
401.31893487192212
 30
0.0
 11
103.678484998185
 21
399.31893487192212
 31
0.0
  0
LINE
  5
3B1
  8
1外形線
 10
103.678484998185
 20
402.81893487192212
 30
0.0
 11
103.678484998185
 21
404.81893487192212
 31
0.0
  0
LINE
  5
3B2
  8
1外形線
 10
103.678484998185
 20
409.81893487192212
 30
0.0
 11
96.121860702183781
 21
409.81893487192212
 31
0.0
  0
LINE
  5
3B3
  8
1外形線
 10
103.678484998185
 20
418.81893487192201
 30
0.0
 11
96.121860702183781
 21
418.81893487192201
 31
0.0
  0
LINE
  5
3B4
  8
1外形線
 10
103.678484998185
 20
411.81893487192212
 30
0.0
 11
96.121860702183781
 21
411.81893487192212
 31
0.0
  0
LINE
  5
3B5
  8
1外形線
 10
103.678484998185
 20
413.31893487192212
 30
0.0
 11
96.121860702183781
 21
413.31893487192212
 31
0.0
  0
LINE
  5
3B6
  8
1外形線
 10
103.678484998185
 20
415.31893487192212
 30
0.0
 11
96.121860702183781
 21
415.31893487192212
 31
0.0
  0
LINE
  5
3B7
  8
1外形線
 10
103.678484998185
 20
416.81893487192212
 30
0.0
 11
96.121860702183781
 21
416.81893487192212
 31
0.0
  0
LINE
  5
3B8
  8
1外形線
 10
96.121860702183781
 20
418.81893487192201
 30
0.0
 11
96.121860702183781
 21
416.81893487192212
 31
0.0
  0
LINE
  5
3B9
  8
1外形線
 10
96.121860702183781
 20
411.81893487192212
 30
0.0
 11
96.121860702183781
 21
409.81893487192212
 31
0.0
  0
LINE
  5
3BA
  8
1外形線
 10
96.121860702183781
 20
415.31893487192212
 30
0.0
 11
96.121860702183781
 21
413.31893487192212
 31
0.0
  0
LINE
  5
3BB
  8
1外形線
 10
103.678484998185
 20
416.81893487192212
 30
0.0
 11
103.678484998185
 21
418.81893487192201
 31
0.0
  0
LINE
  5
3BC
  8
1外形線
 10
103.678484998185
 20
409.81893487192212
 30
0.0
 11
103.678484998185
 21
411.81893487192212
 31
0.0
  0
LINE
  5
3BD
  8
1外形線
 10
103.678484998185
 20
413.31893487192212
 30
0.0
 11
103.678484998185
 21
415.31893487192212
 31
0.0
  0
ARC
  5
3BE
  8
1外形線
 10
131.67848499818501
 20
373.28893487192209
 30
0.0
 40
4.5
 50
0.0
 51
180.0
  0
LINE
  5
3BF
  8
1外形線
 10
136.17848499818541
 20
367.66914750538291
 30
0.0
 11
127.178484998185
 21
367.66914750538291
 31
0.0
  0
LINE
  5
3C0
  8
1外形線
 10
127.178484998185
 20
367.66914750538291
 30
0.0
 11
127.178484998185
 21
373.28893487192209
 31
0.0
  0
CIRCLE
  5
3C1
  8
1外形線
 10
131.67848499818501
 20
373.28893487192209
 30
0.0
 40
1.75
  0
LINE
  5
3C2
  8
1外形線
 10
136.17848499818541
 20
367.66914750538291
 30
0.0
 11
136.17848499818501
 21
373.28893487192209
 31
0.0
  0
ARC
  5
3C3
  8
1外形線
 10
131.67848499818501
 20
434.3489348719221
 30
0.0
 40
4.5
 50
180.0
 51
0.0
  0
CIRCLE
  5
3C4
  8
1外形線
 10
131.67848499818501
 20
434.3489348719221
 30
0.0
 40
1.75
  0
LINE
  5
3C5
  8
1外形線
 10
107.678484998185
 20
455.31893487192212
 30
0.0
 11
136.67848499818501
 21
455.31893487192212
 31
0.0
  0
LINE
  5
3C6
  8
1外形線
 10
136.17848499818541
 20
439.96872223846128
 30
0.0
 11
127.178484998185
 21
439.96872223846128
 31
0.0
  0
LINE
  5
3C7
  8
1外形線
 10
136.67848499818501
 20
443.31893487192212
 30
0.0
 11
136.67848499818501
 21
455.31893487192212
 31
0.0
  0
ARC
  5
3C8
  8
1外形線
 10
137.17848499818501
 20
454.81893487192212
 30
0.0
 40
0.5
 50
90.0
 51
180.0
  0
LINE
  5
3C9
  8
1外形線
 10
484.67848499818501
 20
535.31893487192212
 30
0.0
 11
484.67848499818501
 21
22.318934871922121
 31
0.0
  0
LINE
  5
3CA
  8
1外形線
 10
420.64848499818498
 20
272.31893487192178
 30
0.0
 11
418.88521519110031
 21
282.3189348719219
 31
0.0
  0
ARC
  5
3CB
  8
1外形線
 10
396.67848499818501
 20
246.3189348719221
 30
0.0
 40
27.0
 50
359.9999999999996
 51
90.0
  0
LINE
  5
3CC
  8
1外形線
 10
422.67848499818501
 20
272.31893487192212
 30
0.0
 11
417.50483900863492
 21
301.66013931359532
 31
0.0
  0
LINE
  5
3CD
  8
1外形線
 10
420.64763177441358
 20
272.31893487192212
 30
0.0
 11
415.53522350261039
 21
301.31284295826151
 31
0.0
  0
LINE
  5
3CE
  8
1外形線
 10
345.70848499818487
 20
272.31893487192178
 30
0.0
 11
347.47175480526943
 21
282.3189348719219
 31
0.0
  0
LINE
  5
3CF
  8
1外形線
 10
343.67848499818501
 20
272.31893487192212
 30
0.0
 11
348.85213098773511
 21
301.66013931359538
 31
0.0
  0
LINE
  5
3D0
  8
1外形線
 10
345.70933822195627
 20
272.31893487192212
 30
0.0
 11
350.82174649375952
 21
301.31284295826151
 31
0.0
  0
LINE
  5
3D1
  8
1外形線
 10
169.67848499818501
 20
272.31893487192212
 30
0.0
 11
169.67848499818501
 21
321.81893487192212
 31
0.0
  0
LINE
  5
3D2
  8
1外形線
 10
189.67848499818501
 20
272.31893487192212
 30
0.0
 11
189.67848499818501
 21
321.81893487192212
 31
0.0
  0
ARC
  5
3D3
  8
1外形線
 10
369.67848499818501
 20
246.3189348719219
 30
0.0
 40
27.0
 50
90.0
 51
180.0
  0
ARC
  5
3D4
  8
1外形線
 10
363.67848499818501
 20
225.3189348719219
 30
0.0
 40
20.0
 50
180.0
 51
270.0
  0
LINE
  5
3D5
  8
1外形線
 10
375.17848499818501
 20
232.3189348719219
 30
0.0
 11
353.67848499818501
 21
232.31893487192201
 31
0.0
  0
ARC
  5
3D6
  8
1外形線
 10
374.17848499818501
 20
246.3189348719221
 30
0.0
 40
21.0
 50
90.0
 51
180.0
  0
ARC
  5
3D7
  8
1外形線
 10
374.17848499818501
 20
246.3189348719221
 30
0.0
 40
23.0
 50
90.0
 51
180.0
  0
LINE
  5
3D8
  8
1外形線
 10
331.67848499818501
 20
205.31893487192181
 30
0.0
 11
434.67848499818501
 21
205.31893487192181
 31
0.0
  0
ARC
  5
3D9
  8
1外形線
 10
371.1784849981849
 20
225.3189348719219
 30
0.0
 40
20.0
 50
180.0
 51
270.0
  0
ARC
  5
3DA
  8
1外形線
 10
369.67848499818501
 20
246.3189348719219
 30
0.0
 40
26.0
 50
90.0
 51
180.0
  0
ARC
  5
3DB
  8
1外形線
 10
371.1784849981849
 20
225.3189348719219
 30
0.0
 40
18.0
 50
180.0
 51
270.0
  0
LINE
  5
3DC
  8
1外形線
 10
301.67848499818501
 20
92.318934871922124
 30
0.0
 11
301.67848499818518
 21
155.3189348719221
 31
0.0
  0
LINE
  5
3DD
  8
1外形線
 10
167.47028573583
 20
109.348934871922
 30
0.0
 11
167.47028573583
 21
123.0689348719221
 31
0.0
  0
LINE
  5
3DE
  8
1外形線
 10
165.70701592874531
 20
109.348934871922
 30
0.0
 11
165.70701592874531
 21
123.0689348719221
 31
0.0
  0
LINE
  5
3DF
  8
1外形線
 10
179.6784849981849
 20
84.318934871922124
 30
0.0
 11
262.67848499818501
 21
84.318934871922124
 31
0.0
  0
ARC
  5
3E0
  8
1外形線
 10
167.67848499818481
 20
84.318934871922124
 30
0.0
 40
12.0
 50
270.0
 51
0.0
  0
LINE
  5
3E1
  8
1外形線
 10
301.17848499818501
 20
91.818934871922124
 30
0.0
 11
283.65572239800548
 21
91.818934871922124
 31
0.0
  0
ARC
  5
3E2
  8
1外形線
 10
270.91035263843651
 20
91.318934871922124
 30
0.0
 40
7.0
 50
270.0
 51
313.15238973400591
  0
LINE
  5
3E3
  8
1外形線
 10
268.67848499818518
 20
84.318934871922124
 30
0.0
 11
268.67848499818518
 21
97.915810634489276
 31
0.0
  0
LINE
  5
3E4
  8
1外形線
 10
262.67848499818501
 20
84.318934871922124
 30
0.0
 11
262.67848499818518
 21
97.915810634489276
 31
0.0
  0
LINE
  5
3E5
  8
1外形線
 10
263.67848499818501
 20
83.318934871922124
 30
0.0
 11
267.67848499818518
 21
83.318934871922124
 31
0.0
  0
ARC
  5
3E6
  8
1外形線
 10
263.67848499818501
 20
84.318934871922124
 30
0.0
 40
1.0
 50
180.0
 51
270.0
  0
LINE
  5
3E7
  8
1外形線
 10
262.67848499818501
 20
84.318934871922124
 30
0.0
 11
262.67848499818518
 21
84.318934871922124
 31
0.0
  0
LINE
  5
3E8
  8
1外形線
 10
268.67848499818501
 20
84.318934871922124
 30
0.0
 11
270.91035263843651
 21
84.318934871922124
 31
0.0
  0
ARC
  5
3E9
  8
1外形線
 10
267.67848499818518
 20
84.318934871922124
 30
0.0
 40
1.0
 50
270.0
 51
0.0
  0
LINE
  5
3EA
  8
1外形線
 10
268.67848499818518
 20
84.318934871922124
 30
0.0
 11
268.67848499818501
 21
84.318934871922124
 31
0.0
  0
LINE
  5
3EB
  8
1外形線
 10
280.2360167535989
 20
90.466620892622458
 30
0.0
 11
275.69794054060588
 21
86.212174442941546
 31
0.0
  0
ARC
  5
3EC
  8
1外形線
 10
283.65572239800548
 20
86.818934871922124
 30
0.0
 40
5.0
 50
90.0
 51
133.15238973400469
  0
ARC
  5
3ED
  8
1外形線
 10
301.17848499818501
 20
92.318934871922124
 30
0.0
 40
0.5
 50
270.0
 51
0.0
  0
LINE
  5
3EE
  8
1外形線
 10
223.97848499818471
 20
239.3189348719221
 30
0.0
 11
301.17848499818479
 21
239.3189348719221
 31
0.0
  0
LINE
  5
3EF
  8
1外形線
 10
179.6784849981849
 20
163.3189348719221
 30
0.0
 11
262.67848499818501
 21
163.3189348719221
 31
0.0
  0
LINE
  5
3F0
  8
1外形線
 10
167.47028573583
 20
124.5689348719221
 30
0.0
 11
167.47028573583
 21
138.28893487192209
 31
0.0
  0
LINE
  5
3F1
  8
1外形線
 10
165.70701592874579
 20
124.5689348719221
 30
0.0
 11
165.70701592874531
 21
138.28893487192209
 31
0.0
  0
LINE
  5
3F2
  8
1外形線
 10
162.20848499818459
 20
127.3189348719221
 30
0.0
 11
165.70701592874579
 21
127.3189348719221
 31
0.0
  0
LINE
  5
3F3
  8
1外形線
 10
162.20848499818459
 20
120.3189348719221
 30
0.0
 11
165.70701592874531
 21
120.3189348719221
 31
0.0
  0
LINE
  5
3F4
  8
1外形線
 10
165.70701592874531
 20
123.0689348719221
 30
0.0
 11
167.47028573583
 21
123.0689348719221
 31
0.0
  0
LINE
  5
3F5
  8
1外形線
 10
165.70701592874579
 20
124.5689348719221
 30
0.0
 11
167.47028573583
 21
124.5689348719221
 31
0.0
  0
ARC
  5
3F6
  8
1外形線
 10
167.67848499818481
 20
163.3189348719221
 30
0.0
 40
12.0
 50
0.0
 51
90.0
  0
CIRCLE
  5
3F7
  8
1外形線
 10
224.67848499818521
 20
123.8189348719221
 30
0.0
 40
2.2999999999999989
  0
ARC
  5
3F8
  8
1外形線
 10
178.67848499818501
 20
206.3189348719221
 30
0.0
 40
1.0
 50
0.0000000000016284
 51
90.0
  0
LINE
  5
3F9
  8
1外形線
 10
179.67848499818501
 20
206.3189348719221
 30
0.0
 11
179.67848499818501
 21
205.3189348719221
 31
0.0
  0
LINE
  5
3FA
  8
1外形線
 10
237.6784849981849
 20
263.51631839384191
 30
0.0
 11
237.6784849981849
 21
250.3189348719221
 31
0.0
  0
LINE
  5
3FB
  8
1外形線
 10
246.67848499818481
 20
263.51631839384243
 30
0.0
 11
246.67848499818481
 21
250.3189348719221
 31
0.0
  0
LINE
  5
3FC
  8
1外形線
 10
237.6784849981849
 20
250.3189348719221
 30
0.0
 11
246.67848499818481
 21
250.3189348719221
 31
0.0
  0
ARC
  5
3FD
  8
1外形線
 10
242.1784849981849
 20
263.02943230823308
 30
0.0
 40
4.5262631452843802
 50
6.1752041246910601
 51
173.82479587530889
  0
LINE
  5
3FE
  8
1外形線
 10
280.2360167535989
 20
157.17124885122169
 30
0.0
 11
275.69794054060588
 21
161.4256953009027
 31
0.0
  0
LINE
  5
3FF
  8
1外形線
 10
268.67848499818518
 20
163.3189348719221
 30
0.0
 11
268.67848499818518
 21
149.72205910935489
 31
0.0
  0
LINE
  5
400
  8
1外形線
 10
262.67848499818501
 20
163.3189348719221
 30
0.0
 11
262.67848499818518
 21
149.72205910935489
 31
0.0
  0
LINE
  5
401
  8
1外形線
 10
301.17848499818518
 20
155.8189348719221
 30
0.0
 11
283.65572239800548
 21
155.8189348719221
 31
0.0
  0
ARC
  5
402
  8
1外形線
 10
283.65572239800548
 20
160.8189348719221
 30
0.0
 40
5.0
 50
226.8476102659952
 51
270.0
  0
ARC
  5
403
  8
1外形線
 10
301.17848499818518
 20
155.3189348719221
 30
0.0
 40
0.5
 50
0.0
 51
90.0
  0
ARC
  5
404
  8
1外形線
 10
270.91035263843651
 20
156.3189348719221
 30
0.0
 40
7.0
 50
46.84761026599525
 51
90.0
  0
LINE
  5
405
  8
1外形線
 10
263.67848499818501
 20
164.3189348719221
 30
0.0
 11
267.67848499818518
 21
164.3189348719221
 31
0.0
  0
ARC
  5
406
  8
1外形線
 10
263.67848499818501
 20
163.3189348719221
 30
0.0
 40
1.0
 50
90.0
 51
180.0
  0
LINE
  5
407
  8
1外形線
 10
262.67848499818501
 20
163.3189348719221
 30
0.0
 11
262.67848499818501
 21
163.3189348719221
 31
0.0
  0
LINE
  5
408
  8
1外形線
 10
268.67848499818501
 20
163.3189348719221
 30
0.0
 11
270.91035263843651
 21
163.3189348719221
 31
0.0
  0
LINE
  5
409
  8
1外形線
 10
268.67848499818518
 20
163.3189348719221
 30
0.0
 11
268.67848499818518
 21
163.3189348719221
 31
0.0
  0
ARC
  5
40A
  8
1外形線
 10
267.67848499818518
 20
163.3189348719221
 30
0.0
 40
1.0
 50
0.0
 51
90.0
  0
LINE
  5
40B
  8
1外形線
 10
301.67848499818501
 20
205.8189348719221
 30
0.0
 11
301.67848499818501
 21
239.3189348719221
 31
0.0
  0
LINE
  5
40C
  8
1外形線
 10
273.67848499818501
 20
239.3189348719221
 30
0.0
 11
273.6784849981849
 21
205.3189348719221
 31
0.0
  0
LINE
  5
40D
  8
1外形線
 10
268.6784849981849
 20
239.3189348719221
 30
0.0
 11
268.6784849981849
 21
205.3189348719221
 31
0.0
  0
LINE
  5
40E
  8
1外形線
 10
281.67848499818501
 20
239.3189348719221
 30
0.0
 11
281.67848499818501
 21
205.3189348719221
 31
0.0
  0
LINE
  5
40F
  8
1外形線
 10
262.6784849981849
 20
239.3189348719221
 30
0.0
 11
262.6784849981849
 21
205.3189348719221
 31
0.0
  0
ARC
  5
410
  8
1外形線
  6
HIDDEN2
 10
301.17848499818501
 20
205.8189348719221
 30
0.0
 40
0.5
 50
270.0
 51
0.0
  0
LINE
  5
411
  8
1外形線
 10
283.11246613024161
 20
267.31893487192212
 30
0.0
 11
301.17848499818479
 21
267.31893487192212
 31
0.0
  0
LINE
  5
412
  8
1外形線
 10
268.67848499818462
 20
272.31893487192212
 30
0.0
 11
268.6784849981849
 21
239.3189348719221
 31
0.0
  0
LINE
  5
413
  8
1外形線
 10
273.6784849981849
 20
272.02487614077432
 30
0.0
 11
273.6784849981849
 21
239.3189348719221
 31
0.0
  0
LINE
  5
414
  8
1外形線
 10
281.67848499818462
 20
267.52897682274198
 30
0.0
 11
281.67848499818479
 21
239.3189348719221
 31
0.0
  0
LINE
  5
415
  8
1外形線
 10
262.67848499818462
 20
272.31893487192212
 30
0.0
 11
262.67848499818462
 21
239.3189348719221
 31
0.0
  0
ARC
  5
416
  8
1外形線
 10
271.67091141330582
 20
265.31893487192212
 30
0.0
 40
7.0
 50
57.994616791915412
 51
90.0
  0
LINE
  5
417
  8
1外形線
 10
263.67848499818462
 20
273.31893487192212
 30
0.0
 11
267.67848499818462
 21
273.31893487192212
 31
0.0
  0
ARC
  5
418
  8
1外形線
 10
263.67848499818462
 20
272.31893487192212
 30
0.0
 40
1.0
 50
90.0
 51
180.0
  0
LINE
  5
419
  8
1外形線
 10
268.6784849981849
 20
272.31893487192212
 30
0.0
 11
271.67091141330582
 21
272.31893487192212
 31
0.0
  0
ARC
  5
41A
  8
1外形線
 10
267.67848499818462
 20
272.31893487192212
 30
0.0
 40
1.0
 50
0.0
 51
90.0
  0
LINE
  5
41B
  8
1外形線
 10
280.46247143022572
 20
268.07894335189673
 30
0.0
 11
275.3809039933281
 21
271.25492299995773
 31
0.0
  0
ARC
  5
41C
  8
1外形線
 10
283.11246613024161
 20
272.31893487192212
 30
0.0
 40
5.0
 50
237.9946167919154
 51
270.0
  0
LINE
  5
41D
  8
1外形線
 10
301.6784849981849
 20
239.8189348719221
 30
0.0
 11
301.6784849981849
 21
266.81893487192212
 31
0.0
  0
LINE
  5
41E
  8
1外形線
 10
301.17848499818479
 20
239.3189348719221
 30
0.0
 11
301.67848499818501
 21
239.3189348719221
 31
0.0
  0
LINE
  5
41F
  8
1外形線
 10
301.67848499818501
 20
239.3189348719221
 30
0.0
 11
301.6784849981849
 21
239.8189348719221
 31
0.0
  0
ARC
  5
420
  8
1外形線
 10
301.17848499818479
 20
239.8189348719221
 30
0.0
 40
0.5
 50
270.0
 51
0.0
  0
ARC
  5
421
  8
1外形線
 10
301.17848499818479
 20
266.81893487192212
 30
0.0
 40
0.5
 50
0.0
 51
90.0
  0
LINE
  5
422
  8
1外形線
 10
353.17848499818501
 20
244.0189348719218
 30
0.0
 11
353.17848499818501
 21
225.3189348719219
 31
0.0
  0
LINE
  5
423
  8
1外形線
 10
351.17848499818501
 20
239.31893487192181
 30
0.0
 11
351.17848499818501
 21
225.3189348719219
 31
0.0
  0
LINE
  5
424
  8
1外形線
 10
343.67848499818501
 20
239.31893487192181
 30
0.0
 11
343.67848499818501
 21
225.3189348719219
 31
0.0
  0
LINE
  5
425
  8
1外形線
 10
342.67848499818501
 20
239.31893487192181
 30
0.0
 11
342.67848499818501
 21
225.3189348719219
 31
0.0
  0
LINE
  5
426
  8
1外形線
 10
353.67848499818501
 20
246.3189348719219
 30
0.0
 11
353.67848499818501
 21
221.10585998533381
 31
0.0
  0
LINE
  5
427
  8
1外形線
 10
332.67848499818501
 20
207.3189348719219
 30
0.0
 11
341.67848499818501
 21
207.3189348719219
 31
0.0
  0
LINE
  5
428
  8
1外形線
 10
331.67848499818501
 20
206.3189348719219
 30
0.0
 11
331.67848499818501
 21
205.31893487192181
 31
0.0
  0
ARC
  5
429
  8
1外形線
 10
332.67848499818501
 20
206.3189348719219
 30
0.0
 40
1.0
 50
90.0
 51
180.0
  0
LINE
  5
42A
  8
1外形線
 10
343.67848499818501
 20
218.91581063448911
 30
0.0
 11
343.67848499818501
 21
209.3189348719219
 31
0.0
  0
ARC
  5
42B
  8
1外形線
 10
363.67848499818501
 20
225.3189348719219
 30
0.0
 40
21.0
 50
180.0
 51
252.2472098380529
  0
ARC
  5
42C
  8
1外形線
 10
341.67848499818501
 20
209.3189348719219
 30
0.0
 40
2.0
 50
270.0
 51
0.0
  0
LINE
  5
42D
  8
1外形線
 10
343.67848499818501
 20
272.31893487192178
 30
0.0
 11
343.67848499818501
 21
253.59904476120241
 31
0.0
  0
LINE
  5
42E
  8
1外形線
 10
351.70152652928931
 20
239.3189348719221
 30
0.0
 11
342.67848499818501
 21
239.31893487192181
 31
0.0
  0
LINE
  5
42F
  8
1外形線
 10
342.67848499818501
 20
239.31893487192181
 30
0.0
 11
351.17848499818501
 21
239.31893487192181
 31
0.0
  0
LINE
  5
430
  8
1外形線
 10
342.67848499818501
 20
246.3189348719219
 30
0.0
 11
342.67848499818501
 21
239.31893487192181
 31
0.0
  0
LINE
  5
431
  8
1外形線
 10
343.67848499818501
 20
239.31893487192181
 30
0.0
 11
343.67848499818501
 21
246.3189348719219
 31
0.0
  0
LINE
  5
432
  8
1外形線
 10
356.67848499818501
 20
257.92712163816589
 30
0.0
 11
356.67848499818501
 21
246.8189348719219
 31
0.0
  0
LINE
  5
433
  8
1外形線
 10
353.17848499818501
 20
246.3189348719219
 30
0.0
 11
356.17848499818501
 21
246.3189348719219
 31
0.0
  0
LINE
  5
434
  8
1外形線
 10
352.37848499818477
 20
244.3189348719221
 30
0.0
 11
352.00057111285008
 21
239.59501130523711
 31
0.0
  0
ARC
  5
435
  8
1外形線
 10
352.878484998185
 20
244.0189348719218
 30
0.0
 40
0.3
 50
0.0
 51
90.0
  0
ARC
  5
436
  8
1外形線
 10
352.6554434670806
 20
244.0189348719218
 30
0.0
 40
0.3
 50
90.0
 51
175.4260787400992
  0
LINE
  5
437
  8
1外形線
 10
353.17848499818501
 20
246.3189348719221
 30
0.0
 11
353.17848499818501
 21
244.3189348719221
 31
0.0
  0
LINE
  5
438
  8
1外形線
 10
352.37848499818477
 20
244.3189348719221
 30
0.0
 11
353.17848499818501
 21
244.3189348719221
 31
0.0
  0
LINE
  5
439
  8
1外形線
 10
353.17848499818501
 20
244.3189348719221
 30
0.0
 11
352.37848499818477
 21
244.3189348719221
 31
0.0
  0
LINE
  5
43A
  8
1外形線
 10
351.97848499818519
 20
239.31893487192181
 30
0.0
 11
351.17848499818501
 21
239.31893487192181
 31
0.0
  0
LINE
  5
43B
  8
1外形線
 10
351.17848499818501
 20
239.31893487192181
 30
0.0
 11
351.97848499818519
 21
239.31893487192181
 31
0.0
  0
LINE
  5
43C
  8
1外形線
 10
351.97848499818519
 20
239.31893487192181
 30
0.0
 11
352.35639888351977
 21
244.0428584386066
 31
0.0
  0
LINE
  5
43D
  8
1外形線
 10
351.17848499818501
 20
246.3189348719221
 30
0.0
 11
351.17848499818501
 21
239.3189348719221
 31
0.0
  0
ARC
  5
43E
  8
1外形線
 10
351.70152652928931
 20
239.61893487192179
 30
0.0
 40
0.3
 50
270.0
 51
355.42607874009917
  0
ARC
  5
43F
  8
1外形線
 10
356.17848499818501
 20
246.8189348719219
 30
0.0
 40
0.5
 50
270.0
 51
0.0000000000004071
  0
LINE
  5
440
  8
1外形線
 10
362.39837510890442
 20
272.31893487192178
 30
0.0
 11
343.67848499818501
 21
272.31893487192178
 31
0.0
  0
LINE
  5
441
  8
1外形線
 10
346.2374659403103
 20
275.3189348719219
 30
0.0
 11
347.70848499818487
 21
275.3189348719219
 31
0.0
  0
LINE
  5
442
  8
1外形線
 10
345.70848499818487
 20
272.31893487192178
 30
0.0
 11
346.2374659403103
 21
275.3189348719219
 31
0.0
  0
LINE
  5
443
  8
1外形線
 10
347.70848499818487
 20
275.3189348719219
 30
0.0
 11
347.70848499818487
 21
272.31893487192178
 31
0.0
  0
LINE
  5
444
  8
1外形線
 10
422.67848499818501
 20
272.31893487192212
 30
0.0
 11
403.09468348528043
 21
272.31893487192178
 31
0.0
  0
ARC
  5
445
  8
1外形線
 10
413.47848499818508
 20
244.0189348719218
 30
0.0
 40
0.3
 50
90.0
 51
180.0
  0
LINE
  5
446
  8
1外形線
 10
413.97848499818508
 20
244.3189348719219
 30
0.0
 11
413.1784849981849
 21
244.3189348719219
 31
0.0
  0
LINE
  5
447
  8
1外形線
 10
413.1784849981849
 20
244.3189348719219
 30
0.0
 11
413.97848499818508
 21
244.3189348719219
 31
0.0
  0
ARC
  5
448
  8
1外形線
 10
402.67848499818501
 20
225.3189348719219
 30
0.0
 40
21.0
 50
287.75279016194702
 51
0.0
  0
ARC
  5
449
  8
1外形線
 10
395.17848499818501
 20
225.3189348719219
 30
0.0
 40
18.0
 50
270.0
 51
0.0
  0
ARC
  5
44A
  8
1外形線
 10
392.17848499818501
 20
246.3189348719221
 30
0.0
 40
21.0
 50
0.0
 51
90.0
  0
ARC
  5
44B
  8
1外形線
 10
396.67848499818501
 20
246.3189348719219
 30
0.0
 40
26.0
 50
0.0
 51
90.0
  0
ARC
  5
44C
  8
1外形線
 10
392.17848499818501
 20
246.3189348719221
 30
0.0
 40
23.0
 50
0.0
 51
90.0
  0
ARC
  5
44D
  8
1外形線
 10
395.17848499818501
 20
225.3189348719219
 30
0.0
 40
20.0
 50
270.0
 51
0.0
  0
ARC
  5
44E
  8
1外形線
 10
402.67848499818501
 20
225.3189348719219
 30
0.0
 40
20.0
 50
270.0
 51
0.0
  0
LINE
  5
44F
  8
1外形線
 10
413.1784849981849
 20
244.0189348719218
 30
0.0
 11
413.1784849981849
 21
225.3189348719219
 31
0.0
  0
LINE
  5
450
  8
1外形線
 10
412.67848499818501
 20
246.3189348719219
 30
0.0
 11
412.67848499818501
 21
221.10585998533381
 31
0.0
  0
LINE
  5
451
  8
1外形線
 10
371.1784849981849
 20
207.3189348719219
 30
0.0
 11
395.17848499818501
 21
207.3189348719219
 31
0.0
  0
LINE
  5
452
  8
1外形線
 10
362.9322737469497
 20
209.3189348719219
 30
0.0
 11
403.42469624942032
 21
209.3189348719219
 31
0.0
  0
LINE
  5
453
  8
1外形線
 10
375.17848499818501
 20
232.3189348719219
 30
0.0
 11
375.17848499818501
 21
209.3189348719219
 31
0.0
  0
LINE
  5
454
  8
1外形線
 10
373.67848499818501
 20
232.3189348719219
 30
0.0
 11
373.67848499818501
 21
209.3189348719219
 31
0.0
  0
LINE
  5
455
  8
1外形線
 10
391.17848499818501
 20
232.3189348719219
 30
0.0
 11
391.17848499818501
 21
209.3189348719219
 31
0.0
  0
LINE
  5
456
  8
1外形線
 10
392.67848499818501
 20
232.3189348719219
 30
0.0
 11
392.67848499818501
 21
209.3189348719219
 31
0.0
  0
LINE
  5
457
  8
1外形線
 10
412.67848499818501
 20
232.31893487192201
 30
0.0
 11
391.17848499818501
 21
232.3189348719219
 31
0.0
  0
LINE
  5
458
  8
1外形線
 10
396.67848499818479
 20
273.31893487192212
 30
0.0
 11
369.67848499818501
 21
273.3189348719219
 31
0.0
  0
LINE
  5
459
  8
1外形線
 10
396.67848499818501
 20
272.31893487192178
 30
0.0
 11
369.67848499818501
 21
272.31893487192178
 31
0.0
  0
LINE
  5
45A
  8
1外形線
 10
392.17848499818501
 20
267.31893487192212
 30
0.0
 11
374.17848499818501
 21
267.31893487192212
 31
0.0
  0
LINE
  5
45B
  8
1外形線
 10
392.17848499818501
 20
269.31893487192212
 30
0.0
 11
374.17848499818501
 21
269.31893487192212
 31
0.0
  0
LINE
  5
45C
  8
1外形線
 10
409.67848499818518
 20
257.92712163816589
 30
0.0
 11
409.6784849981849
 21
246.8189348719219
 31
0.0
  0
LINE
  5
45D
  8
1外形線
 10
413.1784849981849
 20
246.3189348719219
 30
0.0
 11
410.17848499818501
 21
246.3189348719219
 31
0.0
  0
ARC
  5
45E
  8
1外形線
 10
410.17848499818501
 20
246.8189348719219
 30
0.0
 40
0.5
 50
179.9999999999996
 51
270.0
  0
LINE
  5
45F
  8
1外形線
 10
413.1784849981849
 20
246.3189348719221
 30
0.0
 11
413.1784849981849
 21
244.3189348719219
 31
0.0
  0
LINE
  5
460
  8
1外形線
 10
422.67848499818501
 20
239.31893487192181
 30
0.0
 11
422.67848499818501
 21
225.3189348719219
 31
0.0
  0
LINE
  5
461
  8
1外形線
 10
423.67848499818501
 20
239.31893487192181
 30
0.0
 11
423.67848499818501
 21
225.3189348719219
 31
0.0
  0
LINE
  5
462
  8
1外形線
 10
415.17848499818501
 20
239.31893487192181
 30
0.0
 11
415.17848499818501
 21
225.3189348719219
 31
0.0
  0
LINE
  5
463
  8
1外形線
 10
422.67848499818501
 20
218.91581063448911
 30
0.0
 11
422.67848499818501
 21
209.3189348719219
 31
0.0
  0
LINE
  5
464
  8
1外形線
 10
424.67848499818501
 20
207.3189348719217
 30
0.0
 11
433.67848499818518
 21
207.3189348719219
 31
0.0
  0
ARC
  5
465
  8
1外形線
 10
424.67848499818501
 20
209.3189348719219
 30
0.0
 40
2.0
 50
180.0
 51
270.0
  0
LINE
  5
466
  8
1外形線
 10
434.67848499818518
 20
206.3189348719219
 30
0.0
 11
434.67848499818518
 21
205.31893487192181
 31
0.0
  0
ARC
  5
467
  8
1外形線
 10
433.67848499818518
 20
206.3189348719219
 30
0.0
 40
1.0
 50
0.0
 51
90.0
  0
LINE
  5
468
  8
1外形線
 10
422.67848499818501
 20
272.31893487192212
 30
0.0
 11
422.67848499818501
 21
253.59904476120269
 31
0.0
  0
LINE
  5
469
  8
1外形線
 10
423.67848499818501
 20
239.31893487192181
 30
0.0
 11
415.17848499818501
 21
239.31893487192181
 31
0.0
  0
LINE
  5
46A
  8
1外形線
 10
423.67848499818501
 20
239.31893487192181
 30
0.0
 11
414.6554434670806
 21
239.31893487192181
 31
0.0
  0
LINE
  5
46B
  8
1外形線
 10
413.97848499818508
 20
244.3189348719219
 30
0.0
 11
414.35639888351977
 21
239.59501130523711
 31
0.0
  0
ARC
  5
46C
  8
1外形線
 10
413.70152652928931
 20
244.0189348719218
 30
0.0
 40
0.3
 50
4.5739212599007466
 51
90.0
  0
LINE
  5
46D
  8
1外形線
 10
414.378484998185
 20
239.31893487192181
 30
0.0
 11
415.17848499818501
 21
239.31893487192181
 31
0.0
  0
LINE
  5
46E
  8
1外形線
 10
415.17848499818501
 20
239.31893487192181
 30
0.0
 11
414.378484998185
 21
239.31893487192181
 31
0.0
  0
LINE
  5
46F
  8
1外形線
 10
414.378484998185
 20
239.31893487192181
 30
0.0
 11
414.00057111285008
 21
244.0428584386066
 31
0.0
  0
LINE
  5
470
  8
1外形線
 10
415.17848499818501
 20
246.3189348719221
 30
0.0
 11
415.17848499818501
 21
239.31893487192181
 31
0.0
  0
ARC
  5
471
  8
1外形線
 10
414.6554434670806
 20
239.61893487192179
 30
0.0
 40
0.3
 50
184.57392125990069
 51
270.0
  0
LINE
  5
472
  8
1外形線
 10
421.878484998185
 20
239.31893487192181
 30
0.0
 11
422.67848499818501
 21
239.31893487192181
 31
0.0
  0
LINE
  5
473
  8
1外形線
 10
422.67848499818501
 20
239.31893487192181
 30
0.0
 11
421.878484998185
 21
239.31893487192181
 31
0.0
  0
LINE
  5
474
  8
1外形線
 10
423.67848499818501
 20
246.3189348719219
 30
0.0
 11
423.67848499818501
 21
239.31893487192181
 31
0.0
  0
LINE
  5
475
  8
1外形線
 10
422.67848499818501
 20
246.3189348719219
 30
0.0
 11
422.67848499818501
 21
239.31893487192181
 31
0.0
  0
LINE
  5
476
  8
1外形線
 10
420.11950405605961
 20
275.3189348719219
 30
0.0
 11
418.64848499818498
 21
275.3189348719219
 31
0.0
  0
LINE
  5
477
  8
1外形線
 10
418.64848499818498
 20
275.3189348719219
 30
0.0
 11
418.64848499818498
 21
272.31893487192178
 31
0.0
  0
LINE
  5
478
  8
1外形線
 10
420.64848499818498
 20
272.31893487192178
 30
0.0
 11
420.11950405605961
 21
275.3189348719219
 31
0.0
  0
LINE
  5
479
  8
1外形線
 10
418.88521519110031
 20
282.3189348719219
 30
0.0
 11
347.47175480526943
 21
282.3189348719219
 31
0.0
  0
ARC
  5
47A
  8
1外形線
 10
373.4723248130403
 20
297.31893487192212
 30
0.0
 40
25.0
 50
90.0
 51
169.9999999999998
  0
ARC
  5
47B
  8
1外形線
 10
373.4723248130403
 20
297.31893487192212
 30
0.0
 40
23.0
 50
90.0
 51
169.9999999999998
  0
LINE
  5
47C
  8
1外形線
 10
280.23601675359879
 20
437.17124885122149
 30
0.0
 11
275.69794054060583
 21
441.4256953009027
 31
0.0
  0
LINE
  5
47D
  8
1外形線
 10
268.67848499818513
 20
364.31893487192212
 30
0.0
 11
268.67848499818513
 21
443.31893487192212
 31
0.0
  0
LINE
  5
47E
  8
1外形線
 10
246.6784849981851
 20
436.81893487192212
 30
0.0
 11
246.6784849981851
 21
443.31893487192212
 31
0.0
  0
LINE
  5
47F
  8
1外形線
 10
237.6784849981851
 20
436.81893487192212
 30
0.0
 11
237.6784849981851
 21
443.31893487192212
 31
0.0
  0
LINE
  5
480
  8
1外形線
 10
262.67848499818513
 20
364.31893487192212
 30
0.0
 11
262.67848499818513
 21
443.31893487192212
 31
0.0
  0
LINE
  5
481
  8
1外形線
 10
169.67848499818501
 20
364.31893487192212
 30
0.0
 11
169.67848499818501
 21
443.31893487192212
 31
0.0
  0
LINE
  5
482
  8
1外形線
 10
189.67848499818501
 20
364.81893487192212
 30
0.0
 11
189.67848499818501
 21
442.81893487192212
 31
0.0
  0
ARC
  5
483
  8
1外形線
 10
167.67848499818501
 20
364.31893487192212
 30
0.0
 40
12.0
 50
270.0
 51
0.0
  0
LINE
  5
484
  8
1外形線
 10
189.17848499818501
 20
322.31893487192212
 30
0.0
 11
171.4282582687037
 21
322.31893487192212
 31
0.0
  0
ARC
  5
485
  8
1外形線
 10
171.4282582687037
 20
302.31893487192212
 30
0.0
 40
20.0
 50
90.0
 51
100.0000000000001
  0
ARC
  5
486
  8
1外形線
 10
189.17848499818501
 20
321.81893487192212
 30
0.0
 40
0.5
 50
0.0
 51
90.0
  0
LINE
  5
487
  8
1外形線
 10
246.6784849981851
 20
370.81893487192212
 30
0.0
 11
246.6784849981851
 21
364.31893487192212
 31
0.0
  0
LINE
  5
488
  8
1外形線
 10
237.6784849981851
 20
370.81893487192212
 30
0.0
 11
237.6784849981851
 21
364.31893487192212
 31
0.0
  0
ARC
  5
489
  8
1外形線
 10
242.1784849981851
 20
370.81893487192212
 30
0.0
 40
4.5
 50
0.0
 51
180.0
  0
CIRCLE
  5
48A
  8
1外形線
 10
242.1784849981851
 20
370.81893487192212
 30
0.0
 40
1.75
  0
ARC
  5
48B
  8
1外形線
 10
242.1784849981851
 20
436.81893487192212
 30
0.0
 40
4.5
 50
180.0
 51
0.0
  0
CIRCLE
  5
48C
  8
1外形線
 10
242.1784849981851
 20
436.81893487192212
 30
0.0
 40
1.75
  0
LINE
  5
48D
  8
1外形線
 10
359.14848499818498
 20
307.4931758737543
 30
0.0
 11
359.14848499818498
 21
287.31893487192218
 31
0.0
  0
LINE
  5
48E
  8
1外形線
 10
359.14848499818498
 20
311.52038434487469
 30
0.0
 11
359.14848499818498
 21
287.31893487192218
 31
0.0
  0
LINE
  5
48F
  8
1外形線
 10
348.70689689400041
 20
289.31893487192218
 30
0.0
 11
352.64848499818498
 21
289.31893487192218
 31
0.0
  0
LINE
  5
490
  8
1外形線
 10
349.14848499818498
 20
282.3189348719219
 30
0.0
 11
349.14848499818498
 21
289.31893487192178
 31
0.0
  0
LINE
  5
491
  8
1外形線
 10
352.64848499818498
 20
289.31893487192218
 30
0.0
 11
352.64848499818498
 21
287.31893487192218
 31
0.0
  0
LINE
  5
492
  8
1外形線
 10
352.64848499818498
 20
287.31893487192218
 30
0.0
 11
359.14848499818498
 21
287.31893487192218
 31
0.0
  0
LINE
  5
493
  8
1外形線
 10
356.14848499818498
 20
282.3189348719219
 30
0.0
 11
356.14848499818498
 21
287.31893487192218
 31
0.0
  0
ARC
  5
494
  8
1外形線
 10
371.70689689400041
 20
292.25159375866929
 30
0.0
 40
23.0
 50
123.0942514164061
 51
154.0929894552321
  0
LINE
  5
495
  8
1外形線
 10
301.67848499818513
 20
372.31893487192212
 30
0.0
 11
301.67848499818513
 21
435.31893487192212
 31
0.0
  0
LINE
  5
496
  8
1外形線
 10
283.65572239800542
 20
371.81893487192212
 30
0.0
 11
301.17848499818513
 21
371.81893487192212
 31
0.0
  0
ARC
  5
497
  8
1外形線
 10
270.91035263843628
 20
371.31893487192212
 30
0.0
 40
7.0
 50
270.0
 51
313.15238973400591
  0
LINE
  5
498
  8
1外形線
 10
263.67848499818513
 20
363.31893487192212
 30
0.0
 11
267.67848499818513
 21
363.31893487192212
 31
0.0
  0
ARC
  5
499
  8
1外形線
 10
263.67848499818513
 20
364.31893487192212
 30
0.0
 40
1.0
 50
180.0
 51
270.0
  0
ARC
  5
49A
  8
1外形線
 10
267.67848499818513
 20
364.31893487192212
 30
0.0
 40
1.0
 50
270.0
 51
0.0
  0
LINE
  5
49B
  8
1外形線
 10
268.6784849981853
 20
364.31893487192212
 30
0.0
 11
270.91035263843628
 21
364.31893487192212
 31
0.0
  0
LINE
  5
49C
  8
1外形線
 10
275.69794054060583
 20
366.21217444294149
 30
0.0
 11
280.23601675359879
 21
370.46662089262242
 31
0.0
  0
ARC
  5
49D
  8
1外形線
 10
283.65572239800542
 20
366.81893487192212
 30
0.0
 40
5.0
 50
90.0
 51
133.15238973400469
  0
ARC
  5
49E
  8
1外形線
 10
301.17848499818513
 20
372.31893487192212
 30
0.0
 40
0.5
 50
270.0
 51
0.0
  0
LINE
  5
49F
  8
1外形線
 10
283.65572239800542
 20
435.81893487192201
 30
0.0
 11
301.17848499818513
 21
435.81893487192201
 31
0.0
  0
ARC
  5
4A0
  8
1外形線
 10
283.65572239800542
 20
440.81893487192212
 30
0.0
 40
5.0
 50
226.84761026599551
 51
270.0
  0
ARC
  5
4A1
  8
1外形線
 10
301.17848499818513
 20
435.31893487192212
 30
0.0
 40
0.5
 50
0.0
 51
90.0
  0
ARC
  5
4A2
  8
1外形線
 10
167.67848499818501
 20
443.31893487192212
 30
0.0
 40
12.0
 50
0.0
 51
90.0
  0
ARC
  5
4A3
  8
1外形線
 10
270.91035263843628
 20
436.31893487192212
 30
0.0
 40
7.0
 50
46.84761026599525
 51
90.0
  0
LINE
  5
4A4
  8
1外形線
 10
263.67848499818513
 20
444.31893487192212
 30
0.0
 11
267.67848499818513
 21
444.31893487192212
 31
0.0
  0
ARC
  5
4A5
  8
1外形線
 10
263.67848499818513
 20
443.31893487192212
 30
0.0
 40
1.0
 50
90.0
 51
180.0
  0
ARC
  5
4A6
  8
1外形線
 10
267.67848499818513
 20
443.31893487192212
 30
0.0
 40
1.0
 50
0.0
 51
90.0
  0
LINE
  5
4A7
  8
1外形線
 10
268.67848499818513
 20
443.31893487192212
 30
0.0
 11
270.91035263843628
 21
443.31893487192212
 31
0.0
  0
ARC
  5
4A8
  8
1外形線
 10
394.6500731023695
 20
292.25159375866929
 30
0.0
 40
23.0
 50
25.907010544767878
 51
56.905748583593791
  0
ARC
  5
4A9
  8
1外形線
 10
392.88464518332961
 20
297.31893487192212
 30
0.0
 40
25.0
 50
10.000000000000171
 51
90.0
  0
ARC
  5
4AA
  8
1外形線
 10
392.88464518332961
 20
297.31893487192212
 30
0.0
 40
23.0
 50
10.000000000000171
 51
90.0
  0
LINE
  5
4AB
  8
1外形線
 10
413.70848499818487
 20
287.31893487192218
 30
0.0
 11
407.20848499818487
 21
287.31893487192218
 31
0.0
  0
LINE
  5
4AC
  8
1外形線
 10
396.17848499818501
 20
282.64538567838622
 30
0.0
 11
386.67848499818501
 21
282.64538567838628
 31
0.0
  0
LINE
  5
4AD
  8
1外形線
 10
403.17848499818501
 20
292.08028729734173
 30
0.0
 11
363.17848499818501
 21
292.08028729734173
 31
0.0
  0
LINE
  5
4AE
  8
1外形線
 10
403.17848499818501
 20
292.58028729734178
 30
0.0
 11
363.17848499818501
 21
292.58028729734178
 31
0.0
  0
LINE
  5
4AF
  8
1外形線
 10
370.17848499818501
 20
306.84956009718132
 30
0.0
 11
370.17848499818501
 21
292.58028729734178
 31
0.0
  0
LINE
  5
4B0
  8
1外形線
  6
BYBLOCK
 10
368.17848499818501
 20
306.84956009718132
 30
0.0
 11
368.17848499818501
 21
292.58028729734178
 31
0.0
  0
LINE
  5
4B1
  8
1外形線
 10
382.17848499818501
 20
306.84956009718132
 30
0.0
 11
382.17848499818501
 21
292.58028729734178
 31
0.0
  0
LINE
  5
4B2
  8
1外形線
  6
BYBLOCK
 10
384.17848499818501
 20
306.84956009718132
 30
0.0
 11
384.17848499818501
 21
292.58028729734178
 31
0.0
  0
LINE
  5
4B3
  8
1外形線
 10
380.67848499818501
 20
306.84956009718132
 30
0.0
 11
380.67848499818501
 21
292.58028729734178
 31
0.0
  0
LINE
  5
4B4
  8
1外形線
  6
BYBLOCK
 10
378.67848499818501
 20
306.84956009718132
 30
0.0
 11
378.67848499818501
 21
292.58028729734178
 31
0.0
  0
LINE
  5
4B5
  8
1外形線
 10
377.17848499818501
 20
306.84956009718132
 30
0.0
 11
377.17848499818501
 21
292.58028729734178
 31
0.0
  0
LINE
  5
4B6
  8
1外形線
  6
BYBLOCK
 10
375.17848499818501
 20
306.84956009718132
 30
0.0
 11
375.17848499818501
 21
292.58028729734178
 31
0.0
  0
LINE
  5
4B7
  8
1外形線
 10
373.67848499818501
 20
306.84956009718132
 30
0.0
 11
373.67848499818501
 21
292.58028729734178
 31
0.0
  0
LINE
  5
4B8
  8
1外形線
  6
BYBLOCK
 10
371.67848499818501
 20
306.84956009718132
 30
0.0
 11
371.67848499818501
 21
292.58028729734178
 31
0.0
  0
LINE
  5
4B9
  8
1外形線
 10
385.6784849981849
 20
306.84956009718132
 30
0.0
 11
385.6784849981849
 21
292.58028729734178
 31
0.0
  0
LINE
  5
4BA
  8
1外形線
  6
BYBLOCK
 10
387.67848499818501
 20
306.84956009718132
 30
0.0
 11
387.67848499818501
 21
292.58028729734178
 31
0.0
  0
LINE
  5
4BB
  8
1外形線
 10
375.17848499818501
 20
294.31893487192212
 30
0.0
 11
377.17848499818501
 21
294.31893487192212
 31
0.0
  0
LINE
  5
4BC
  8
1外形線
 10
379.67848499818501
 20
282.64538567838628
 30
0.0
 11
370.17848499818501
 21
282.64538567838622
 31
0.0
  0
LINE
  5
4BD
  8
1外形線
 10
375.17848499818501
 20
292.58028729734178
 30
0.0
 11
377.17848499818501
 21
292.58028729734178
 31
0.0
  0
LINE
  5
4BE
  8
1外形線
 10
370.17848499818501
 20
282.64538567838622
 30
0.0
 11
370.17848499818501
 21
292.08028729734173
 31
0.0
  0
LINE
  5
4BF
  8
1外形線
 10
368.17848499818501
 20
294.31893487192212
 30
0.0
 11
370.17848499818501
 21
294.31893487192212
 31
0.0
  0
LINE
  5
4C0
  8
1外形線
 10
368.17848499818501
 20
292.58028729734178
 30
0.0
 11
370.17848499818501
 21
292.58028729734178
 31
0.0
  0
LINE
  5
4C1
  8
1外形線
 10
363.17848499818501
 20
292.08028729734173
 30
0.0
 11
363.17848499818501
 21
292.58028729734178
 31
0.0
  0
LINE
  5
4C2
  8
1外形線
 10
371.67848499818501
 20
294.31893487192212
 30
0.0
 11
373.67848499818501
 21
294.31893487192212
 31
0.0
  0
LINE
  5
4C3
  8
1外形線
 10
371.67848499818501
 20
292.58028729734178
 30
0.0
 11
373.67848499818501
 21
292.58028729734178
 31
0.0
  0
LINE
  5
4C4
  8
1外形線
 10
386.67848499818501
 20
282.3189348719219
 30
0.0
 11
386.67848499818501
 21
289.31893487192178
 31
0.0
  0
LINE
  5
4C5
  8
1外形線
 10
379.67848499818501
 20
282.3189348719219
 30
0.0
 11
379.67848499818501
 21
289.31893487192178
 31
0.0
  0
LINE
  5
4C6
  8
1外形線
 10
379.67848499818501
 20
289.31893487192161
 30
0.0
 11
386.67848499818501
 21
289.31893487192161
 31
0.0
  0
LINE
  5
4C7
  8
1外形線
 10
378.67848499818501
 20
294.31893487192212
 30
0.0
 11
380.67848499818501
 21
294.31893487192212
 31
0.0
  0
LINE
  5
4C8
  8
1外形線
 10
378.67848499818501
 20
292.58028729734178
 30
0.0
 11
380.67848499818501
 21
292.58028729734178
 31
0.0
  0
LINE
  5
4C9
  8
1外形線
 10
387.67848499818501
 20
294.31893487192212
 30
0.0
 11
385.6784849981849
 21
294.31893487192212
 31
0.0
  0
LINE
  5
4CA
  8
1外形線
 10
384.17848499818501
 20
294.31893487192212
 30
0.0
 11
382.17848499818501
 21
294.31893487192212
 31
0.0
  0
LINE
  5
4CB
  8
1外形線
 10
387.67848499818501
 20
292.58028729734178
 30
0.0
 11
385.6784849981849
 21
292.58028729734178
 31
0.0
  0
LINE
  5
4CC
  8
1外形線
 10
384.17848499818501
 20
292.58028729734178
 30
0.0
 11
382.17848499818501
 21
292.58028729734178
 31
0.0
  0
LINE
  5
4CD
  8
1外形線
 10
375.17848499818501
 20
306.84956009718132
 30
0.0
 11
377.17848499818501
 21
306.84956009718132
 31
0.0
  0
LINE
  5
4CE
  8
1外形線
 10
368.17848499818501
 20
306.84956009718132
 30
0.0
 11
370.17848499818501
 21
306.84956009718132
 31
0.0
  0
LINE
  5
4CF
  8
1外形線
 10
371.67848499818501
 20
306.84956009718132
 30
0.0
 11
373.67848499818501
 21
306.84956009718132
 31
0.0
  0
LINE
  5
4D0
  8
1外形線
 10
378.67848499818501
 20
306.84956009718132
 30
0.0
 11
380.67848499818501
 21
306.84956009718132
 31
0.0
  0
LINE
  5
4D1
  8
1外形線
 10
387.67848499818501
 20
306.84956009718132
 30
0.0
 11
385.6784849981849
 21
306.84956009718132
 31
0.0
  0
LINE
  5
4D2
  8
1外形線
 10
384.17848499818501
 20
306.84956009718132
 30
0.0
 11
382.17848499818501
 21
306.84956009718132
 31
0.0
  0
LINE
  5
4D3
  8
1外形線
 10
389.17848499818501
 20
306.84956009718132
 30
0.0
 11
389.17848499818501
 21
292.58028729734178
 31
0.0
  0
LINE
  5
4D4
  8
1外形線
  6
BYBLOCK
 10
391.17848499818501
 20
306.84956009718132
 30
0.0
 11
391.17848499818501
 21
292.58028729734178
 31
0.0
  0
LINE
  5
4D5
  8
1外形線
 10
392.67848499818501
 20
306.84956009718132
 30
0.0
 11
392.67848499818501
 21
292.58028729734178
 31
0.0
  0
LINE
  5
4D6
  8
1外形線
  6
BYBLOCK
 10
394.67848499818501
 20
306.84956009718132
 30
0.0
 11
394.67848499818501
 21
292.58028729734178
 31
0.0
  0
LINE
  5
4D7
  8
1外形線
 10
396.17848499818501
 20
306.84956009718132
 30
0.0
 11
396.17848499818501
 21
292.58028729734178
 31
0.0
  0
LINE
  5
4D8
  8
1外形線
  6
BYBLOCK
 10
398.1784849981849
 20
306.84956009718132
 30
0.0
 11
398.1784849981849
 21
292.58028729734178
 31
0.0
  0
LINE
  5
4D9
  8
1外形線
 10
407.20848499818487
 20
307.4931758737543
 30
0.0
 11
407.20848499818487
 21
287.31893487192218
 31
0.0
  0
LINE
  5
4DA
  8
1外形線
 10
407.20848499818487
 20
311.52038434487469
 30
0.0
 11
407.20848499818487
 21
287.31893487192218
 31
0.0
  0
LINE
  5
4DB
  8
1外形線
 10
396.17848499818501
 20
282.64538567838622
 30
0.0
 11
396.17848499818501
 21
292.08028729734173
 31
0.0
  0
LINE
  5
4DC
  8
1外形線
 10
394.67848499818501
 20
294.31893487192212
 30
0.0
 11
392.67848499818501
 21
294.31893487192212
 31
0.0
  0
LINE
  5
4DD
  8
1外形線
 10
394.67848499818501
 20
292.58028729734178
 30
0.0
 11
392.67848499818501
 21
292.58028729734178
 31
0.0
  0
LINE
  5
4DE
  8
1外形線
 10
391.17848499818501
 20
294.31893487192212
 30
0.0
 11
389.17848499818501
 21
294.31893487192212
 31
0.0
  0
LINE
  5
4DF
  8
1外形線
 10
391.17848499818501
 20
292.58028729734178
 30
0.0
 11
389.17848499818501
 21
292.58028729734178
 31
0.0
  0
LINE
  5
4E0
  8
1外形線
 10
398.1784849981849
 20
294.31893487192212
 30
0.0
 11
396.17848499818501
 21
294.31893487192212
 31
0.0
  0
LINE
  5
4E1
  8
1外形線
 10
398.1784849981849
 20
292.58028729734178
 30
0.0
 11
396.17848499818501
 21
292.58028729734178
 31
0.0
  0
LINE
  5
4E2
  8
1外形線
 10
410.20848499818487
 20
282.3189348719219
 30
0.0
 11
410.20848499818487
 21
287.31893487192218
 31
0.0
  0
LINE
  5
4E3
  8
1外形線
 10
403.17848499818501
 20
292.08028729734173
 30
0.0
 11
403.17848499818501
 21
292.58028729734178
 31
0.0
  0
LINE
  5
4E4
  8
1外形線
 10
394.67848499818501
 20
306.84956009718132
 30
0.0
 11
392.67848499818501
 21
306.84956009718132
 31
0.0
  0
LINE
  5
4E5
  8
1外形線
 10
391.17848499818501
 20
306.84956009718132
 30
0.0
 11
389.17848499818501
 21
306.84956009718132
 31
0.0
  0
LINE
  5
4E6
  8
1外形線
 10
398.1784849981849
 20
306.84956009718132
 30
0.0
 11
396.17848499818501
 21
306.84956009718132
 31
0.0
  0
LINE
  5
4E7
  8
1外形線
 10
373.4723248130403
 20
322.31893487192212
 30
0.0
 11
392.88464518332961
 21
322.31893487192212
 31
0.0
  0
LINE
  5
4E8
  8
1外形線
 10
373.4723248130403
 20
320.31893487192212
 30
0.0
 11
392.88464518332961
 21
320.31893487192212
 31
0.0
  0
LINE
  5
4E9
  8
1外形線
 10
417.20848499818499
 20
282.3189348719219
 30
0.0
 11
417.20848499818499
 21
289.31893487192178
 31
0.0
  0
LINE
  5
4EA
  8
1外形線
 10
413.70848499818487
 20
289.31893487192218
 30
0.0
 11
413.70848499818487
 21
287.31893487192218
 31
0.0
  0
LINE
  5
4EB
  8
1外形線
 10
417.6500731023695
 20
289.31893487192218
 30
0.0
 11
413.70848499818487
 21
289.31893487192218
 31
0.0
  0
ENDSEC
  0
EOF
