  0
SECTION
  2
HEADER
  9
$ACADVER
  1
AC1015
  9
$ACADMAINTVER
 70
    14
  9
$DWGCODEPAGE
  3
ANSI_932
  9
$INSBASE
 10
0.0
 20
0.0
 30
0.0
  9
$EXTMIN
 10
69.06481297095331
 20
46.80128173720652
 30
0.0
  9
$EXTMAX
 10
1309.412359783374
 20
582.190428142804
 30
0.0
  9
$LIMMIN
 10
0.0
 20
0.0
  9
$LIMMAX
 10
420.0
 20
297.0
  9
$ORTHOMODE
 70
     1
  9
$REGENMODE
 70
     1
  9
$FILLMODE
 70
     1
  9
$QTEXTMODE
 70
     0
  9
$MIRRTEXT
 70
     1
  9
$LTSCALE
 40
1.0
  9
$ATTMODE
 70
     1
  9
$TEXTSIZE
 40
2.5
  9
$TRACEWID
 40
1.0
  9
$TEXTSTYLE
  7
STANDARD
  9
$CLAYER
  8
0
  9
$CELTYPE
  6
ByLayer
  9
$CECOLOR
 62
   256
  9
$CELTSCALE
 40
1.0
  9
$DISPSILH
 70
     0
  9
$DIMSCALE
 40
1.0
  9
$DIMASZ
 40
2.5
  9
$DIMEXO
 40
0.625
  9
$DIMDLI
 40
3.75
  9
$DIMRND
 40
0.0
  9
$DIMDLE
 40
0.0
  9
$DIMEXE
 40
1.25
  9
$DIMTP
 40
0.0
  9
$DIMTM
 40
0.0
  9
$DIMTXT
 40
2.5
  9
$DIMCEN
 40
2.5
  9
$DIMTSZ
 40
0.0
  9
$DIMTOL
 70
     0
  9
$DIMLIM
 70
     0
  9
$DIMTIH
 70
     0
  9
$DIMTOH
 70
     0
  9
$DIMSE1
 70
     0
  9
$DIMSE2
 70
     0
  9
$DIMTAD
 70
     1
  9
$DIMZIN
 70
     8
  9
$DIMBLK
  1

  9
$DIMASO
 70
     1
  9
$DIMSHO
 70
     1
  9
$DIMPOST
  1

  9
$DIMAPOST
  1

  9
$DIMALT
 70
     0
  9
$DIMALTD
 70
     3
  9
$DIMALTF
 40
0.03937007874016
  9
$DIMLFAC
 40
1.0
  9
$DIMTOFL
 70
     1
  9
$DIMTVP
 40
0.0
  9
$DIMTIX
 70
     0
  9
$DIMSOXD
 70
     0
  9
$DIMSAH
 70
     0
  9
$DIMBLK1
  1

  9
$DIMBLK2
  1

  9
$DIMSTYLE
  2
ISO-25
  9
$DIMCLRD
 70
     0
  9
$DIMCLRE
 70
     0
  9
$DIMCLRT
 70
     0
  9
$DIMTFAC
 40
1.0
  9
$DIMGAP
 40
0.625
  9
$DIMJUST
 70
     0
  9
$DIMSD1
 70
     0
  9
$DIMSD2
 70
     0
  9
$DIMTOLJ
 70
     1
  9
$DIMTZIN
 70
     0
  9
$DIMALTZ
 70
     0
  9
$DIMALTTZ
 70
     0
  9
$DIMUPT
 70
     0
  9
$DIMDEC
 70
     4
  9
$DIMTDEC
 70
     4
  9
$DIMALTU
 70
     2
  9
$DIMALTTD
 70
     2
  9
$DIMTXSTY
  7
STANDARD
  9
$DIMAUNIT
 70
     0
  9
$DIMADEC
 70
     0
  9
$DIMALTRND
 40
0.0
  9
$DIMAZIN
 70
     0
  9
$DIMDSEP
 70
    46
  9
$DIMATFIT
 70
     3
  9
$DIMFRAC
 70
     0
  9
$DIMLDRBLK
  1

  9
$DIMLUNIT
 70
     2
  9
$DIMLWD
 70
    -2
  9
$DIMLWE
 70
    -2
  9
$DIMTMOVE
 70
     0
  9
$LUNITS
 70
     2
  9
$LUPREC
 70
     4
  9
$SKETCHINC
 40
1.0
  9
$FILLETRAD
 40
0.0
  9
$AUNITS
 70
     0
  9
$AUPREC
 70
     0
  9
$MENU
  1
.
  9
$ELEVATION
 40
0.0
  9
$PELEVATION
 40
0.0
  9
$THICKNESS
 40
0.0
  9
$LIMCHECK
 70
     0
  9
$CHAMFERA
 40
10.0
  9
$CHAMFERB
 40
10.0
  9
$CHAMFERC
 40
0.0
  9
$CHAMFERD
 40
0.0
  9
$SKPOLY
 70
     0
  9
$TDCREATE
 40
2452258.571264259
  9
$TDUCREATE
 40
2452258.196264259
  9
$TDUPDATE
 40
2455532.489599062
  9
$TDUUPDATE
 40
2455532.114599062
  9
$TDINDWG
 40
0.0568930787
  9
$TDUSRTIMER
 40
0.0568904861
  9
$USRTIMER
 70
     1
  9
$ANGBASE
 50
0.0
  9
$ANGDIR
 70
     0
  9
$PDMODE
 70
     0
  9
$PDSIZE
 40
0.0
  9
$PLINEWID
 40
0.0
  9
$SPLFRAME
 70
     0
  9
$SPLINETYPE
 70
     6
  9
$SPLINESEGS
 70
     8
  9
$HANDSEED
  5
7DE
  9
$SURFTAB1
 70
     6
  9
$SURFTAB2
 70
     6
  9
$SURFTYPE
 70
     6
  9
$SURFU
 70
     6
  9
$SURFV
 70
     6
  9
$UCSBASE
  2

  9
$UCSNAME
  2

  9
$UCSORG
 10
0.0
 20
0.0
 30
0.0
  9
$UCSXDIR
 10
1.0
 20
0.0
 30
0.0
  9
$UCSYDIR
 10
0.0
 20
1.0
 30
0.0
  9
$UCSORTHOREF
  2

  9
$UCSORTHOVIEW
 70
     0
  9
$UCSORGTOP
 10
0.0
 20
0.0
 30
0.0
  9
$UCSORGBOTTOM
 10
0.0
 20
0.0
 30
0.0
  9
$UCSORGLEFT
 10
0.0
 20
0.0
 30
0.0
  9
$UCSORGRIGHT
 10
0.0
 20
0.0
 30
0.0
  9
$UCSORGFRONT
 10
0.0
 20
0.0
 30
0.0
  9
$UCSORGBACK
 10
0.0
 20
0.0
 30
0.0
  9
$PUCSBASE
  2

  9
$PUCSNAME
  2

  9
$PUCSORG
 10
0.0
 20
0.0
 30
0.0
  9
$PUCSXDIR
 10
1.0
 20
0.0
 30
0.0
  9
$PUCSYDIR
 10
0.0
 20
1.0
 30
0.0
  9
$PUCSORTHOREF
  2

  9
$PUCSORTHOVIEW
 70
     0
  9
$PUCSORGTOP
 10
0.0
 20
0.0
 30
0.0
  9
$PUCSORGBOTTOM
 10
0.0
 20
0.0
 30
0.0
  9
$PUCSORGLEFT
 10
0.0
 20
0.0
 30
0.0
  9
$PUCSORGRIGHT
 10
0.0
 20
0.0
 30
0.0
  9
$PUCSORGFRONT
 10
0.0
 20
0.0
 30
0.0
  9
$PUCSORGBACK
 10
0.0
 20
0.0
 30
0.0
  9
$USERI1
 70
     0
  9
$USERI2
 70
     0
  9
$USERI3
 70
     0
  9
$USERI4
 70
     0
  9
$USERI5
 70
     0
  9
$USERR1
 40
0.0
  9
$USERR2
 40
0.0
  9
$USERR3
 40
0.0
  9
$USERR4
 40
0.0
  9
$USERR5
 40
0.0
  9
$WORLDVIEW
 70
     1
  9
$SHADEDGE
 70
     3
  9
$SHADEDIF
 70
    70
  9
$TILEMODE
 70
     1
  9
$MAXACTVP
 70
    64
  9
$PINSBASE
 10
0.0
 20
0.0
 30
0.0
  9
$PLIMCHECK
 70
     0
  9
$PEXTMIN
 10
1.000000000000000E+20
 20
1.000000000000000E+20
 30
1.000000000000000E+20
  9
$PEXTMAX
 10
-1.000000000000000E+20
 20
-1.000000000000000E+20
 30
-1.000000000000000E+20
  9
$PLIMMIN
 10
0.0
 20
0.0
  9
$PLIMMAX
 10
420.0
 20
297.0
  9
$UNITMODE
 70
     0
  9
$VISRETAIN
 70
     1
  9
$PLINEGEN
 70
     0
  9
$PSLTSCALE
 70
     1
  9
$TREEDEPTH
 70
  3020
  9
$CMLSTYLE
  2
Standard
  9
$CMLJUST
 70
     0
  9
$CMLSCALE
 40
1.0
  9
$PROXYGRAPHICS
 70
     1
  9
$MEASUREMENT
 70
     0
  9
$CELWEIGHT
370
    -1
  9
$ENDCAPS
280
     0
  9
$JOINSTYLE
280
     0
  9
$LWDISPLAY
290
     0
  9
$INSUNITS
 70
     0
  9
$HYPERLINKBASE
  1

  9
$STYLESHEET
  1

  9
$XEDIT
290
     1
  9
$CEPSNTYPE
380
     0
  9
$PSTYLEMODE
290
     1
  9
$FINGERPRINTGUID
  2
{BAAC57E2-0175-4282-8FB3-8BE48599EA63}
  9
$VERSIONGUID
  2
{3E7E6A23-979C-48B9-842B-3333FC6A35B4}
  9
$EXTNAMES
290
     1
  9
$PSVPSCALE
 40
0.0
  9
$OLESTARTUP
290
     0
  0
ENDSEC
  0
SECTION
  2
CLASSES
  0
CLASS
  1
ACDBDICTIONARYWDFLT
  2
AcDbDictionaryWithDefault
  3
AutoCAD 2000
 90
        0
280
     0
281
     0
  0
CLASS
  1
ACDBPLACEHOLDER
  2
AcDbPlaceHolder
  3
AutoCAD 2000
 90
        0
280
     0
281
     0
  0
CLASS
  1
LAYOUT
  2
AcDbLayout
  3
AutoCAD 2000
 90
        0
280
     0
281
     0
  0
CLASS
  1
DICTIONARYVAR
  2
AcDbDictionaryVar
  3
AutoCAD 2000
 90
        0
280
     0
281
     0
  0
ENDSEC
  0
SECTION
  2
TABLES
  0
TABLE
  2
VPORT
  5
38C
330
0
100
AcDbSymbolTable
 70
     2
  0
VPORT
  5
7DD
330
38C
100
AcDbSymbolTableRecord
100
AcDbViewportTableRecord
  2
*Active
 70
     0
 10
0.0
 20
0.0
 11
1.0
 21
1.0
 12
736.4843632505468
 22
328.6900608437536
 13
0.0
 23
0.0
 14
10.0
 24
10.0
 15
10.0
 25
10.0
 16
0.0
 26
0.0
 36
1.0
 17
0.0
 27
0.0
 37
0.0
 40
1200.583456342074
 41
1.593790426908149
 42
50.0
 43
0.0
 44
0.0
 50
0.0
 51
0.0
 71
     0
 72
   100
 73
     1
 74
     3
 75
     0
 76
     0
 77
     0
 78
     0
281
     0
 65
     1
110
0.0
120
0.0
130
0.0
111
1.0
121
0.0
131
0.0
112
0.0
122
1.0
132
0.0
 79
     0
146
0.0
  0
ENDTAB
  0
TABLE
  2
LTYPE
  5
389
330
0
100
AcDbSymbolTable
 70
     1
  0
LTYPE
  5
397
330
389
100
AcDbSymbolTableRecord
100
AcDbLinetypeTableRecord
  2
ByBlock
 70
     0
  3

 72
    65
 73
     0
 40
0.0
  0
LTYPE
  5
398
330
389
100
AcDbSymbolTableRecord
100
AcDbLinetypeTableRecord
  2
ByLayer
 70
     0
  3

 72
    65
 73
     0
 40
0.0
  0
LTYPE
  5
399
330
389
100
AcDbSymbolTableRecord
100
AcDbLinetypeTableRecord
  2
CONTINUOUS
 70
     0
  3
Solid line
 72
    65
 73
     0
 40
0.0
  0
ENDTAB
  0
TABLE
  2
LAYER
  5
386
330
0
100
AcDbSymbolTable
 70
     3
  0
LAYER
  5
394
330
386
100
AcDbSymbolTableRecord
100
AcDbLayerTableRecord
  2
0
 70
     0
 62
     7
  6
CONTINUOUS
370
    -3
390
393
  0
LAYER
  5
3A7
330
386
100
AcDbSymbolTableRecord
100
AcDbLayerTableRecord
  2
1外形線
 70
     0
 62
     3
  6
CONTINUOUS
370
    -3
390
393
  0
LAYER
  5
3A8
330
386
100
AcDbSymbolTableRecord
100
AcDbLayerTableRecord
  2
DEFPOINTS
 70
     0
 62
     7
  6
CONTINUOUS
290
     0
370
    -3
390
393
  0
ENDTAB
  0
TABLE
  2
STYLE
  5
387
330
0
100
AcDbSymbolTable
 70
     2
  0
STYLE
  5
395
330
387
100
AcDbSymbolTableRecord
100
AcDbTextStyleTableRecord
  2
STANDARD
 70
     0
 40
0.0
 41
1.0
 50
0.0
 71
     0
 42
2.5
  3
txt
  4

  0
STYLE
  5
3A9
330
387
100
AcDbSymbolTableRecord
100
AcDbTextStyleTableRecord
  2
KANJI
 70
     0
 40
0.0
 41
1.0
 50
0.0
 71
     0
 42
2.5
  3
simplex.shx
  4
bigfont.shx
  0
ENDTAB
  0
TABLE
  2
VIEW
  5
38A
330
0
100
AcDbSymbolTable
 70
     0
  0
ENDTAB
  0
TABLE
  2
UCS
  5
38B
330
0
100
AcDbSymbolTable
 70
     0
  0
ENDTAB
  0
TABLE
  2
APPID
  5
38D
330
0
100
AcDbSymbolTable
 70
     1
  0
APPID
  5
396
330
38D
100
AcDbSymbolTableRecord
100
AcDbRegAppTableRecord
  2
ACAD
 70
     0
  0
ENDTAB
  0
TABLE
  2
DIMSTYLE
  5
38E
330
0
100
AcDbSymbolTable
 70
     2
100
AcDbDimStyleTable
 71
     1
340
3AA
  0
DIMSTYLE
105
3AA
330
38E
100
AcDbSymbolTableRecord
100
AcDbDimStyleTableRecord
  2
ISO-25
 70
     0
 41
2.5
 42
0.625
 43
3.75
 44
1.25
 73
     0
 74
     0
 77
     1
 78
     8
140
2.5
141
2.5
143
0.03937007874016
147
0.625
171
     3
172
     1
274
     3
279
     2
284
     8
285
     8
286
     8
340
395
  0
DIMSTYLE
105
3AB
330
38E
100
AcDbSymbolTableRecord
100
AcDbDimStyleTableRecord
  2
STANDARD
 70
     0
274
     3
279
     2
284
     8
285
     8
286
     8
340
395
  0
ENDTAB
  0
TABLE
  2
BLOCK_RECORD
  5
385
330
0
100
AcDbSymbolTable
 70
    23
  0
BLOCK_RECORD
  5
3A2
330
385
100
AcDbSymbolTableRecord
100
AcDbBlockTableRecord
  2
*Model_Space
340
3A5
  0
BLOCK_RECORD
  5
39E
330
385
100
AcDbSymbolTableRecord
100
AcDbBlockTableRecord
  2
*Paper_Space
340
3A1
  0
ENDTAB
  0
ENDSEC
  0
SECTION
  2
BLOCKS
  0
BLOCK
  5
3A3
330
3A2
100
AcDbEntity
  8
0
100
AcDbBlockBegin
  2
*Model_Space
 70
     0
 10
0.0
 20
0.0
 30
0.0
  3
*Model_Space
  1

  0
ENDBLK
  5
3A4
330
3A2
100
AcDbEntity
  8
0
100
AcDbBlockEnd
  0
BLOCK
  5
39F
330
39E
100
AcDbEntity
 67
     1
  8
0
100
AcDbBlockBegin
  2
*Paper_Space
 70
     0
 10
0.0
 20
0.0
 30
0.0
  3
*Paper_Space
  1

  0
ENDBLK
  5
3A0
330
39E
100
AcDbEntity
 67
     1
  8
0
100
AcDbBlockEnd
  0
ENDSEC
  0
SECTION
  2
ENTITIES
  0
LINE
  5
178
330
3A2
100
AcDbEntity
  8
1外形線
100
AcDbLine
 10
477.5464682554876
 20
46.80128173720675
 30
0.0
 11
69.06481297095331
 21
46.80128173720652
 31
0.0
  0
LINE
  5
179
330
3A2
100
AcDbEntity
  8
1外形線
100
AcDbLine
 10
69.06481297095331
 20
582.190428142804
 30
0.0
 11
477.5464682554876
 21
582.190428142804
 31
0.0
  0
LINE
  5
17C
330
3A2
100
AcDbEntity
  8
1外形線
100
AcDbLine
 10
69.06481297095331
 20
582.190428142804
 30
0.0
 11
69.06481297095331
 21
46.80128173720652
 31
0.0
  0
LINE
  5
2B9
330
3A2
100
AcDbEntity
  8
1外形線
100
AcDbLine
 10
477.5464682554876
 20
582.190428142804
 30
0.0
 11
477.5464682554876
 21
46.80128173720675
 31
0.0
  0
ARC
  5
3CE
330
3A2
100
AcDbEntity
  8
1外形線
100
AcDbCircle
 10
184.8206247092575
 20
315.4963895460331
 30
0.0
 40
73.25
100
AcDbArc
 50
304.0369174810188
 51
235.963082518981
  0
LINE
  5
3D3
330
3A2
100
AcDbEntity
  8
1外形線
100
AcDbLine
 10
111.5706247092574
 20
80.49781875694987
 30
0.0
 11
184.8206247092575
 21
80.49781875695101
 31
0.0
  0
LINE
  5
3D4
330
3A2
100
AcDbEntity
  8
1外形線
100
AcDbLine
 10
170.8206247092575
 20
147.4978187569508
 30
0.0
 11
184.8206247092575
 21
147.4978187569508
 31
0.0
  0
LINE
  5
3D5
330
3A2
100
AcDbEntity
  8
1外形線
100
AcDbLine
 10
172.3206247092575
 20
145.4978187569508
 30
0.0
 11
184.8206247092575
 21
145.4978187569508
 31
0.0
  0
LINE
  5
3D6
330
3A2
100
AcDbEntity
  8
1外形線
100
AcDbLine
 10
172.3206247092575
 20
82.49781875695099
 30
0.0
 11
184.8206247092575
 21
82.49781875695099
 31
0.0
  0
LINE
  5
3E4
330
3A2
100
AcDbEntity
  8
1外形線
100
AcDbLine
 10
147.3206247092575
 20
107.497818756951
 30
0.0
 11
147.3206247092575
 21
120.4978187569508
 31
0.0
  0
LINE
  5
3E5
330
3A2
100
AcDbEntity
  8
1外形線
100
AcDbLine
 10
143.8206247092575
 20
102.5850860184044
 30
0.0
 11
143.8206247092575
 21
120.4978187569508
 31
0.0
  0
ARC
  5
3F7
330
3A2
100
AcDbEntity
  8
1外形線
100
AcDbCircle
 10
172.3206247092575
 20
107.497818756951
 30
0.0
 40
25.0
100
AcDbArc
 50
180.0
 51
270.0
  0
ARC
  5
3F9
330
3A2
100
AcDbEntity
  8
1外形線
100
AcDbCircle
 10
172.3206247092575
 20
120.4978187569508
 30
0.0
 40
25.0
100
AcDbArc
 50
90.0
 51
180.0
  0
ARC
  5
3FA
330
3A2
100
AcDbEntity
  8
1外形線
100
AcDbCircle
 10
170.8206247092575
 20
107.4978187569507
 30
0.0
 40
27.0
100
AcDbArc
 50
180.0
 51
270.0000000000008
  0
ARC
  5
3FB
330
3A2
100
AcDbEntity
  8
1外形線
100
AcDbCircle
 10
170.8206247092575
 20
120.4978187569508
 30
0.0
 40
27.0
100
AcDbArc
 50
90.0
 51
180.0
  0
LINE
  5
3FC
330
3A2
100
AcDbEntity
  8
1外形線
100
AcDbLine
 10
143.8206247092575
 20
120.4978187569508
 30
0.0
 11
143.8206247092575
 21
137.497818756951
 31
0.0
  0
LINE
  5
3FD
330
3A2
100
AcDbEntity
  8
1外形線
100
AcDbLine
 10
143.8206247092575
 20
200.7463895460331
 30
0.0
 11
143.8206247092575
 21
206.7463895460329
 31
0.0
  0
LINE
  5
401
330
3A2
100
AcDbEntity
  8
1外形線
100
AcDbLine
 10
143.8206247092575
 20
200.7463895460331
 30
0.0
 11
184.8206247092575
 21
200.7463895460328
 31
0.0
  0
LINE
  5
402
330
3A2
100
AcDbEntity
  8
1外形線
100
AcDbLine
 10
143.8206247092575
 20
206.7463895460329
 30
0.0
 11
184.8206247092575
 21
206.7463895460329
 31
0.0
  0
LINE
  5
403
330
3A2
100
AcDbEntity
  8
1外形線
100
AcDbLine
 10
144.3206247092575
 20
206.7463895460329
 30
0.0
 11
144.3206247092575
 21
315.4963895460331
 31
0.0
  0
LINE
  5
404
330
3A2
100
AcDbEntity
  8
1外形線
100
AcDbLine
 10
225.3206247092575
 20
206.7463895460329
 30
0.0
 11
225.3206247092575
 21
315.4963895460331
 31
0.0
  0
LINE
  5
405
330
3A2
100
AcDbEntity
  8
1外形線
100
AcDbLine
 10
225.8206247092575
 20
200.7463895460331
 30
0.0
 11
225.8206247092575
 21
206.7463895460329
 31
0.0
  0
ARC
  5
406
330
3A2
100
AcDbEntity
  8
1外形線
100
AcDbCircle
 10
184.8206247092575
 20
315.4963895460331
 30
0.0
 40
40.49999999999999
100
AcDbArc
 50
0.0
 51
180.0
  0
LINE
  5
40A
330
3A2
100
AcDbEntity
  8
1外形線
100
AcDbLine
 10
139.5704724686567
 20
97.64163294006701
 30
0.0
 11
120.070929190459
 21
94.68384440546186
 31
0.0
  0
ARC
  5
40B
330
3A2
100
AcDbEntity
  8
1外形線
100
AcDbCircle
 10
138.8206247092575
 20
102.5850860184044
 30
0.0
 40
5.0
100
AcDbArc
 50
278.6251620503213
 51
0.0000000000001272
  0
LINE
  5
40C
330
3A2
100
AcDbEntity
  8
1外形線
100
AcDbLine
 10
111.5706247092574
 20
80.49781875694987
 30
0.0
 11
111.5706247092574
 21
84.79693824878699
 31
0.0
  0
ARC
  5
40E
330
3A2
100
AcDbEntity
  8
1外形線
100
AcDbCircle
 10
121.5706247092575
 20
84.79693824878699
 30
0.0
 40
10.0
100
AcDbArc
 50
98.62516205032145
 51
180.0
  0
ARC
  5
410
330
3A2
100
AcDbEntity
  8
1外形線
100
AcDbCircle
 10
170.8206247092561
 20
137.497818756951
 30
0.0
 40
27.0
100
AcDbArc
 50
90.0
 51
180.0
  0
LINE
  5
411
330
3A2
100
AcDbEntity
  8
1外形線
100
AcDbLine
 10
170.8206247092561
 20
164.497818756951
 30
0.0
 11
184.8206247092559
 21
164.497818756951
 31
0.0
  0
ARC
  5
412
330
3A2
100
AcDbEntity
  8
1外形線
100
AcDbCircle
 10
198.8206247092588
 20
137.497818756951
 30
0.0
 40
27.0
100
AcDbArc
 50
0.000000000000007
 51
90.0
  0
LINE
  5
413
330
3A2
100
AcDbEntity
  8
1外形線
100
AcDbLine
 10
258.0706247092575
 20
80.49781875694987
 30
0.0
 11
184.8206247092575
 21
80.49781875695101
 31
0.0
  0
ARC
  5
414
330
3A2
100
AcDbEntity
  8
1外形線
100
AcDbCircle
 10
198.8206247092575
 20
107.4978187569507
 30
0.0
 40
27.0
100
AcDbArc
 50
269.9999999999992
 51
0.000000000000007
  0
ARC
  5
415
330
3A2
100
AcDbEntity
  8
1外形線
100
AcDbCircle
 10
197.3206247092575
 20
120.4978187569508
 30
0.0
 40
25.0
100
AcDbArc
 50
0.000000000000007
 51
90.0
  0
ARC
  5
416
330
3A2
100
AcDbEntity
  8
1外形線
100
AcDbCircle
 10
197.3206247092575
 20
107.497818756951
 30
0.0
 40
25.0
100
AcDbArc
 50
270.0
 51
0.000000000000007
  0
ARC
  5
417
330
3A2
100
AcDbEntity
  8
1外形線
100
AcDbCircle
 10
198.8206247092575
 20
120.4978187569508
 30
0.0
 40
27.0
100
AcDbArc
 50
0.000000000000007
 51
90.0
  0
ARC
  5
418
330
3A2
100
AcDbEntity
  8
1外形線
100
AcDbCircle
 10
248.0706247092575
 20
84.79693824878699
 30
0.0
 40
10.0
100
AcDbArc
 50
0.000000000000007
 51
81.3748379496786
  0
LINE
  5
419
330
3A2
100
AcDbEntity
  8
1外形線
100
AcDbLine
 10
258.0706247092575
 20
80.49781875694987
 30
0.0
 11
258.0706247092575
 21
84.79693824878699
 31
0.0
  0
LINE
  5
41A
330
3A2
100
AcDbEntity
  8
1外形線
100
AcDbLine
 10
230.0707769498583
 20
97.64163294006701
 30
0.0
 11
249.570320228056
 21
94.68384440546186
 31
0.0
  0
LINE
  5
41B
330
3A2
100
AcDbEntity
  8
1外形線
100
AcDbLine
 10
225.8206247092575
 20
120.4978187569508
 30
0.0
 11
225.8206247092575
 21
137.497818756951
 31
0.0
  0
ARC
  5
41C
330
3A2
100
AcDbEntity
  8
1外形線
100
AcDbCircle
 10
230.8206247092575
 20
102.5850860184044
 30
0.0
 40
5.0
100
AcDbArc
 50
179.9999999999998
 51
261.3748379496783
  0
LINE
  5
41D
330
3A2
100
AcDbEntity
  8
1外形線
100
AcDbLine
 10
225.8206247092575
 20
102.5850860184044
 30
0.0
 11
225.8206247092575
 21
120.4978187569508
 31
0.0
  0
LINE
  5
41E
330
3A2
100
AcDbEntity
  8
1外形線
100
AcDbLine
 10
222.3206247092575
 20
107.497818756951
 30
0.0
 11
222.3206247092575
 21
120.4978187569508
 31
0.0
  0
LINE
  5
41F
330
3A2
100
AcDbEntity
  8
1外形線
100
AcDbLine
 10
197.3206247092575
 20
82.49781875695099
 30
0.0
 11
184.8206247092575
 21
82.49781875695099
 31
0.0
  0
LINE
  5
420
330
3A2
100
AcDbEntity
  8
1外形線
100
AcDbLine
 10
198.8206247092588
 20
164.497818756951
 30
0.0
 11
184.8206247092585
 21
164.497818756951
 31
0.0
  0
LINE
  5
421
330
3A2
100
AcDbEntity
  8
1外形線
100
AcDbLine
 10
198.8206247092575
 20
147.4978187569508
 30
0.0
 11
184.8206247092575
 21
147.4978187569508
 31
0.0
  0
LINE
  5
422
330
3A2
100
AcDbEntity
  8
1外形線
100
AcDbLine
 10
197.3206247092575
 20
145.4978187569508
 30
0.0
 11
184.8206247092575
 21
145.4978187569508
 31
0.0
  0
LINE
  5
423
330
3A2
100
AcDbEntity
  8
1外形線
100
AcDbLine
 10
432.48870426465
 20
388.746389546033
 30
0.0
 11
432.48870426465
 21
200.7463895460331
 31
0.0
  0
LINE
  5
424
330
3A2
100
AcDbEntity
  8
1外形線
100
AcDbLine
 10
365.48870426465
 20
200.7463895460328
 30
0.0
 11
432.48870426465
 21
200.7463895460331
 31
0.0
  0
LINE
  5
426
330
3A2
100
AcDbEntity
  8
1外形線
100
AcDbLine
 10
378.4887042646499
 20
355.996389546033
 30
0.0
 11
410.3255944951838
 21
355.996389546033
 31
0.0
  0
ARC
  5
44A
330
3A2
100
AcDbEntity
  8
1外形線
100
AcDbCircle
 10
428.1895847728129
 20
378.746389546033
 30
0.0
 40
10.0
100
AcDbArc
 50
90.00000000000005
 51
171.3748379496784
  0
LINE
  5
44B
330
3A2
100
AcDbEntity
  8
1外形線
100
AcDbLine
 10
432.48870426465
 20
388.746389546033
 30
0.0
 11
428.1895847728129
 21
388.746389546033
 31
0.0
  0
LINE
  5
44C
330
3A2
100
AcDbEntity
  8
1外形線
100
AcDbLine
 10
415.269047573521
 20
360.2465417866338
 30
0.0
 11
418.3026786161382
 21
380.2460850648316
 31
0.0
  0
ARC
  5
44D
330
3A2
100
AcDbEntity
  8
1外形線
100
AcDbCircle
 10
410.3255944951838
 20
360.996389546033
 30
0.0
 40
5.0
100
AcDbArc
 50
270.0
 51
351.3748379496786
  0
LINE
  5
45B
330
3A2
100
AcDbEntity
  8
1外形線
100
AcDbLine
 10
365.4887042646498
 20
226.6727099881487
 30
0.0
 11
365.48870426465
 21
200.7463895460328
 31
0.0
  0
LINE
  5
45C
330
3A2
100
AcDbEntity
  8
1外形線
100
AcDbLine
 10
365.48870426465
 20
206.7463895460329
 30
0.0
 11
432.48870426465
 21
206.7463895460329
 31
0.0
  0
LINE
  5
45D
330
3A2
100
AcDbEntity
  8
1外形線
100
AcDbLine
 10
348.4887042646498
 20
325.9963895460331
 30
0.0
 11
348.4887042646498
 21
276.856908882859
 31
0.0
  0
ARC
  5
468
330
3A2
100
AcDbEntity
  8
1外形線
100
AcDbCircle
 10
378.4887042646499
 20
325.9963895460331
 30
0.0
 40
30.0
100
AcDbArc
 50
90.0
 51
180.0
  0
LINE
  5
486
330
3A2
100
AcDbEntity
  8
1外形線
100
AcDbLine
 10
350.8787767108956
 20
265.1226896725135
 30
0.0
 11
363.8953226338192
 21
234.4955227950458
 31
0.0
  0
LINE
  5
48A
330
3A2
100
AcDbEntity
  8
1外形線
100
AcDbLine
 10
414.6243631628033
 20
287.5457923496301
 30
0.0
 11
418.3026786161382
 21
263.2960968308314
 31
0.0
  0
ARC
  5
48B
330
3A2
100
AcDbEntity
  8
1外形線
100
AcDbCircle
 10
428.1895847728129
 20
264.7957923496298
 30
0.0
 40
10.0
100
AcDbArc
 50
188.6251620503213
 51
270.0
  0
LINE
  5
48C
330
3A2
100
AcDbEntity
  8
1外形線
100
AcDbLine
 10
432.48870426465
 20
254.7957923496298
 30
0.0
 11
428.1895847728129
 21
254.7957923496298
 31
0.0
  0
LINE
  5
48D
330
3A2
100
AcDbEntity
  8
1外形線
100
AcDbLine
 10
414.624363162803
 20
355.996389546033
 30
0.0
 11
414.6243631628033
 21
287.5457923496301
 31
0.0
  0
LINE
  5
48E
330
3A2
100
AcDbEntity
  8
1外形線
100
AcDbLine
 10
407.4217867175581
 20
315.4963895460328
 30
0.0
 11
432.48870426465
 21
315.4963895460331
 31
0.0
  0
LINE
  5
4B8
330
3A2
100
AcDbEntity
  8
1外形線
100
AcDbLine
 10
392.4887042646501
 20
230.7463895460331
 30
0.0
 11
392.4887042646501
 21
200.7463895460331
 31
0.0
  0
LINE
  5
4BA
330
3A2
100
AcDbEntity
  8
1外形線
100
AcDbLine
 10
392.4887042646501
 20
230.7463895460331
 30
0.0
 11
410.4887042646501
 21
315.4963895460331
 31
0.0
  0
LINE
  5
4BB
330
3A2
100
AcDbEntity
  8
1外形線
100
AcDbLine
 10
395.4887042646501
 20
230.4313194284748
 30
0.0
 11
413.555621811742
 21
315.4963895460331
 31
0.0
  0
LINE
  5
4BC
330
3A2
100
AcDbEntity
  8
1外形線
100
AcDbLine
 10
389.4887042646501
 20
231.0614596635915
 30
0.0
 11
407.4217867175581
 21
315.4963895460328
 31
0.0
  0
LINE
  5
4BD
330
3A2
100
AcDbEntity
  8
1外形線
100
AcDbLine
 10
395.4887042646501
 20
230.4313194284748
 30
0.0
 11
395.4887042646501
 21
200.7463895460331
 31
0.0
  0
LINE
  5
4BE
330
3A2
100
AcDbEntity
  8
1外形線
100
AcDbLine
 10
389.4887042646501
 20
231.0614596635915
 30
0.0
 11
389.4887042646501
 21
200.7463895460331
 31
0.0
  0
ARC
  5
4C0
330
3A2
100
AcDbEntity
  8
1外形線
100
AcDbCircle
 10
198.8206247092588
 20
454.7957088327661
 30
0.0
 40
27.0
100
AcDbArc
 50
270.0
 51
0.0
  0
ARC
  5
4C1
330
3A2
100
AcDbEntity
  8
1外形線
100
AcDbCircle
 10
170.8206247092561
 20
454.7957088327661
 30
0.0
 40
27.0
100
AcDbArc
 50
180.0
 51
270.0
  0
LINE
  5
4C2
330
3A2
100
AcDbEntity
  8
1外形線
100
AcDbLine
 10
111.5706247092574
 20
511.7957088327673
 30
0.0
 11
184.8206247092575
 21
511.7957088327663
 31
0.0
  0
ARC
  5
4C7
330
3A2
100
AcDbEntity
  8
1外形線
100
AcDbCircle
 10
121.5706247092575
 20
507.4965893409303
 30
0.0
 40
10.0
100
AcDbArc
 50
180.0
 51
261.3748379496785
  0
LINE
  5
4C8
330
3A2
100
AcDbEntity
  8
1外形線
100
AcDbLine
 10
111.5706247092574
 20
511.7957088327673
 30
0.0
 11
111.5706247092574
 21
507.4965893409303
 31
0.0
  0
LINE
  5
4C9
330
3A2
100
AcDbEntity
  8
1外形線
100
AcDbLine
 10
139.5704724686567
 20
494.6518946496503
 30
0.0
 11
120.070929190459
 21
497.6096831842553
 31
0.0
  0
LINE
  5
4CA
330
3A2
100
AcDbEntity
  8
1外形線
100
AcDbLine
 10
143.8206247092575
 20
471.7957088327663
 30
0.0
 11
143.8206247092575
 21
454.7957088327661
 31
0.0
  0
ARC
  5
4CB
330
3A2
100
AcDbEntity
  8
1外形線
100
AcDbCircle
 10
138.8206247092575
 20
489.7084415713128
 30
0.0
 40
5.0
100
AcDbArc
 50
359.9999999999998
 51
81.37483794967826
  0
LINE
  5
4CC
330
3A2
100
AcDbEntity
  8
1外形線
100
AcDbLine
 10
143.8206247092575
 20
489.7084415713128
 30
0.0
 11
143.8206247092575
 21
471.7957088327663
 31
0.0
  0
LINE
  5
4D0
330
3A2
100
AcDbEntity
  8
1外形線
100
AcDbLine
 10
258.0706247092575
 20
511.7957088327673
 30
0.0
 11
184.8206247092575
 21
511.7957088327663
 31
0.0
  0
ARC
  5
4DA
330
3A2
100
AcDbEntity
  8
1外形線
100
AcDbCircle
 10
248.0706247092575
 20
507.4965893409303
 30
0.0
 40
10.0
100
AcDbArc
 50
278.6251620503213
 51
0.0
  0
LINE
  5
4DB
330
3A2
100
AcDbEntity
  8
1外形線
100
AcDbLine
 10
258.0706247092575
 20
511.7957088327673
 30
0.0
 11
258.0706247092575
 21
507.4965893409303
 31
0.0
  0
LINE
  5
4DC
330
3A2
100
AcDbEntity
  8
1外形線
100
AcDbLine
 10
225.8206247092575
 20
471.7957088327663
 30
0.0
 11
225.8206247092575
 21
454.7957088327661
 31
0.0
  0
LINE
  5
4DD
330
3A2
100
AcDbEntity
  8
1外形線
100
AcDbLine
 10
230.0707769498583
 20
494.6518946496503
 30
0.0
 11
249.570320228056
 21
497.6096831842553
 31
0.0
  0
LINE
  5
4DE
330
3A2
100
AcDbEntity
  8
1外形線
100
AcDbLine
 10
225.8206247092575
 20
489.7084415713128
 30
0.0
 11
225.8206247092575
 21
471.7957088327663
 31
0.0
  0
ARC
  5
4DF
330
3A2
100
AcDbEntity
  8
1外形線
100
AcDbCircle
 10
230.8206247092575
 20
489.7084415713128
 30
0.0
 40
5.0
100
AcDbArc
 50
98.62516205032145
 51
180.0000000000001
  0
LINE
  5
4E0
330
3A2
100
AcDbEntity
  8
1外形線
100
AcDbLine
 10
198.8206247092588
 20
427.7957088327664
 30
0.0
 11
184.8206247092585
 21
427.7957088327664
 31
0.0
  0
LINE
  5
4E1
330
3A2
100
AcDbEntity
  8
1外形線
100
AcDbLine
 10
170.8206247092561
 20
427.7957088327664
 30
0.0
 11
184.8206247092559
 21
427.7957088327664
 31
0.0
  0
LINE
  5
4E2
330
3A2
100
AcDbEntity
  8
1外形線
100
AcDbLine
 10
143.8206247092575
 20
494.0072102389323
 30
0.0
 11
184.8206247092575
 21
494.0072102389323
 31
0.0
  0
LINE
  5
4E3
330
3A2
100
AcDbEntity
  8
1外形線
100
AcDbLine
 10
225.8206247092575
 20
494.0072102389323
 30
0.0
 11
184.8206247092575
 21
494.0072102389323
 31
0.0
  0
LINE
  5
4E5
330
3A2
100
AcDbEntity
  8
1外形線
100
AcDbLine
 10
225.8206247092575
 20
206.7463895460329
 30
0.0
 11
184.8206247092575
 21
206.7463895460329
 31
0.0
  0
LINE
  5
4E6
330
3A2
100
AcDbEntity
  8
1外形線
100
AcDbLine
 10
225.8206247092575
 20
200.7463895460331
 30
0.0
 11
184.8206247092575
 21
200.7463895460328
 31
0.0
  0
TEXT
  5
4E7
330
3A2
100
AcDbEntity
  8
1外形線
100
AcDbText
 10
95.29398910730902
 20
550.3193483083054
 30
0.0
 40
10.0
  1
SWM-77
  7
KANJI
100
AcDbText
  0
ARC
  5
4EB
330
3A2
100
AcDbEntity
  8
1外形線
100
AcDbCircle
 10
1031.746834077486
 20
313.4028444979571
 30
0.0
 40
83.0
100
AcDbArc
 50
90.0
 51
230.3159046176438
  0
LINE
  5
4ED
330
3A2
100
AcDbEntity
  8
1外形線
100
AcDbLine
 10
978.2468340774858
 20
187.402844497957
 30
0.0
 11
978.2468340774858
 21
181.402844497957
 31
0.0
  0
LINE
  5
4EE
330
3A2
100
AcDbEntity
  8
1外形線
100
AcDbLine
 10
1031.746834077486
 20
181.402844497957
 30
0.0
 11
978.2468340774858
 21
181.402844497957
 31
0.0
  0
LINE
  5
4EF
330
3A2
100
AcDbEntity
  8
1外形線
100
AcDbLine
 10
1031.746834077486
 20
187.402844497957
 30
0.0
 11
978.2468340774858
 21
187.402844497957
 31
0.0
  0
LINE
  5
4F1
330
3A2
100
AcDbEntity
  8
1外形線
100
AcDbLine
 10
948.7468340774858
 20
65.74867681327532
 30
0.0
 11
1031.746834077486
 21
65.74867681327532
 31
0.0
  0
LINE
  5
4F3
330
3A2
100
AcDbEntity
  8
1外形線
100
AcDbLine
 10
948.7468340774858
 20
65.74867681327532
 30
0.0
 11
948.7468340774858
 21
70.04779630511245
 31
0.0
  0
ARC
  5
4F4
330
3A2
100
AcDbEntity
  8
1外形線
100
AcDbCircle
 10
958.746834077486
 20
70.04779630511245
 30
0.0
 40
10.0
100
AcDbArc
 50
98.62516205032145
 51
180.0
  0
LINE
  5
4F5
330
3A2
100
AcDbEntity
  8
1外形線
100
AcDbLine
 10
973.9966818368852
 20
82.4753572023277
 30
0.0
 11
957.2471385586876
 21
79.93470246178731
 31
0.0
  0
LINE
  5
4F7
330
3A2
100
AcDbEntity
  8
1外形線
100
AcDbLine
 10
1005.246834077486
 20
140.7486768132753
 30
0.0
 11
1031.746834077486
 21
140.7486768132753
 31
0.0
  0
LINE
  5
507
330
3A2
100
AcDbEntity
  8
1外形線
100
AcDbLine
 10
1006.746834077485
 20
68.24867681327532
 30
0.0
 11
1031.746834077486
 21
68.24867681327532
 31
0.0
  0
LINE
  5
508
330
3A2
100
AcDbEntity
  8
1外形線
100
AcDbLine
 10
1006.746834077485
 20
138.2486768132753
 30
0.0
 11
1031.746834077486
 21
138.2486768132753
 31
0.0
  0
LINE
  5
509
330
3A2
100
AcDbEntity
  8
1外形線
100
AcDbLine
 10
981.7468340774858
 20
113.2486768132753
 30
0.0
 11
981.7468340774858
 21
93.24867681327532
 31
0.0
  0
LINE
  5
50A
330
3A2
100
AcDbEntity
  8
1外形線
100
AcDbLine
 10
978.2468340774858
 20
132.7486768132754
 30
0.0
 11
978.2468340774858
 21
87.41881028066513
 31
0.0
  0
ARC
  5
51A
330
3A2
100
AcDbEntity
  8
1外形線
100
AcDbCircle
 10
1006.746834077485
 20
113.2486768132753
 30
0.0
 40
25.0
100
AcDbArc
 50
90.0
 51
180.0
  0
ARC
  5
51B
330
3A2
100
AcDbEntity
  8
1外形線
100
AcDbCircle
 10
1005.246834077484
 20
113.7486768132754
 30
0.0
 40
27.0
100
AcDbArc
 50
89.99999999999976
 51
180.0000000000002
  0
ARC
  5
51C
330
3A2
100
AcDbEntity
  8
1外形線
100
AcDbCircle
 10
1006.746834077485
 20
93.24867681327532
 30
0.0
 40
25.0
100
AcDbArc
 50
179.9999999999998
 51
270.0
  0
ARC
  5
51D
330
3A2
100
AcDbEntity
  8
1外形線
100
AcDbCircle
 10
1005.246834077484
 20
92.74867681327521
 30
0.0
 40
27.0
100
AcDbArc
 50
179.9999999999998
 51
270.0000000000005
  0
ARC
  5
51E
330
3A2
100
AcDbEntity
  8
1外形線
100
AcDbCircle
 10
973.2468340774858
 20
87.41881028066513
 30
0.0
 40
5.0
100
AcDbArc
 50
278.6251620503213
 51
0.0
  0
ARC
  5
51F
330
3A2
100
AcDbEntity
  8
1外形線
100
AcDbCircle
 10
1005.246834077484
 20
132.7486768132754
 30
0.0
 40
27.0
100
AcDbArc
 50
89.99999999999976
 51
180.0
  0
LINE
  5
520
330
3A2
100
AcDbEntity
  8
1外形線
100
AcDbLine
 10
1005.246834077486
 20
159.7486768132753
 30
0.0
 11
1031.746834077486
 21
159.7486768132753
 31
0.0
  0
LINE
  5
521
330
3A2
100
AcDbEntity
  8
1外形線
100
AcDbLine
 10
978.7468340774857
 20
187.402844497957
 30
0.0
 11
978.7468340774857
 21
313.4028444979571
 31
0.0
  0
ARC
  5
522
330
3A2
100
AcDbEntity
  8
1外形線
100
AcDbCircle
 10
1031.746834077486
 20
313.4028444979571
 30
0.0
 40
53.00000000000022
100
AcDbArc
 50
90.0
 51
180.0
  0
ARC
  5
523
330
3A2
100
AcDbEntity
  8
1外形線
100
AcDbCircle
 10
1031.746834077486
 20
313.4028444979571
 30
0.0
 40
83.0
100
AcDbArc
 50
309.6840953823562
 51
90.0
  0
LINE
  5
524
330
3A2
100
AcDbEntity
  8
1外形線
100
AcDbLine
 10
1084.746834077485
 20
187.402844497957
 30
0.0
 11
1084.746834077485
 21
313.4028444979571
 31
0.0
  0
LINE
  5
525
330
3A2
100
AcDbEntity
  8
1外形線
100
AcDbLine
 10
1031.746834077486
 20
187.402844497957
 30
0.0
 11
1085.246834077486
 21
187.402844497957
 31
0.0
  0
LINE
  5
526
330
3A2
100
AcDbEntity
  8
1外形線
100
AcDbLine
 10
1031.746834077486
 20
181.402844497957
 30
0.0
 11
1085.246834077486
 21
181.402844497957
 31
0.0
  0
LINE
  5
527
330
3A2
100
AcDbEntity
  8
1外形線
100
AcDbLine
 10
1085.246834077486
 20
187.402844497957
 30
0.0
 11
1085.246834077486
 21
181.402844497957
 31
0.0
  0
ARC
  5
528
330
3A2
100
AcDbEntity
  8
1外形線
100
AcDbCircle
 10
1031.746834077486
 20
313.4028444979571
 30
0.0
 40
53.00000000000022
100
AcDbArc
 50
0.000000000000007
 51
90.0
  0
ARC
  5
529
330
3A2
100
AcDbEntity
  8
1外形線
100
AcDbCircle
 10
1104.746834077486
 20
70.04779630511245
 30
0.0
 40
10.0
100
AcDbArc
 50
0.000000000000007
 51
81.3748379496786
  0
LINE
  5
52A
330
3A2
100
AcDbEntity
  8
1外形線
100
AcDbLine
 10
1085.246834077486
 20
132.7486768132754
 30
0.0
 11
1085.246834077486
 21
87.41881028066513
 31
0.0
  0
ARC
  5
52B
330
3A2
100
AcDbEntity
  8
1外形線
100
AcDbCircle
 10
1058.246834077486
 20
113.7486768132754
 30
0.0
 40
27.0
100
AcDbArc
 50
359.9999999999997
 51
90.00000000000021
  0
ARC
  5
52C
330
3A2
100
AcDbEntity
  8
1外形線
100
AcDbCircle
 10
1056.746834077485
 20
113.2486768132753
 30
0.0
 40
25.0
100
AcDbArc
 50
0.000000000000007
 51
90.0
  0
LINE
  5
52D
330
3A2
100
AcDbEntity
  8
1外形線
100
AcDbLine
 10
1114.746834077486
 20
65.74867681327532
 30
0.0
 11
1031.746834077486
 21
65.74867681327532
 31
0.0
  0
LINE
  5
52E
330
3A2
100
AcDbEntity
  8
1外形線
100
AcDbLine
 10
1056.746834077485
 20
68.24867681327532
 30
0.0
 11
1031.746834077486
 21
68.24867681327532
 31
0.0
  0
ARC
  5
52F
330
3A2
100
AcDbEntity
  8
1外形線
100
AcDbCircle
 10
1058.246834077486
 20
92.74867681327521
 30
0.0
 40
27.0
100
AcDbArc
 50
269.9999999999993
 51
0.0000000000001851
  0
ARC
  5
530
330
3A2
100
AcDbEntity
  8
1外形線
100
AcDbCircle
 10
1056.746834077485
 20
93.24867681327532
 30
0.0
 40
25.0
100
AcDbArc
 50
270.0
 51
0.0000000000001088
  0
LINE
  5
531
330
3A2
100
AcDbEntity
  8
1外形線
100
AcDbLine
 10
1114.746834077486
 20
65.74867681327532
 30
0.0
 11
1114.746834077486
 21
70.04779630511245
 31
0.0
  0
LINE
  5
532
330
3A2
100
AcDbEntity
  8
1外形線
100
AcDbLine
 10
1089.496986318087
 20
82.4753572023277
 30
0.0
 11
1106.246529596284
 21
79.93470246178731
 31
0.0
  0
ARC
  5
533
330
3A2
100
AcDbEntity
  8
1外形線
100
AcDbCircle
 10
1090.246834077485
 20
87.41881028066513
 30
0.0
 40
5.0
100
AcDbArc
 50
180.0
 51
261.3748379496783
  0
LINE
  5
534
330
3A2
100
AcDbEntity
  8
1外形線
100
AcDbLine
 10
1081.746834077485
 20
113.2486768132753
 30
0.0
 11
1081.746834077485
 21
93.24867681327532
 31
0.0
  0
LINE
  5
535
330
3A2
100
AcDbEntity
  8
1外形線
100
AcDbLine
 10
1058.246834077485
 20
159.7486768132753
 30
0.0
 11
1031.746834077486
 21
159.7486768132753
 31
0.0
  0
LINE
  5
536
330
3A2
100
AcDbEntity
  8
1外形線
100
AcDbLine
 10
1058.246834077485
 20
140.7486768132753
 30
0.0
 11
1031.746834077486
 21
140.7486768132753
 31
0.0
  0
LINE
  5
537
330
3A2
100
AcDbEntity
  8
1外形線
100
AcDbLine
 10
1056.746834077485
 20
138.2486768132753
 30
0.0
 11
1031.746834077486
 21
138.2486768132753
 31
0.0
  0
ARC
  5
538
330
3A2
100
AcDbEntity
  8
1外形線
100
AcDbCircle
 10
1058.246834077486
 20
132.7486768132754
 30
0.0
 40
27.0
100
AcDbArc
 50
0.000000000000007
 51
90.00000000000021
  0
LINE
  5
53A
330
3A2
100
AcDbEntity
  8
1外形線
100
AcDbLine
 10
1256.58365752204
 20
396.4028444979571
 30
0.0
 11
1256.58365752204
 21
181.402844497957
 31
0.0
  0
ARC
  5
53B
330
3A2
100
AcDbEntity
  8
1外形線
100
AcDbCircle
 10
1252.284538030203
 20
386.4028444979571
 30
0.0
 40
10.0
100
AcDbArc
 50
90.00000000000005
 51
171.3748379496784
  0
LINE
  5
53C
330
3A2
100
AcDbEntity
  8
1外形線
100
AcDbLine
 10
1239.781134624976
 20
370.6529967385581
 30
0.0
 11
1242.397631873529
 21
387.9025400167556
 31
0.0
  0
LINE
  5
53E
330
3A2
100
AcDbEntity
  8
1外形線
100
AcDbLine
 10
1256.58365752204
 20
396.4028444979571
 30
0.0
 11
1252.284538030203
 21
396.4028444979571
 31
0.0
  0
LINE
  5
53F
330
3A2
100
AcDbEntity
  8
1外形線
100
AcDbLine
 10
1192.58365752204
 20
366.4028444979574
 30
0.0
 11
1234.837681546639
 21
366.4028444979574
 31
0.0
  0
ARC
  5
540
330
3A2
100
AcDbEntity
  8
1外形線
100
AcDbCircle
 10
1234.837681546639
 20
371.4028444979573
 30
0.0
 40
5.0
100
AcDbArc
 50
270.0
 51
351.3748379496783
  0
LINE
  5
541
330
3A2
100
AcDbEntity
  8
1外形線
100
AcDbLine
 10
1162.58365752204
 20
336.4028444979574
 30
0.0
 11
1162.58365752204
 21
258.1657597363292
 31
0.0
  0
ARC
  5
54C
330
3A2
100
AcDbEntity
  8
1外形線
100
AcDbCircle
 10
1192.58365752204
 20
336.4028444979574
 30
0.0
 40
30.0
100
AcDbArc
 50
90.0
 51
180.0
  0
LINE
  5
54D
330
3A2
100
AcDbEntity
  8
1外形線
100
AcDbLine
 10
1181.583657522039
 20
181.402844497957
 30
0.0
 11
1256.58365752204
 21
181.402844497957
 31
0.0
  0
LINE
  5
54E
330
3A2
100
AcDbEntity
  8
1外形線
100
AcDbLine
 10
1181.583657522039
 20
187.402844497957
 30
0.0
 11
1256.58365752204
 21
187.402844497957
 31
0.0
  0
LINE
  5
54F
330
3A2
100
AcDbEntity
  8
1外形線
100
AcDbLine
 10
1181.583657522039
 20
206.8942343390418
 30
0.0
 11
1181.583657522039
 21
181.402844497957
 31
0.0
  0
LINE
  5
552
330
3A2
100
AcDbEntity
  8
1外形線
100
AcDbLine
 10
1165.485332391412
 20
245.2940552992805
 30
0.0
 11
1179.649207609126
 21
215.4753706304076
 31
0.0
  0
ARC
  5
553
330
3A2
100
AcDbEntity
  8
1外形線
100
AcDbCircle
 10
1161.58365752204
 20
206.8942343390418
 30
0.0
 40
20.0
100
AcDbArc
 50
0.0
 51
25.4077181089486
  0
ARC
  5
554
330
3A2
100
AcDbEntity
  8
1外形線
100
AcDbCircle
 10
1192.58365752204
 20
258.1657597363292
 30
0.0
 40
30.0
100
AcDbArc
 50
180.0
 51
205.4077181089479
  0
ARC
  5
556
330
3A2
100
AcDbEntity
  8
1外形線
100
AcDbCircle
 10
1252.284538030203
 20
259.5279668072719
 30
0.0
 40
10.0
100
AcDbArc
 50
188.6251620503213
 51
270.0
  0
LINE
  5
557
330
3A2
100
AcDbEntity
  8
1外形線
100
AcDbLine
 10
1239.136450214258
 20
279.5279668072751
 30
0.0
 11
1242.397631873529
 21
258.0282712884736
 31
0.0
  0
LINE
  5
558
330
3A2
100
AcDbEntity
  8
1外形線
100
AcDbLine
 10
1256.58365752204
 20
249.5279668072721
 30
0.0
 11
1252.284538030203
 21
249.5279668072721
 31
0.0
  0
LINE
  5
559
330
3A2
100
AcDbEntity
  8
1外形線
100
AcDbLine
 10
1239.136450214258
 20
366.4028444979574
 30
0.0
 11
1239.136450214258
 21
279.5279668072751
 31
0.0
  0
LINE
  5
55B
330
3A2
100
AcDbEntity
  8
1外形線
100
AcDbLine
 10
1216.58365752204
 20
211.4028444979569
 30
0.0
 11
1216.583657522041
 21
181.402844497957
 31
0.0
  0
LINE
  5
569
330
3A2
100
AcDbEntity
  8
1外形線
100
AcDbLine
 10
1231.537302845281
 20
313.4028444979571
 30
0.0
 11
1256.58365752204
 21
313.4028444979571
 31
0.0
  0
LINE
  5
56D
330
3A2
100
AcDbEntity
  8
1外形線
100
AcDbLine
 10
1216.58365752204
 20
211.4028444979569
 30
0.0
 11
1234.583657522041
 21
313.4028444979571
 31
0.0
  0
LINE
  5
56E
330
3A2
100
AcDbEntity
  8
1外形線
100
AcDbLine
 10
1219.58365752204
 20
211.1401679963246
 30
0.0
 11
1219.58365752204
 21
181.402844497957
 31
0.0
  0
LINE
  5
56F
330
3A2
100
AcDbEntity
  8
1外形線
100
AcDbLine
 10
1213.58365752204
 20
211.6655209995883
 30
0.0
 11
1213.58365752204
 21
181.402844497957
 31
0.0
  0
LINE
  5
570
330
3A2
100
AcDbEntity
  8
1外形線
100
AcDbLine
 10
1219.58365752204
 20
211.1401679963246
 30
0.0
 11
1237.630012198799
 21
313.4028444979571
 31
0.0
  0
LINE
  5
571
330
3A2
100
AcDbEntity
  8
1外形線
100
AcDbLine
 10
1213.58365752204
 20
211.6655209995883
 30
0.0
 11
1231.537302845281
 21
313.4028444979571
 31
0.0
  0
ARC
  5
572
330
3A2
100
AcDbEntity
  8
1外形線
100
AcDbCircle
 10
958.746834077486
 20
515.3396937047765
 30
0.0
 40
10.0
100
AcDbArc
 50
180.0
 51
261.3748379496785
  0
ARC
  5
573
330
3A2
100
AcDbEntity
  8
1外形線
100
AcDbCircle
 10
1058.246834077486
 20
452.6388131966132
 30
0.0
 40
27.0
100
AcDbArc
 50
269.9999999999997
 51
0.0
  0
LINE
  5
576
330
3A2
100
AcDbEntity
  8
1外形線
100
AcDbLine
 10
1114.746834077486
 20
519.6388131966137
 30
0.0
 11
1031.746834077486
 21
519.6388131966137
 31
0.0
  0
LINE
  5
579
330
3A2
100
AcDbEntity
  8
1外形線
100
AcDbLine
 10
978.2468340774858
 20
452.6388131966132
 30
0.0
 11
978.2468340774858
 21
497.9686797292237
 31
0.0
  0
LINE
  5
57C
330
3A2
100
AcDbEntity
  8
1外形線
100
AcDbLine
 10
948.7468340774858
 20
519.6388131966137
 30
0.0
 11
1031.746834077486
 21
519.6388131966137
 31
0.0
  0
LINE
  5
580
330
3A2
100
AcDbEntity
  8
1外形線
100
AcDbLine
 10
948.7468340774858
 20
519.6388131966137
 30
0.0
 11
948.7468340774858
 21
515.3396937047765
 31
0.0
  0
LINE
  5
581
330
3A2
100
AcDbEntity
  8
1外形線
100
AcDbLine
 10
973.9966818368852
 20
502.9121328075611
 30
0.0
 11
957.2471385586876
 21
505.4527875481016
 31
0.0
  0
ARC
  5
582
330
3A2
100
AcDbEntity
  8
1外形線
100
AcDbCircle
 10
973.2468340774858
 20
497.9686797292237
 30
0.0
 40
5.0
100
AcDbArc
 50
0.0
 51
81.37483794967847
  0
LINE
  5
585
330
3A2
100
AcDbEntity
  8
1外形線
100
AcDbLine
 10
1005.246834077486
 20
425.6388131966136
 30
0.0
 11
1031.746834077486
 21
425.6388131966136
 31
0.0
  0
ARC
  5
588
330
3A2
100
AcDbEntity
  8
1外形線
100
AcDbCircle
 10
1005.246834077484
 20
452.6388131966132
 30
0.0
 40
27.0
100
AcDbArc
 50
180.0
 51
270.0
  0
LINE
  5
58B
330
3A2
100
AcDbEntity
  8
1外形線
100
AcDbLine
 10
1058.246834077485
 20
425.6388131966136
 30
0.0
 11
1031.746834077486
 21
425.6388131966136
 31
0.0
  0
LINE
  5
58C
330
3A2
100
AcDbEntity
  8
1外形線
100
AcDbLine
 10
1085.246834077486
 20
452.6388131966132
 30
0.0
 11
1085.246834077486
 21
497.9686797292237
 31
0.0
  0
ARC
  5
58D
330
3A2
100
AcDbEntity
  8
1外形線
100
AcDbCircle
 10
1104.746834077486
 20
515.3396937047765
 30
0.0
 40
10.0
100
AcDbArc
 50
278.6251620503213
 51
0.0
  0
LINE
  5
58E
330
3A2
100
AcDbEntity
  8
1外形線
100
AcDbLine
 10
1089.496986318087
 20
502.9121328075611
 30
0.0
 11
1106.246529596284
 21
505.4527875481016
 31
0.0
  0
ARC
  5
590
330
3A2
100
AcDbEntity
  8
1外形線
100
AcDbCircle
 10
1090.246834077485
 20
497.9686797292237
 30
0.0
 40
5.0
100
AcDbArc
 50
98.62516205032157
 51
180.0
  0
LINE
  5
591
330
3A2
100
AcDbEntity
  8
1外形線
100
AcDbLine
 10
1114.746834077486
 20
519.6388131966137
 30
0.0
 11
1114.746834077486
 21
515.3396937047765
 31
0.0
  0
LINE
  5
592
330
3A2
100
AcDbEntity
  8
1外形線
100
AcDbLine
 10
978.2468340774858
 20
502.267448396843
 30
0.0
 11
1031.746834077486
 21
502.267448396843
 31
0.0
  0
LINE
  5
594
330
3A2
100
AcDbEntity
  8
1外形線
100
AcDbLine
 10
1085.246834077486
 20
502.267448396843
 30
0.0
 11
1031.746834077486
 21
502.267448396843
 31
0.0
  0
TEXT
  5
595
330
3A2
100
AcDbEntity
  8
1外形線
100
AcDbText
 10
935.5173250091796
 20
550.3193483083054
 30
0.0
 40
10.0
  1
SWM-100
  7
KANJI
100
AcDbText
  0
LINE
  5
596
330
3A2
100
AcDbEntity
  8
1外形線
100
AcDbLine
 10
1309.412359783374
 20
582.190428142804
 30
0.0
 11
1309.412359783374
 21
46.80128173720675
 31
0.0
  0
LINE
  5
597
330
3A2
100
AcDbEntity
  8
1外形線
100
AcDbLine
 10
477.5464682554876
 20
582.190428142804
 30
0.0
 11
1309.412359783374
 21
582.190428142804
 31
0.0
  0
LINE
  5
598
330
3A2
100
AcDbEntity
  8
1外形線
100
AcDbLine
 10
477.5464682554876
 20
46.80128173720675
 30
0.0
 11
1309.412359783374
 21
46.80128173720675
 31
0.0
  0
LINE
  5
5A8
330
3A2
100
AcDbEntity
  8
1外形線
100
AcDbLine
 10
893.4794140194307
 20
582.190428142804
 30
0.0
 11
893.4794140194307
 21
46.80128173720675
 31
0.0
  0
LINE
  5
5AB
330
3A2
100
AcDbEntity
  8
1外形線
100
AcDbLine
 10
800.9703595491844
 20
217.9963895460333
 30
0.0
 11
818.9703595491844
 21
315.4963895460331
 31
0.0
  0
LINE
  5
5AC
330
3A2
100
AcDbEntity
  8
1外形線
100
AcDbLine
 10
823.1060184473372
 20
364.496389546033
 30
0.0
 11
823.1060184473378
 21
283.1745470503991
 31
0.0
  0
LINE
  5
5AD
330
3A2
100
AcDbEntity
  8
1外形線
100
AcDbLine
 10
753.970359549184
 20
334.4963895460332
 30
0.0
 11
753.970359549184
 21
265.0784288710267
 31
0.0
  0
LINE
  5
5AE
330
3A2
100
AcDbEntity
  8
1外形線
100
AcDbLine
 10
840.9703595491842
 20
395.996389546033
 30
0.0
 11
840.9703595491842
 21
187.9963895460333
 31
0.0
  0
LINE
  5
5AF
330
3A2
100
AcDbEntity
  8
1外形線
100
AcDbLine
 10
633.8022799937918
 20
193.9963895460331
 30
0.0
 11
633.8022799937918
 21
215.8948519903046
 31
0.0
  0
LINE
  5
5B0
330
3A2
100
AcDbEntity
  8
1外形線
100
AcDbLine
 10
552.8022799937916
 20
193.9963895460333
 30
0.0
 11
552.8022799937916
 21
215.8948519903049
 31
0.0
  0
LINE
  5
5B3
330
3A2
100
AcDbEntity
  8
1外形線
100
AcDbLine
 10
552.3022799937916
 20
193.9963895460333
 30
0.0
 11
593.3022799937917
 21
193.9963895460332
 31
0.0
  0
LINE
  5
5B4
330
3A2
100
AcDbEntity
  8
1外形線
100
AcDbLine
 10
552.3022799937916
 20
187.9963895460333
 30
0.0
 11
593.3022799937917
 21
187.9963895460331
 31
0.0
  0
ARC
  5
5B5
330
3A2
100
AcDbEntity
  8
1外形線
100
AcDbCircle
 10
579.3022799937918
 20
120.4978187569507
 30
0.0
 40
27.0
100
AcDbArc
 50
90.0
 51
180.0
  0
ARC
  5
5B6
330
3A2
100
AcDbEntity
  8
1外形線
100
AcDbCircle
 10
579.3022799937918
 20
107.4978187569507
 30
0.0
 40
27.0
100
AcDbArc
 50
180.0
 51
270.0000000000008
  0
ARC
  5
5B7
330
3A2
100
AcDbEntity
  8
1外形線
100
AcDbCircle
 10
580.8022799937917
 20
120.4978187569507
 30
0.0
 40
25.0
100
AcDbArc
 50
90.0
 51
180.0
  0
ARC
  5
5B8
330
3A2
100
AcDbEntity
  8
1外形線
100
AcDbCircle
 10
580.8022799937917
 20
107.497818756951
 30
0.0
 40
25.0
100
AcDbArc
 50
180.0
 51
270.0
  0
LINE
  5
5B9
330
3A2
100
AcDbEntity
  8
1外形線
100
AcDbLine
 10
512.8022799937919
 20
80.49781875694973
 30
0.0
 11
593.3022799937917
 21
80.49781875695101
 31
0.0
  0
LINE
  5
5BA
330
3A2
100
AcDbEntity
  8
1外形線
100
AcDbLine
 10
552.3022799937916
 20
103.8121403991322
 30
0.0
 11
552.3022799937916
 21
120.4978187569507
 31
0.0
  0
LINE
  5
5BB
330
3A2
100
AcDbEntity
  8
1外形線
100
AcDbLine
 10
555.8022799937917
 20
107.497818756951
 30
0.0
 11
555.8022799937917
 21
120.4978187569507
 31
0.0
  0
LINE
  5
5C1
330
3A2
100
AcDbEntity
  8
1外形線
100
AcDbLine
 10
552.3022799937916
 20
187.9963895460333
 30
0.0
 11
552.3022799937916
 21
193.9963895460333
 31
0.0
  0
LINE
  5
5C2
330
3A2
100
AcDbEntity
  8
1外形線
100
AcDbLine
 10
630.8022799937917
 20
107.497818756951
 30
0.0
 11
630.8022799937917
 21
120.4978187569507
 31
0.0
  0
LINE
  5
5C3
330
3A2
100
AcDbEntity
  8
1外形線
100
AcDbLine
 10
634.3022799937918
 20
103.812140399134
 30
0.0
 11
634.3022799937918
 21
120.4978187569507
 31
0.0
  0
LINE
  5
5C5
330
3A2
100
AcDbEntity
  8
1外形線
100
AcDbLine
 10
673.8022799937917
 20
80.49781875694975
 30
0.0
 11
593.3022799937917
 21
80.49781875695101
 31
0.0
  0
ARC
  5
5C6
330
3A2
100
AcDbEntity
  8
1外形線
100
AcDbCircle
 10
605.8022799937917
 20
107.497818756951
 30
0.0
 40
25.0
100
AcDbArc
 50
270.0
 51
0.000000000000007
  0
ARC
  5
5C7
330
3A2
100
AcDbEntity
  8
1外形線
100
AcDbCircle
 10
607.3022799937917
 20
107.4978187569507
 30
0.0
 40
27.0
100
AcDbArc
 50
269.9999999999992
 51
0.000000000000007
  0
LINE
  5
5C8
330
3A2
100
AcDbEntity
  8
1外形線
100
AcDbLine
 10
605.8022799937917
 20
82.49781875695099
 30
0.0
 11
593.3022799937917
 21
82.49781875695099
 31
0.0
  0
LINE
  5
5C9
330
3A2
100
AcDbEntity
  8
1外形線
100
AcDbLine
 10
580.8022799937917
 20
82.49781875695099
 30
0.0
 11
593.3022799937917
 21
82.49781875695099
 31
0.0
  0
ARC
  5
5CE
330
3A2
100
AcDbEntity
  8
1外形線
100
AcDbCircle
 10
607.3022799937917
 20
120.4978187569507
 30
0.0
 40
27.0
100
AcDbArc
 50
0.000000000000007
 51
90.0
  0
ARC
  5
5CF
330
3A2
100
AcDbEntity
  8
1外形線
100
AcDbCircle
 10
605.8022799937917
 20
120.4978187569507
 30
0.0
 40
25.0
100
AcDbArc
 50
0.000000000000007
 51
90.0
  0
LINE
  5
5D0
330
3A2
100
AcDbEntity
  8
1外形線
100
AcDbLine
 10
605.8022799937917
 20
145.4978187569506
 30
0.0
 11
593.3022799937917
 21
145.4978187569506
 31
0.0
  0
LINE
  5
5D1
330
3A2
100
AcDbEntity
  8
1外形線
100
AcDbLine
 10
607.3022799937917
 20
147.4978187569506
 30
0.0
 11
593.3022799937917
 21
147.4978187569506
 31
0.0
  0
LINE
  5
5D2
330
3A2
100
AcDbEntity
  8
1外形線
100
AcDbLine
 10
580.8022799937917
 20
145.4978187569506
 30
0.0
 11
593.3022799937917
 21
145.4978187569506
 31
0.0
  0
LINE
  5
5D3
330
3A2
100
AcDbEntity
  8
1外形線
100
AcDbLine
 10
579.3022799937918
 20
147.4978187569506
 30
0.0
 11
593.3022799937917
 21
147.4978187569506
 31
0.0
  0
LINE
  5
5D7
330
3A2
100
AcDbEntity
  8
1外形線
100
AcDbLine
 10
634.3022799937918
 20
187.9963895460333
 30
0.0
 11
593.3022799937917
 21
187.9963895460331
 31
0.0
  0
LINE
  5
5D8
330
3A2
100
AcDbEntity
  8
1外形線
100
AcDbLine
 10
634.3022799937918
 20
193.9963895460333
 30
0.0
 11
593.3022799937917
 21
193.9963895460332
 31
0.0
  0
LINE
  5
5D9
330
3A2
100
AcDbEntity
  8
1外形線
100
AcDbLine
 10
634.3022799937918
 20
187.9963895460333
 30
0.0
 11
634.3022799937918
 21
193.9963895460333
 31
0.0
  0
LINE
  5
5DA
330
3A2
100
AcDbEntity
  8
1外形線
100
AcDbLine
 10
773.9703595491842
 20
193.9963895460331
 30
0.0
 11
840.9703595491842
 21
193.9963895460332
 31
0.0
  0
LINE
  5
5DB
330
3A2
100
AcDbEntity
  8
1外形線
100
AcDbLine
 10
773.9703595491842
 20
187.9963895460331
 30
0.0
 11
840.9703595491842
 21
187.9963895460333
 31
0.0
  0
LINE
  5
5DC
330
3A2
100
AcDbEntity
  8
1外形線
100
AcDbLine
 10
757.1375438191867
 20
251.6620210060279
 30
0.0
 11
771.8589033691825
 21
222.2193019060369
 31
0.0
  0
LINE
  5
5DD
330
3A2
100
AcDbEntity
  8
1外形線
100
AcDbLine
 10
773.9703595491842
 20
213.2750299960376
 30
0.0
 11
773.9703595491842
 21
187.9963895460331
 31
0.0
  0
LINE
  5
5E0
330
3A2
100
AcDbEntity
  8
1外形線
100
AcDbLine
 10
797.9703595491844
 20
218.2709924156933
 30
0.0
 11
797.9703595491844
 21
187.9963895460333
 31
0.0
  0
LINE
  5
5E1
330
3A2
100
AcDbEntity
  8
1外形線
100
AcDbLine
 10
803.9703595491843
 20
217.7217866763721
 30
0.0
 11
803.9703595491843
 21
187.9963895460333
 31
0.0
  0
LINE
  5
5E2
330
3A2
100
AcDbEntity
  8
1外形線
100
AcDbLine
 10
800.9703595491844
 20
217.9963895460333
 30
0.0
 11
800.9703595491844
 21
187.9963895460333
 31
0.0
  0
LINE
  5
5E3
330
3A2
100
AcDbEntity
  8
1外形線
100
AcDbLine
 10
823.1060184473378
 20
283.1745470503991
 30
0.0
 11
826.7843339006724
 21
258.9248515315996
 31
0.0
  0
LINE
  5
5E4
330
3A2
100
AcDbEntity
  8
1外形線
100
AcDbLine
 10
840.9703595491842
 20
250.4245470503979
 30
0.0
 11
836.6712400573472
 21
250.4245470503979
 31
0.0
  0
ARC
  5
5E5
330
3A2
100
AcDbEntity
  8
1外形線
100
AcDbCircle
 10
836.6712400573472
 20
260.4245470503979
 30
0.0
 40
10.0
100
AcDbArc
 50
188.6251620503213
 51
270.0
  0
LINE
  5
5E6
330
3A2
100
AcDbEntity
  8
1外形線
100
AcDbLine
 10
544.3022799937916
 20
494.0072102389323
 30
0.0
 11
593.3022799937917
 21
494.0072102389323
 31
0.0
  0
LINE
  5
5E7
330
3A2
100
AcDbEntity
  8
1外形線
100
AcDbLine
 10
512.8022799937919
 20
511.7957088327673
 30
0.0
 11
593.3022799937917
 21
511.7957088327663
 31
0.0
  0
ARC
  5
5E8
330
3A2
100
AcDbEntity
  8
1外形線
100
AcDbCircle
 10
571.3022799937903
 20
454.7957088327661
 30
0.0
 40
27.0
100
AcDbArc
 50
180.0
 51
270.0
  0
LINE
  5
5EB
330
3A2
100
AcDbEntity
  8
1外形線
100
AcDbLine
 10
544.3022799937916
 20
489.723759702778
 30
0.0
 11
544.3022799937916
 21
454.7957088327661
 31
0.0
  0
LINE
  5
5F3
330
3A2
100
AcDbEntity
  8
1外形線
100
AcDbLine
 10
571.3022799937903
 20
427.7957088327664
 30
0.0
 11
593.3022799937902
 21
427.7957088327664
 31
0.0
  0
LINE
  5
5F6
330
3A2
100
AcDbEntity
  8
1外形線
100
AcDbLine
 10
783.9703595491844
 20
364.496389546033
 30
0.0
 11
818.8327450334485
 21
364.496389546033
 31
0.0
  0
ARC
  5
5F7
330
3A2
100
AcDbEntity
  8
1外形線
100
AcDbCircle
 10
783.9703595491844
 20
334.4963895460332
 30
0.0
 40
30.0
100
AcDbArc
 50
90.0
 51
180.0
  0
LINE
  5
5F8
330
3A2
100
AcDbEntity
  8
1外形線
100
AcDbLine
 10
815.9196636347854
 20
315.4963895460328
 30
0.0
 11
840.9703595491842
 21
315.4963895460331
 31
0.0
  0
LINE
  5
5FA
330
3A2
100
AcDbEntity
  8
1外形線
100
AcDbLine
 10
823.7717047002533
 20
368.7174945533184
 30
0.0
 11
826.7423302162764
 21
387.5541795314624
 31
0.0
  0
TEXT
  5
602
330
3A2
100
AcDbEntity
  8
1外形線
100
AcDbText
 10
503.7756443918431
 20
550.3193483083054
 30
0.0
 40
10.0
  1
SWM-77L
  7
KANJI
100
AcDbText
  0
ARC
  5
604
330
3A2
100
AcDbEntity
  8
1外形線
100
AcDbCircle
 10
593.3022799937917
 20
315.4963895460331
 30
0.0
 40
80.5
100
AcDbArc
 50
306.0653681986877
 51
233.9346318013122
  0
ARC
  5
6B5
330
3A2
100
AcDbEntity
  8
1外形線
100
AcDbCircle
 10
345.4887042646498
 20
226.6727099881487
 30
0.0
 40
20.0
100
AcDbArc
 50
0.0
 51
23.02549200852813
  0
ARC
  5
6B6
330
3A2
100
AcDbEntity
  8
1外形線
100
AcDbCircle
 10
378.4887042646498
 20
276.856908882859
 30
0.0
 40
30.0
100
AcDbArc
 50
179.9999999999999
 51
203.0254920085279
  0
LINE
  5
6E5
330
3A2
100
AcDbEntity
  8
1外形線
100
AcDbLine
 10
540.069565613431
 20
494.6645362386976
 30
0.0
 11
521.2677087545134
 21
497.5844000061606
 31
0.0
  0
LINE
  5
6E8
330
3A2
100
AcDbEntity
  8
1外形線
100
AcDbLine
 10
512.8022799937919
 20
507.4659530780003
 30
0.0
 11
512.8022799937919
 21
511.7957088327673
 31
0.0
  0
LINE
  5
744
330
3A2
100
AcDbEntity
  8
1外形線
100
AcDbLine
 10
836.6202495498864
 20
395.996389546033
 30
0.0
 11
840.9703595491842
 21
395.996389546033
 31
0.0
  0
ARC
  5
754
330
3A2
100
AcDbEntity
  8
1外形線
100
AcDbCircle
 10
593.3022799937917
 20
315.4963895460331
 30
0.0
 40
49.0
100
AcDbArc
 50
0.0
 51
180.0
  0
LINE
  5
765
330
3A2
100
AcDbEntity
  8
1外形線
100
AcDbLine
 10
803.9703595491843
 20
217.7217866763721
 30
0.0
 11
822.0210554635832
 21
315.4963895460328
 31
0.0
  0
LINE
  5
766
330
3A2
100
AcDbEntity
  8
1外形線
100
AcDbLine
 10
797.9703595491844
 20
218.2709924156933
 30
0.0
 11
815.9196636347854
 21
315.4963895460328
 31
0.0
  0
ARC
  5
767
330
3A2
100
AcDbEntity
  8
1外形線
100
AcDbCircle
 10
783.970359549184
 20
265.0784288710267
 30
0.0
 40
30.0
100
AcDbArc
 50
180.0
 51
206.5650511770781
  0
ARC
  5
768
330
3A2
100
AcDbEntity
  8
1外形線
100
AcDbCircle
 10
753.970359549184
 20
213.2750299960376
 30
0.0
 40
20.0
100
AcDbArc
 50
0.0
 51
26.5650511770783
  0
LINE
  5
76C
330
3A2
100
AcDbEntity
  8
1外形線
100
AcDbLine
 10
544.3022799937916
 20
315.4963895460331
 30
0.0
 11
544.3022799937916
 21
261.1486958796259
 31
0.0
  0
LINE
  5
76D
330
3A2
100
AcDbEntity
  8
1外形線
100
AcDbLine
 10
642.3022799937918
 20
315.4963895460331
 30
0.0
 11
642.3022799937918
 21
261.148695879626
 31
0.0
  0
LINE
  5
76E
330
3A2
100
AcDbEntity
  8
1外形線
100
AcDbLine
 10
544.957514466256
 20
254.9129332050246
 30
0.0
 11
552.3654570121488
 21
220.0520271067059
 31
0.0
  0
LINE
  5
76F
330
3A2
100
AcDbEntity
  8
1外形線
100
AcDbLine
 10
641.6470455213275
 20
254.9129332050246
 30
0.0
 11
634.2391029754346
 21
220.0520271067055
 31
0.0
  0
ARC
  5
770
330
3A2
100
AcDbEntity
  8
1外形線
100
AcDbCircle
 10
532.8022799937916
 20
215.8948519903049
 30
0.0
 40
20.0
100
AcDbArc
 50
0.0
 51
11.99689930792371
  0
ARC
  5
771
330
3A2
100
AcDbEntity
  8
1外形線
100
AcDbCircle
 10
653.8022799937918
 20
215.8948519903046
 30
0.0
 40
20.0
100
AcDbArc
 50
168.0031006920761
 51
180.0
  0
ARC
  5
772
330
3A2
100
AcDbEntity
  8
1外形線
100
AcDbCircle
 10
574.3022799937917
 20
261.1486958796259
 30
0.0
 40
30.0
100
AcDbArc
 50
180.0
 51
191.9968993079235
  0
ARC
  5
773
330
3A2
100
AcDbEntity
  8
1外形線
100
AcDbCircle
 10
612.3022799937918
 20
261.148695879626
 30
0.0
 40
30.0
100
AcDbArc
 50
348.0031006920763
 51
0.0
  0
ARC
  5
77F
330
3A2
100
AcDbEntity
  8
1外形線
100
AcDbCircle
 10
539.3022799937917
 20
489.723759702778
 30
0.0
 40
5.0
100
AcDbArc
 50
0.0
 51
81.17267454435085
  0
ARC
  5
780
330
3A2
100
AcDbEntity
  8
1外形線
100
AcDbCircle
 10
522.8022799937917
 20
507.465953078
 30
0.0
 40
10.0
100
AcDbArc
 50
179.9999999999984
 51
261.1726745443509
  0
ARC
  5
782
330
3A2
100
AcDbEntity
  8
1外形線
100
AcDbCircle
 10
615.3022799937915
 20
454.7957088327652
 30
0.0
 40
27.0
100
AcDbArc
 50
269.9999999999973
 51
359.9999999999973
  0
LINE
  5
783
330
3A2
100
AcDbEntity
  8
1外形線
100
AcDbLine
 10
615.3022799937903
 20
427.7957088327653
 30
0.0
 11
593.3022799937902
 21
427.7957088327664
 31
0.0
  0
LINE
  5
784
330
3A2
100
AcDbEntity
  8
1外形線
100
AcDbLine
 10
642.3022799937918
 20
494.0072102389301
 30
0.0
 11
593.3022799937917
 21
494.0072102389323
 31
0.0
  0
LINE
  5
785
330
3A2
100
AcDbEntity
  8
1外形線
100
AcDbLine
 10
673.8022799937923
 20
511.7957088327639
 30
0.0
 11
593.3022799937925
 21
511.7957088327663
 31
0.0
  0
ARC
  5
786
330
3A2
100
AcDbEntity
  8
1外形線
100
AcDbCircle
 10
647.3022799937915
 20
489.7237597027756
 30
0.0
 40
5.0
100
AcDbArc
 50
98.82732545564659
 51
179.9999999999974
  0
LINE
  5
787
330
3A2
100
AcDbEntity
  8
1外形線
100
AcDbLine
 10
642.3022799937915
 20
489.7237597027758
 30
0.0
 11
642.3022799937901
 21
454.7957088327639
 31
0.0
  0
LINE
  5
789
330
3A2
100
AcDbEntity
  8
1外形線
100
AcDbLine
 10
646.5349943741525
 20
494.6645362386952
 30
0.0
 11
665.33685123307
 21
497.5844000061573
 31
0.0
  0
LINE
  5
78A
330
3A2
100
AcDbEntity
  8
1外形線
100
AcDbLine
 10
673.8022799937922
 20
507.4659530779967
 30
0.0
 11
673.8022799937923
 21
511.7957088327639
 31
0.0
  0
ARC
  5
78B
330
3A2
100
AcDbEntity
  8
1外形線
100
AcDbCircle
 10
663.8022799937922
 20
507.4659530779968
 30
0.0
 40
10.0
100
AcDbArc
 50
278.8273254556465
 51
359.9999999999988
  0
LINE
  5
7B2
330
3A2
100
AcDbEntity
  8
1外形線
100
AcDbLine
 10
544.3022799937908
 20
102.5697678869393
 30
0.0
 11
544.3022799937908
 21
137.4978187569512
 31
0.0
  0
LINE
  5
7B3
330
3A2
100
AcDbEntity
  8
1外形線
100
AcDbLine
 10
548.069565613431
 20
98.87136386321257
 30
0.0
 11
521.2677087545126
 21
94.70912758355678
 31
0.0
  0
ARC
  5
7B4
330
3A2
100
AcDbEntity
  8
1外形線
100
AcDbCircle
 10
522.8022799937909
 20
84.82757451171734
 30
0.0
 40
10.0
100
AcDbArc
 50
98.82732545564913
 51
180.0000000000014
  0
LINE
  5
7B5
330
3A2
100
AcDbEntity
  8
1外形線
100
AcDbLine
 10
512.8022799937911
 20
84.82757451171705
 30
0.0
 11
512.8022799937911
 21
80.49781875694995
 31
0.0
  0
ARC
  5
7B6
330
3A2
100
AcDbEntity
  8
1外形線
100
AcDbCircle
 10
539.3022799937909
 20
102.5697678869393
 30
0.0
 40
5.0
100
AcDbArc
 50
278.827325455649
 51
0.0
  0
ARC
  5
7B7
330
3A2
100
AcDbEntity
  8
1外形線
100
AcDbCircle
 10
571.3022799937895
 20
137.4978187569512
 30
0.0
 40
27.0
100
AcDbArc
 50
90.00000000000005
 51
180.0
  0
LINE
  5
7B8
330
3A2
100
AcDbEntity
  8
1外形線
100
AcDbLine
 10
571.3022799937895
 20
164.497818756951
 30
0.0
 11
593.3022799937893
 21
164.497818756951
 31
0.0
  0
LINE
  5
7B9
330
3A2
100
AcDbEntity
  8
1外形線
100
AcDbLine
 10
615.3022799937895
 20
164.4978187569519
 30
0.0
 11
593.3022799937893
 21
164.497818756951
 31
0.0
  0
ARC
  5
7BA
330
3A2
100
AcDbEntity
  8
1外形線
100
AcDbCircle
 10
615.3022799937907
 20
137.497818756952
 30
0.0
 40
27.0
100
AcDbArc
 50
0.0000000000025585
 51
90.00000000000255
  0
LINE
  5
7BB
330
3A2
100
AcDbEntity
  8
1外形線
100
AcDbLine
 10
642.3022799937907
 20
102.5697678869414
 30
0.0
 11
642.3022799937891
 21
137.4978187569534
 31
0.0
  0
LINE
  5
7BC
330
3A2
100
AcDbEntity
  8
1外形線
100
AcDbLine
 10
638.5349943741528
 20
98.87136386321433
 30
0.0
 11
665.3368512330692
 21
94.70912758356
 31
0.0
  0
ARC
  5
7BD
330
3A2
100
AcDbEntity
  8
1外形線
100
AcDbCircle
 10
647.3022799937908
 20
102.5697678869416
 30
0.0
 40
5.0
100
AcDbArc
 50
180.0000000000025
 51
261.1726745443534
  0
ARC
  5
7BE
330
3A2
100
AcDbEntity
  8
1外形線
100
AcDbCircle
 10
663.8022799937913
 20
84.82757451172046
 30
0.0
 40
10.0
100
AcDbArc
 50
0.0000000000010318
 51
81.17267454435348
  0
LINE
  5
7BF
330
3A2
100
AcDbEntity
  8
1外形線
100
AcDbLine
 10
673.8022799937913
 20
84.82757451172062
 30
0.0
 11
673.8022799937916
 21
80.4978187569535
 31
0.0
  0
ARC
  5
7C0
330
3A2
100
AcDbEntity
  8
1外形線
100
AcDbCircle
 10
547.3022799937917
 20
103.8121403991322
 30
0.0
 40
5.0
100
AcDbArc
 50
278.8273254556494
 51
0.0
  0
ARC
  5
7C1
330
3A2
100
AcDbEntity
  8
1外形線
100
AcDbCircle
 10
639.3022799937917
 20
103.812140399134
 30
0.0
 40
5.0
100
AcDbArc
 50
180.0
 51
261.172674544353
  0
ARC
  5
7C4
330
3A2
100
AcDbEntity
  8
1外形線
100
AcDbCircle
 10
818.8327450334485
 20
369.496389546033
 30
0.0
 40
5.0
100
AcDbArc
 50
270.0
 51
351.0380216021633
  0
ARC
  5
7C5
330
3A2
100
AcDbEntity
  8
1外形線
100
AcDbCircle
 10
836.620249549886
 20
385.9963895460332
 30
0.0
 40
10.0
100
AcDbArc
 50
89.99999999999898
 51
171.0380216021633
  0
ENDSEC
  0
SECTION
  2
OBJECTS
  0
DICTIONARY
  5
390
330
0
100
AcDbDictionary
281
     1
  3
ACAD_GROUP
350
391
  3
ACAD_LAYOUT
350
39D
  3
ACAD_MLINESTYLE
350
39A
  3
ACAD_PLOTSETTINGS
350
39C
  3
ACAD_PLOTSTYLENAME
350
392
  3
AcDbVariableDictionary
350
599
  0
DICTIONARY
  5
391
102
{ACAD_REACTORS
330
390
102
}
330
390
100
AcDbDictionary
281
     1
  0
DICTIONARY
  5
39D
102
{ACAD_REACTORS
330
390
102
}
330
390
100
AcDbDictionary
281
     1
  3
Model
350
3A5
  3
ﾚｲｱｳﾄ1
350
3A1
  0
DICTIONARY
  5
39A
102
{ACAD_REACTORS
330
390
102
}
330
390
100
AcDbDictionary
281
     1
  3
Standard
350
39B
  0
DICTIONARY
  5
39C
102
{ACAD_REACTORS
330
390
102
}
330
390
100
AcDbDictionary
281
     1
  0
ACDBDICTIONARYWDFLT
  5
392
102
{ACAD_REACTORS
330
390
102
}
330
390
100
AcDbDictionary
281
     1
  3
Normal
350
393
100
AcDbDictionaryWithDefault
340
393
  0
DICTIONARY
  5
599
102
{ACAD_REACTORS
330
390
102
}
330
390
100
AcDbDictionary
281
     1
  3
DIMASSOC
350
59A
  0
LAYOUT
  5
3A5
102
{ACAD_REACTORS
330
39D
102
}
330
39D
100
AcDbPlotSettings
  1

  2
Canon LASER SHOT LBP-1710
  4

  6

 40
0.0
 41
0.0
 42
0.0
 43
0.0
 44
0.0
 45
0.0
 46
0.0
 47
0.0
 48
0.0
 49
0.0
140
0.0
141
0.0
142
1.0
143
1.0
 70
  1712
 72
     0
 73
     0
 74
     0
  7
1mizukoshi.ctb
 75
     0
147
1.0
148
0.0
149
0.0
100
AcDbLayout
  1
Model
 70
     1
 71
     0
 10
0.0
 20
0.0
 11
12.0
 21
9.0
 12
0.0
 22
0.0
 32
0.0
 14
0.0
 24
0.0
 34
0.0
 15
0.0
 25
0.0
 35
0.0
146
0.0
 13
0.0
 23
0.0
 33
0.0
 16
1.0
 26
0.0
 36
0.0
 17
0.0
 27
1.0
 37
0.0
 76
     0
330
3A2
  0
LAYOUT
  5
3A1
102
{ACAD_REACTORS
330
39D
102
}
330
39D
100
AcDbPlotSettings
  1

  2
Canon LASER SHOT LBP-1710
  4

  6

 40
0.0
 41
0.0
 42
0.0
 43
0.0
 44
0.0
 45
0.0
 46
0.0
 47
0.0
 48
0.0
 49
0.0
140
0.0
141
0.0
142
1.0
143
1.0
 70
   688
 72
     0
 73
     0
 74
     5
  7
1mizukoshi.ctb
 75
    16
147
1.0
148
0.0
149
0.0
100
AcDbLayout
  1
ﾚｲｱｳﾄ1
 70
     1
 71
     1
 10
0.0
 20
0.0
 11
420.0
 21
297.0
 12
0.0
 22
0.0
 32
0.0
 14
1.000000000000000E+20
 24
1.000000000000000E+20
 34
1.000000000000000E+20
 15
-1.000000000000000E+20
 25
-1.000000000000000E+20
 35
-1.000000000000000E+20
146
0.0
 13
0.0
 23
0.0
 33
0.0
 16
1.0
 26
0.0
 36
0.0
 17
0.0
 27
1.0
 37
0.0
 76
     0
330
39E
  0
MLINESTYLE
  5
39B
102
{ACAD_REACTORS
330
39A
102
}
330
39A
100
AcDbMlineStyle
  2
STANDARD
 70
     0
  3

 62
   256
 51
90.0
 52
90.0
 71
     2
 49
0.5
 62
   256
  6
BYLAYER
 49
-0.5
 62
   256
  6
BYLAYER
  0
ACDBPLACEHOLDER
  5
393
102
{ACAD_REACTORS
330
392
102
}
330
392
  0
DICTIONARYVAR
  5
59A
102
{ACAD_REACTORS
330
599
102
}
330
599
100
DictionaryVariables
280
     0
  1
1
  0
ENDSEC
  0
EOF
