  0
SECTION
  2
HEADER
  9
$ACADVER
  1
AC1015
  9
$ACADMAINTVER
 70
    20
  9
$DWGCODEPAGE
  3
ANSI_932
  9
$INSBASE
 10
268.4340021441085
 20
176.78614296069
 30
0.0
  9
$EXTMIN
 10
465.0387661994889
 20
114.8969279333215
 30
-0.0015258207003583
  9
$EXTMAX
 10
632.956526717583
 20
189.6344763886119
 30
0.0000000349246037
  9
$LIMMIN
 10
0.0
 20
0.0
  9
$LIMMAX
 10
554.0
 20
395.0
  9
$ORTHOMODE
 70
     0
  9
$REGENMODE
 70
     1
  9
$FILLMODE
 70
     1
  9
$QTEXTMODE
 70
     0
  9
$MIRRTEXT
 70
     1
  9
$LTSCALE
 40
2.0
  9
$ATTMODE
 70
     1
  9
$TEXTSIZE
 40
5.0
  9
$TRACEWID
 40
0.2
  9
$TEXTSTYLE
  7
KANJI
  9
$CLAYER
  8
0
  9
$CELTYPE
  6
BYLAYER
  9
$CECOLOR
 62
   256
  9
$CELTSCALE
 40
2.0
  9
$DISPSILH
 70
     0
  9
$DIMSCALE
 40
1.0
  9
$DIMASZ
 40
1.0
  9
$DIMEXO
 40
1.0
  9
$DIMDLI
 40
6.0
  9
$DIMRND
 40
0.0
  9
$DIMDLE
 40
0.0
  9
$DIMEXE
 40
1.0
  9
$DIMTP
 40
0.0
  9
$DIMTM
 40
0.0
  9
$DIMTXT
 40
2.5
  9
$DIMCEN
 40
0.0
  9
$DIMTSZ
 40
0.0
  9
$DIMTOL
 70
     0
  9
$DIMLIM
 70
     0
  9
$DIMTIH
 70
     0
  9
$DIMTOH
 70
     0
  9
$DIMSE1
 70
     0
  9
$DIMSE2
 70
     0
  9
$DIMTAD
 70
     1
  9
$DIMZIN
 70
     8
  9
$DIMBLK
  1
Y1
  9
$DIMASO
 70
     1
  9
$DIMSHO
 70
     1
  9
$DIMPOST
  1

  9
$DIMAPOST
  1

  9
$DIMALT
 70
     0
  9
$DIMALTD
 70
     2
  9
$DIMALTF
 40
25.4
  9
$DIMLFAC
 40
1.0
  9
$DIMTOFL
 70
     1
  9
$DIMTVP
 40
0.0
  9
$DIMTIX
 70
     0
  9
$DIMSOXD
 70
     0
  9
$DIMSAH
 70
     0
  9
$DIMBLK1
  1
Y1
  9
$DIMBLK2
  1
Y2
  9
$DIMSTYLE
  2
STANDARD
  9
$DIMCLRD
 70
     0
  9
$DIMCLRE
 70
     0
  9
$DIMCLRT
 70
     0
  9
$DIMTFAC
 40
1.0
  9
$DIMGAP
 40
0.5
  9
$DIMJUST
 70
     0
  9
$DIMSD1
 70
     0
  9
$DIMSD2
 70
     0
  9
$DIMTOLJ
 70
     1
  9
$DIMTZIN
 70
     8
  9
$DIMALTZ
 70
     8
  9
$DIMALTTZ
 70
     8
  9
$DIMUPT
 70
     0
  9
$DIMDEC
 70
     4
  9
$DIMTDEC
 70
     4
  9
$DIMALTU
 70
     2
  9
$DIMALTTD
 70
     2
  9
$DIMTXSTY
  7
KANJI
  9
$DIMAUNIT
 70
     0
  9
$DIMADEC
 70
     0
  9
$DIMALTRND
 40
0.0
  9
$DIMAZIN
 70
     0
  9
$DIMDSEP
 70
    46
  9
$DIMATFIT
 70
     3
  9
$DIMFRAC
 70
     0
  9
$DIMLDRBLK
  1
Y2
  9
$DIMLUNIT
 70
     2
  9
$DIMLWD
 70
    -2
  9
$DIMLWE
 70
    -2
  9
$DIMTMOVE
 70
     0
  9
$LUNITS
 70
     2
  9
$LUPREC
 70
     4
  9
$SKETCHINC
 40
0.1
  9
$FILLETRAD
 40
2.0
  9
$AUNITS
 70
     0
  9
$AUPREC
 70
     0
  9
$MENU
  1
tcad-s
  9
$ELEVATION
 40
0.0
  9
$PELEVATION
 40
0.0
  9
$THICKNESS
 40
0.0
  9
$LIMCHECK
 70
     0
  9
$CHAMFERA
 40
0.0
  9
$CHAMFERB
 40
0.0
  9
$CHAMFERC
 40
0.0
  9
$CHAMFERD
 40
0.0
  9
$SKPOLY
 70
     0
  9
$TDCREATE
 40
2451278.473218079
  9
$TDUCREATE
 40
2451278.098218079
  9
$TDUPDATE
 40
2458464.438120417
  9
$TDUUPDATE
 40
2458464.063120417
  9
$TDINDWG
 40
8.5295554745
  9
$TDUSRTIMER
 40
8.5295554745
  9
$USRTIMER
 70
     1
  9
$ANGBASE
 50
0.0
  9
$ANGDIR
 70
     0
  9
$PDMODE
 70
     0
  9
$PDSIZE
 40
2.399999999999999
  9
$PLINEWID
 40
0.0
  9
$SPLFRAME
 70
     0
  9
$SPLINETYPE
 70
     6
  9
$SPLINESEGS
 70
     8
  9
$HANDSEED
  5
61136
  9
$SURFTAB1
 70
     6
  9
$SURFTAB2
 70
     6
  9
$SURFTYPE
 70
     6
  9
$SURFU
 70
     6
  9
$SURFV
 70
     6
  9
$UCSBASE
  2

  9
$UCSNAME
  2

  9
$UCSORG
 10
0.0
 20
0.0
 30
0.0
  9
$UCSXDIR
 10
1.0
 20
0.0
 30
0.0
  9
$UCSYDIR
 10
0.0
 20
1.0
 30
0.0
  9
$UCSORTHOREF
  2

  9
$UCSORTHOVIEW
 70
     0
  9
$UCSORGTOP
 10
0.0
 20
0.0
 30
0.0
  9
$UCSORGBOTTOM
 10
0.0
 20
0.0
 30
0.0
  9
$UCSORGLEFT
 10
0.0
 20
0.0
 30
0.0
  9
$UCSORGRIGHT
 10
0.0
 20
0.0
 30
0.0
  9
$UCSORGFRONT
 10
0.0
 20
0.0
 30
0.0
  9
$UCSORGBACK
 10
0.0
 20
0.0
 30
0.0
  9
$PUCSBASE
  2

  9
$PUCSNAME
  2

  9
$PUCSORG
 10
0.0
 20
0.0
 30
0.0
  9
$PUCSXDIR
 10
1.0
 20
0.0
 30
0.0
  9
$PUCSYDIR
 10
0.0
 20
1.0
 30
0.0
  9
$PUCSORTHOREF
  2

  9
$PUCSORTHOVIEW
 70
     0
  9
$PUCSORGTOP
 10
0.0
 20
0.0
 30
0.0
  9
$PUCSORGBOTTOM
 10
0.0
 20
0.0
 30
0.0
  9
$PUCSORGLEFT
 10
0.0
 20
0.0
 30
0.0
  9
$PUCSORGRIGHT
 10
0.0
 20
0.0
 30
0.0
  9
$PUCSORGFRONT
 10
0.0
 20
0.0
 30
0.0
  9
$PUCSORGBACK
 10
0.0
 20
0.0
 30
0.0
  9
$USERI1
 70
     0
  9
$USERI2
 70
     0
  9
$USERI3
 70
     0
  9
$USERI4
 70
     0
  9
$USERI5
 70
     0
  9
$USERR1
 40
0.0
  9
$USERR2
 40
0.0
  9
$USERR3
 40
0.0
  9
$USERR4
 40
0.0
  9
$USERR5
 40
0.0
  9
$WORLDVIEW
 70
     1
  9
$SHADEDGE
 70
     3
  9
$SHADEDIF
 70
    70
  9
$TILEMODE
 70
     1
  9
$MAXACTVP
 70
    16
  9
$PINSBASE
 10
0.0
 20
0.0
 30
0.0
  9
$PLIMCHECK
 70
     0
  9
$PEXTMIN
 10
1.000000000000000E+20
 20
1.000000000000000E+20
 30
1.000000000000000E+20
  9
$PEXTMAX
 10
-1.000000000000000E+20
 20
-1.000000000000000E+20
 30
-1.000000000000000E+20
  9
$PLIMMIN
 10
0.0
 20
0.0
  9
$PLIMMAX
 10
12.0
 20
9.0
  9
$UNITMODE
 70
     0
  9
$VISRETAIN
 70
     0
  9
$PLINEGEN
 70
     0
  9
$PSLTSCALE
 70
     0
  9
$TREEDEPTH
 70
  3020
  9
$CMLSTYLE
  2
STANDARD
  9
$CMLJUST
 70
     0
  9
$CMLSCALE
 40
1.0
  9
$PROXYGRAPHICS
 70
     1
  9
$MEASUREMENT
 70
     0
  9
$CELWEIGHT
370
    -1
  9
$ENDCAPS
280
     0
  9
$JOINSTYLE
280
     0
  9
$LWDISPLAY
290
     0
  9
$INSUNITS
 70
     0
  9
$HYPERLINKBASE
  1

  9
$STYLESHEET
  1
INABA-CAD(IKEBE).ctb
  9
$XEDIT
290
     1
  9
$CEPSNTYPE
380
     0
  9
$PSTYLEMODE
290
     1
  9
$FINGERPRINTGUID
  2
{E6343372-7A6B-4D0B-B5E3-34E0A8B7681D}
  9
$VERSIONGUID
  2
{10347323-9E55-49A8-8D9D-41CAB20EED79}
  9
$EXTNAMES
290
     1
  9
$PSVPSCALE
 40
0.0
  9
$OLESTARTUP
290
     0
  0
ENDSEC
  0
SECTION
  2
CLASSES
  0
CLASS
  1
DICTIONARYVAR
  2
AcDbDictionaryVar
  3
ObjectDBX Classes
 90
        0
280
     0
281
     0
  0
CLASS
  1
ACDBDICTIONARYWDFLT
  2
AcDbDictionaryWithDefault
  3
ObjectDBX Classes
 90
        0
280
     0
281
     0
  0
CLASS
  1
ACDBPLACEHOLDER
  2
AcDbPlaceHolder
  3
ObjectDBX Classes
 90
        0
280
     0
281
     0
  0
CLASS
  1
LAYOUT
  2
AcDbLayout
  3
ObjectDBX Classes
 90
        0
280
     0
281
     0
  0
CLASS
  1
TABLESTYLE
  2
AcDbTableStyle
  3
ObjectDBX Classes
 90
     4095
280
     0
281
     0
  0
CLASS
  1
MATERIAL
  2
AcDbMaterial
  3
ObjectDBX Classes
 90
     1153
280
     0
281
     0
  0
CLASS
  1
VISUALSTYLE
  2
AcDbVisualStyle
  3
ObjectDBX Classes
 90
     4095
280
     0
281
     0
  0
CLASS
  1
SCALE
  2
AcDbScale
  3
ObjectDBX Classes
 90
     1153
280
     0
281
     0
  0
CLASS
  1
MLEADERSTYLE
  2
AcDbMLeaderStyle
  3
ACDB_MLEADERSTYLE_CLASS
 90
     4095
280
     0
281
     0
  0
CLASS
  1
CELLSTYLEMAP
  2
AcDbCellStyleMap
  3
ObjectDBX Classes
 90
     1152
280
     0
281
     0
  0
CLASS
  1
SORTENTSTABLE
  2
AcDbSortentsTable
  3
ObjectDBX Classes
 90
        0
280
     0
281
     0
  0
CLASS
  1
DIMASSOC
  2
AcDbDimAssoc
  3
"AcDbDimAssoc|Product Desc:     AcDim ARX App For Dimension|Company:          Autodesk, Inc.|WEB Address:      www.autodesk.com"
 90
    32768
280
     0
281
     0
  0
ENDSEC
  0
SECTION
  2
TABLES
  0
TABLE
  2
VPORT
  5
8
102
{ACAD_XDICTIONARY
360
2960C
102
}
330
0
100
AcDbSymbolTable
 70
     1
  0
VPORT
  5
29348
330
8
100
AcDbSymbolTableRecord
100
AcDbViewportTableRecord
  2
*Active
 70
     0
 10
0.0
 20
0.0
 11
1.0
 21
1.0
 12
555.5594445195656
 22
114.6062468346832
 13
0.0
 23
0.0
 14
1.0
 24
1.0
 15
0.0
 25
0.0
 16
0.0
 26
0.0
 36
1.0
 17
0.0
 27
0.0
 37
0.0
 40
248.9037469400456
 41
2.031645569620253
 42
50.0
 43
0.0
 44
0.0
 50
0.0
 51
0.0
 71
     0
 72
  1000
 73
     1
 74
     1
 75
     0
 76
     0
 77
     0
 78
     1
281
     0
 65
     1
110
0.0
120
0.0
130
0.0
111
1.0
121
0.0
131
0.0
112
0.0
122
1.0
132
0.0
 79
     0
146
0.0
  0
ENDTAB
  0
TABLE
  2
LTYPE
  5
5
330
0
100
AcDbSymbolTable
 70
     2
  0
LTYPE
  5
11
330
5
100
AcDbSymbolTableRecord
100
AcDbLinetypeTableRecord
  2
BYBLOCK
 70
     0
  3

 72
    65
 73
     0
 40
0.0
  0
LTYPE
  5
12
330
5
100
AcDbSymbolTableRecord
100
AcDbLinetypeTableRecord
  2
BYLAYER
 70
     0
  3

 72
    65
 73
     0
 40
0.0
  0
LTYPE
  5
13
330
5
100
AcDbSymbolTableRecord
100
AcDbLinetypeTableRecord
  2
CONTINUOUS
 70
     0
  3
Solid line
 72
    65
 73
     0
 40
0.0
  0
ENDTAB
  0
TABLE
  2
LAYER
  5
2
102
{ACAD_XDICTIONARY
360
446D
102
}
330
0
100
AcDbSymbolTable
 70
     8
  0
LAYER
  5
E
102
{ACAD_XDICTIONARY
360
29522
102
}
330
2
100
AcDbSymbolTableRecord
100
AcDbLayerTableRecord
  2
0
 70
     0
 62
     7
  6
CONTINUOUS
370
    -3
390
3F99
  0
LAYER
  5
E1F
330
2
100
AcDbSymbolTableRecord
100
AcDbLayerTableRecord
  2
DEFPOINTS
 70
     0
 62
     7
  6
CONTINUOUS
290
     0
370
    -3
390
3F99
  0
ENDTAB
  0
TABLE
  2
STYLE
  5
3
330
0
100
AcDbSymbolTable
 70
     5
  0
STYLE
  5
F
330
3
100
AcDbSymbolTableRecord
100
AcDbTextStyleTableRecord
  2
STANDARD
 70
     0
 40
0.0
 41
1.0
 50
0.0
 71
     0
 42
0.2
  3
txt
  4

  0
STYLE
  5
3B
330
3
100
AcDbSymbolTableRecord
100
AcDbTextStyleTableRecord
  2
KANJI
 70
     0
 40
0.0
 41
1.0
 50
0.0
 71
     0
 42
5.0
  3
simplex
  4
bigfont
  0
ENDTAB
  0
TABLE
  2
VIEW
  5
6
330
0
100
AcDbSymbolTable
 70
     1
  0
VIEW
  5
4557D
102
{ACAD_XDICTIONARY
360
4557E
102
}
330
6
100
AcDbSymbolTableRecord
100
AcDbViewTableRecord
  2
OLE1
 70
     0
 40
3364.194369900764
 10
1530.137650202394
 20
-406.0929557367046
 41
6873.360360304222
 11
0.0
 21
0.0
 31
1.0
 12
0.0
 22
0.0
 32
0.0
 42
50.0
 43
0.0
 44
0.0
 50
0.0
 71
     0
281
     0
 72
     0
  0
ENDTAB
  0
TABLE
  2
UCS
  5
7
330
0
100
AcDbSymbolTable
 70
     0
  0
ENDTAB
  0
TABLE
  2
APPID
  5
9
330
0
100
AcDbSymbolTable
 70
    12
  0
APPID
  5
10
330
9
100
AcDbSymbolTableRecord
100
AcDbRegAppTableRecord
  2
ACAD
 70
     0
  0
APPID
  5
29494
330
9
100
AcDbSymbolTableRecord
100
AcDbRegAppTableRecord
  2
ACAD_EXEMPT_FROM_CAD_STANDARDS
 70
     0
  0
APPID
  5
29646
330
9
100
AcDbSymbolTableRecord
100
AcDbRegAppTableRecord
  2
ACAD_MLEADERVER
 70
     0
  0
APPID
  5
29C97
330
9
100
AcDbSymbolTableRecord
100
AcDbRegAppTableRecord
  2
ACAD_DSTYLE_DIMRADIAL_EXTENSION
 70
     0
  0
APPID
  5
29D7D
330
9
100
AcDbSymbolTableRecord
100
AcDbRegAppTableRecord
  2
GradientColor1ACI
 70
     0
  0
APPID
  5
29D7E
330
9
100
AcDbSymbolTableRecord
100
AcDbRegAppTableRecord
  2
GradientColor2ACI
 70
     0
  0
APPID
  5
29F8C
330
9
100
AcDbSymbolTableRecord
100
AcDbRegAppTableRecord
  2
ACAD_PSEXT
 70
     0
  0
APPID
  5
2C660
330
9
100
AcDbSymbolTableRecord
100
AcDbRegAppTableRecord
  2
ACAD_NAV_VCDISPLAY
 70
     0
  0
APPID
  5
2C661
330
9
100
AcDbSymbolTableRecord
100
AcDbRegAppTableRecord
  2
ACAD_DSTYLE_DIMJAG
 70
     0
  0
APPID
  5
2C662
330
9
100
AcDbSymbolTableRecord
100
AcDbRegAppTableRecord
  2
ACAD_DSTYLE_DIMTALN
 70
     0
  0
APPID
  5
2F581
330
9
100
AcDbSymbolTableRecord
100
AcDbRegAppTableRecord
  2
ACAD_DSTYLE_DIMFLIPARROW_WHICH_SYMBOL
 70
     0
  0
APPID
  5
4B86A
330
9
100
AcDbSymbolTableRecord
100
AcDbRegAppTableRecord
  2
AcadAnnotative
 70
     0
  0
ENDTAB
  0
TABLE
  2
DIMSTYLE
  5
A
330
0
100
AcDbSymbolTable
 70
     2
100
AcDbDimStyleTable
 71
     1
340
E11
  0
DIMSTYLE
105
E11
330
A
100
AcDbSymbolTableRecord
100
AcDbDimStyleTableRecord
  2
STANDARD
 70
     0
 41
1.0
 42
1.0
 43
6.0
 44
1.0
 73
     0
 74
     0
 77
     1
 78
     8
140
2.5
141
0.0
147
0.5
172
     1
284
     8
285
     8
286
     8
340
3B
341
39F6
342
FB2
343
FB2
344
39F6
1001
ACAD_DSTYLE_DIMJAG
1070
   388
1040
1.5
1001
ACAD_DSTYLE_DIMTALN
1070
   392
1070
     0
  0
ENDTAB
  0
TABLE
  2
BLOCK_RECORD
  5
1
330
0
100
AcDbSymbolTable
 70
    17
  0
BLOCK_RECORD
  5
17
102
{ACAD_XDICTIONARY
360
29B65
102
}
330
1
100
AcDbSymbolTableRecord
100
AcDbBlockTableRecord
  2
*MODEL_SPACE
340
3F9C
  0
BLOCK_RECORD
  5
14
330
1
100
AcDbSymbolTableRecord
100
AcDbBlockTableRecord
  2
*PAPER_SPACE
340
3F9D
  0
BLOCK_RECORD
  5
FB2
330
1
100
AcDbSymbolTableRecord
100
AcDbBlockTableRecord
  2
Y1
340
0
102
{BLKREFS
331
60FAF
331
60FB0
331
60FBA
331
60FBB
331
60FC5
331
60FC6
102
}
  0
BLOCK_RECORD
  5
39F6
330
1
100
AcDbSymbolTableRecord
100
AcDbBlockTableRecord
  2
Y2
340
0
  0
ENDTAB
  0
ENDSEC
  0
SECTION
  2
BLOCKS
  0
BLOCK
  5
4F
330
17
100
AcDbEntity
  8
0
100
AcDbBlockBegin
  2
*MODEL_SPACE
 70
     0
 10
0.0
 20
0.0
 30
0.0
  3
*MODEL_SPACE
  1

  0
ENDBLK
  5
50
330
17
100
AcDbEntity
  8
0
100
AcDbBlockEnd
  0
BLOCK
  5
4D
330
14
100
AcDbEntity
 67
     1
  8
0
100
AcDbBlockBegin
  2
*PAPER_SPACE
 70
     0
 10
0.0
 20
0.0
 30
0.0
  3
*PAPER_SPACE
  1

  0
ENDBLK
  5
4E
330
14
100
AcDbEntity
 67
     1
  8
0
100
AcDbBlockEnd
  0
BLOCK
  5
1487
330
FB2
100
AcDbEntity
  8
0
 48
2.0
100
AcDbBlockBegin
  2
Y1
 70
     0
 10
0.0
 20
0.0
 30
0.0
  3
Y1
  1

  0
LINE
  5
1488
330
FB2
100
AcDbEntity
  8
0
  6
ByBlock
 62
     0
 48
2.0
100
AcDbLine
 10
-4.000000000000056
 20
-0.0000000000000142
 30
0.0
 11
-0.0000000000000568
 21
0.0
 31
0.0
  0
SOLID
  5
1489
330
FB2
100
AcDbEntity
  8
0
  6
ByBlock
 62
     0
100
AcDbTrace
 10
-1.811110924292108
 20
0.485285709567151
 30
0.0
 11
-1.811110924292108
 21
-0.4852857095673784
 31
0.0
 12
-0.0000000000000568
 22
-0.0000000000000142
 32
0.0
 13
-0.0000000000000568
 23
-0.0000000000000142
 33
0.0
  0
ENDBLK
  5
148A
330
FB2
100
AcDbEntity
  8
0
 48
2.0
100
AcDbBlockEnd
  0
BLOCK
  5
39F7
330
39F6
100
AcDbEntity
  8
0
 48
2.0
100
AcDbBlockBegin
  2
Y2
 70
     0
 10
0.0
 20
0.0
 30
0.0
  3
Y2
  1

  0
SOLID
  5
39F8
330
39F6
100
AcDbEntity
  8
0
  6
ByBlock
 62
     0
100
AcDbTrace
 10
-1.811110924292108
 20
0.485285709567151
 30
0.0
 11
-1.811110924292108
 21
-0.4852857095673784
 31
0.0
 12
-0.0000000000000568
 22
-0.0000000000000142
 32
0.0
 13
-0.0000000000000568
 23
-0.0000000000000142
 33
0.0
  0
ENDBLK
  5
39F9
330
39F6
100
AcDbEntity
  8
0
 48
2.0
100
AcDbBlockEnd
  0
ENDSEC
  0
SECTION
  2
ENTITIES
  0
ARC
  5
60DC7
330
17
100
AcDbEntity
  8
0
100
AcDbCircle
 10
511.5399544041947
 20
138.4190462318265
 30
0.0
 40
4.700000000000017
100
AcDbArc
 50
90.0
 51
180.0
  0
ARC
  5
60DC8
330
17
100
AcDbEntity
  8
0
100
AcDbCircle
 10
511.5399544041947
 20
138.4190462318265
 30
0.0
 40
9.050000000000034
100
AcDbArc
 50
90.0
 51
179.683447121554
  0
ARC
  5
60DC9
330
17
100
AcDbEntity
  8
0
100
AcDbCircle
 10
511.5399544041947
 20
138.4190462318265
 30
0.0
 40
6.700000000000011
100
AcDbArc
 50
90.0
 51
180.0
  0
ARC
  5
60DCA
330
17
100
AcDbEntity
  8
0
100
AcDbCircle
 10
511.5399544041947
 20
138.4190462318265
 30
0.0
 40
4.700000000000017
100
AcDbArc
 50
90.0
 51
180.0
  0
LINE
  5
60DCB
330
17
100
AcDbEntity
  8
0
100
AcDbLine
 10
513.7899544041947
 20
182.6190462318263
 30
0.0
 11
513.7899544041947
 21
147.4690462318265
 31
0.0
  0
LINE
  5
60DCC
330
17
100
AcDbEntity
  8
0
100
AcDbLine
 10
516.1399544041951
 20
145.7190462318265
 30
0.0
 11
516.1399544041951
 21
182.6190462318263
 31
0.0
  0
LINE
  5
60DCD
330
17
100
AcDbEntity
  8
0
100
AcDbLine
 10
518.139954404195
 20
145.6190462318266
 30
0.0
 11
518.139954404195
 21
182.6190462318263
 31
0.0
  0
LINE
  5
60DCE
330
17
100
AcDbEntity
  8
0
100
AcDbLine
 10
513.7899544041947
 20
182.6190462318263
 30
0.0
 11
518.139954404195
 21
182.6190462318263
 31
0.0
  0
LINE
  5
60DCF
330
17
100
AcDbEntity
  8
0
100
AcDbLine
 10
511.5399544041947
 20
145.1190462318266
 30
0.0
 11
515.5399544041947
 21
145.1190462318266
 31
0.0
  0
LINE
  5
60DD0
330
17
100
AcDbEntity
  8
0
100
AcDbLine
 10
513.7899544041947
 20
147.4690462318265
 30
0.0
 11
511.5399544041947
 21
147.4690462318265
 31
0.0
  0
LINE
  5
60DD1
330
17
100
AcDbEntity
  8
0
100
AcDbLine
 10
511.5399544041947
 20
143.1190462318266
 30
0.0
 11
515.6399544041951
 21
143.1190462318266
 31
0.0
  0
LINE
  5
60DD2
330
17
100
AcDbEntity
  8
0
100
AcDbLine
 10
481.8399544041949
 20
134.1190462318266
 30
0.0
 11
504.3399544041949
 21
134.1190462318266
 31
0.0
  0
LINE
  5
60DD3
330
17
100
AcDbEntity
  8
0
100
AcDbLine
 10
481.8399544041949
 20
136.1190462318266
 30
0.0
 11
504.239954404195
 21
136.1190462318266
 31
0.0
  0
LINE
  5
60DD4
330
17
100
AcDbEntity
  8
0
100
AcDbLine
 10
502.4900925267957
 20
138.4690462318263
 30
0.0
 11
481.8399544041949
 21
138.4690462318265
 31
0.0
  0
LINE
  5
60DD5
330
17
100
AcDbEntity
  8
0
100
AcDbLine
 10
506.8399544041949
 20
136.6190462318266
 30
0.0
 11
506.8399544041949
 21
138.4190462318265
 31
0.0
  0
LINE
  5
60DD6
330
17
100
AcDbEntity
  8
0
100
AcDbLine
 10
504.8399544041949
 20
136.7190462318265
 30
0.0
 11
504.8399544041949
 21
138.4190462318265
 31
0.0
  0
LINE
  5
60DD7
330
17
100
AcDbEntity
  8
0
100
AcDbLine
 10
506.8399544041949
 20
138.4190462318265
 30
0.0
 11
506.8399544041949
 21
138.1190462318266
 31
0.0
  0
LINE
  5
60DD8
330
17
100
AcDbEntity
  8
0
100
AcDbLine
 10
481.8399544041949
 20
138.4690462318265
 30
0.0
 11
481.8399544041949
 21
134.1190462318264
 31
0.0
  0
ARC
  5
60DD9
330
17
100
AcDbEntity
  8
0
100
AcDbCircle
 10
504.239954404195
 20
136.7190462318265
 30
0.0
 40
0.6
100
AcDbArc
 50
270.0
 51
0.0
  0
ARC
  5
60DDA
330
17
100
AcDbEntity
  8
0
100
AcDbCircle
 10
515.5399544041947
 20
145.7190462318265
 30
0.0
 40
0.6
100
AcDbArc
 50
270.0
 51
0.0
  0
ARC
  5
60DDB
330
17
100
AcDbEntity
  8
0
100
AcDbCircle
 10
504.3399544041949
 20
136.6190462318266
 30
0.0
 40
2.5
100
AcDbArc
 50
270.0
 51
0.0
  0
ARC
  5
60DDC
330
17
100
AcDbEntity
  8
0
100
AcDbCircle
 10
515.6399544041951
 20
145.6190462318266
 30
0.0
 40
2.5
100
AcDbArc
 50
270.0
 51
0.0
  0
LINE
  5
60DDD
330
17
100
AcDbEntity
  8
0
100
AcDbLine
 10
506.8469733687602
 20
138.6758126646976
 30
0.0
 11
511.2831879713235
 21
143.1120272672613
 31
0.0
  0
LINE
  5
60DDE
330
17
100
AcDbEntity
  8
0
100
AcDbLine
 10
471.5399544041948
 20
135.7190462318265
 30
0.0
 11
481.8399544041949
 21
135.7190462318265
 31
0.0
  0
LINE
  5
60DDF
330
17
100
AcDbEntity
  8
0
100
AcDbLine
 10
471.5399544041948
 20
133.7190462318265
 30
0.0
 11
511.5399544041947
 21
133.7190462318265
 31
0.0
  0
LINE
  5
60DE0
330
17
100
AcDbEntity
  8
0
100
AcDbLine
 10
471.5399544041948
 20
132.1190462318266
 30
0.0
 11
511.5399544041947
 21
132.1190462318266
 31
0.0
  0
ARC
  5
60DE1
330
17
100
AcDbEntity
  8
0
100
AcDbCircle
 10
511.5399544041947
 20
138.4190462318265
 30
0.0
 40
4.699999999999995
100
AcDbArc
 50
270.0
 51
0.0
  0
ARC
  5
60DE2
330
17
100
AcDbEntity
  8
0
100
AcDbCircle
 10
511.5399544041947
 20
138.4190462318265
 30
0.0
 40
6.300000000000004
100
AcDbArc
 50
270.0
 51
0.0
  0
ARC
  5
60DE3
330
17
100
AcDbEntity
  8
0
100
AcDbCircle
 10
505.5399544041947
 20
133.7190462318265
 30
0.0
 40
2.0
100
AcDbArc
 50
0.0
 51
59.73636996720345
  0
LINE
  5
60DE4
330
17
100
AcDbEntity
  8
0
100
AcDbLine
 10
516.2399544041945
 20
142.7190462318265
 30
0.0
 11
517.8399544041949
 21
142.7190462318265
 31
0.0
  0
LINE
  5
60DE5
330
17
100
AcDbEntity
  8
0
100
AcDbLine
 10
516.2399544041945
 20
138.4190462318265
 30
0.0
 11
516.2399544041945
 21
142.7190462318265
 31
0.0
  0
LINE
  5
60DE6
330
17
100
AcDbEntity
  8
0
100
AcDbLine
 10
517.8399544041949
 20
138.4190462318265
 30
0.0
 11
517.8399544041949
 21
142.7190462318265
 31
0.0
  0
LINE
  5
60DE7
330
17
100
AcDbEntity
  8
0
100
AcDbLine
 10
471.5399544041948
 20
135.7190462318265
 30
0.0
 11
471.5399544041948
 21
132.1190462318266
 31
0.0
  0
LINE
  5
60DE8
330
17
100
AcDbEntity
  8
0
100
AcDbLine
 10
516.2056396477769
 20
137.8521412946282
 30
0.0
 11
512.1068593413934
 21
133.7533609882444
 31
0.0
  0
LINE
  5
60DE9
330
17
100
AcDbEntity
  8
0
 48
2.0
100
AcDbLine
 10
498.5399544041952
 20
130.5190462318267
 30
0.0
 11
504.0399544041988
 21
130.5190462318287
 31
0.0
  0
ARC
  5
60DEA
330
17
100
AcDbEntity
  8
0
 48
2.0
100
AcDbCircle
 10
491.0399544041988
 20
123.0190462318269
 30
0.0
 40
0.5
100
AcDbArc
 50
90.00000000005213
 51
270.0
  0
LINE
  5
60DEB
330
17
100
AcDbEntity
  8
0
 48
2.0
100
AcDbLine
 10
501.0399544041956
 20
122.5190462318231
 30
0.0
 11
491.0399544041961
 21
122.5190462318255
 31
0.0
  0
LINE
  5
60DEC
330
17
100
AcDbEntity
  8
0
 48
2.0
100
AcDbLine
 10
491.0399544041915
 20
123.519046231818
 30
0.0
 11
501.0778984594312
 21
123.5190462318244
 31
0.0
  0
ARC
  5
60DED
330
17
100
AcDbEntity
  8
0
100
AcDbCircle
 10
495.5399431910864
 20
133.0229161901043
 30
0.0
 40
20.00000000000002
100
AcDbArc
 50
295.1506634130584
 51
299.3897394741568
  0
ARC
  5
60DEE
330
17
100
AcDbEntity
  8
0
100
AcDbCircle
 10
495.5399431910864
 20
133.0229161901043
 30
0.0
 40
20.00000000000002
100
AcDbArc
 50
240.6102605258723
 51
244.8493365869124
  0
ARC
  5
60DEF
330
17
100
AcDbEntity
  8
0
100
AcDbCircle
 10
502.8462693994988
 20
119.8979229142137
 30
0.0
 40
4.97917495038993
100
AcDbArc
 50
270.6316240570302
 51
300.2533427090889
  0
LINE
  5
60DF0
330
17
100
AcDbEntity
  8
0
100
AcDbLine
 10
505.3548990993013
 20
115.5968811547123
 30
0.0
 11
505.3548987699982
 21
120.9190478782204
 31
0.0
  0
LINE
  5
60DF1
330
17
100
AcDbEntity
  8
0
100
AcDbLine
 10
500.4474208159999
 20
115.5968818133108
 30
0.0
 11
500.4474208159949
 21
120.919048866014
 31
0.0
  0
ARC
  5
60DF2
330
17
100
AcDbEntity
  8
0
100
AcDbCircle
 10
502.956044589303
 20
119.8978970153121
 30
0.0
 40
4.979149024067279
100
AcDbArc
 50
239.7465622304202
 51
269.3684029622431
  0
ARC
  5
60DF3
330
17
100
AcDbEntity
  8
0
100
AcDbCircle
 10
495.5399431910864
 20
133.0229161901043
 30
0.0
 40
18.10386699023169
100
AcDbArc
 50
269.9999999998958
 51
285.7281520600063
  0
LINE
  5
60DF4
330
17
100
AcDbEntity
  8
0
100
AcDbLine
 10
490.6324668835987
 20
115.5968804962038
 30
0.0
 11
490.6324668835905
 21
120.9190475489097
 31
0.0
  0
ARC
  5
60DF5
330
17
100
AcDbEntity
  8
0
100
AcDbCircle
 10
495.5399431910864
 20
133.0229161901043
 30
0.0
 40
18.10386699023169
100
AcDbArc
 50
254.2718479399938
 51
269.9999999998958
  0
ARC
  5
60DF6
330
17
100
AcDbEntity
  8
0
100
AcDbCircle
 10
488.1238293961987
 20
119.8979504467095
 30
0.0
 40
4.979203225664152
100
AcDbArc
 50
270.6317100879652
 51
300.253256678214
  0
LINE
  5
60DF7
330
17
100
AcDbEntity
  8
0
100
AcDbLine
 10
485.7249892588028
 20
115.5968818133033
 30
0.0
 11
485.7249892587924
 21
120.9190488660013
 31
0.0
  0
ARC
  5
60DF8
330
17
100
AcDbEntity
  8
0
100
AcDbCircle
 10
488.2336202950959
 20
119.8979184168022
 30
0.0
 40
4.979171170095301
100
AcDbArc
 50
239.7466141138162
 51
269.3683146117031
  0
LINE
  5
60DF9
330
17
100
AcDbEntity
  8
0
100
AcDbLine
 10
485.7249892587924
 20
120.9190488660013
 30
0.0
 11
505.3548987699932
 21
120.9190435976348
 31
0.0
  0
LINE
  5
60DFA
330
17
100
AcDbEntity
  8
0
 48
2.0
100
AcDbLine
 10
504.0399431911482
 20
114.9190491999054
 30
0.0
 11
487.0399431910268
 21
114.9190491999029
 31
0.0
  0
LINE
  5
60DFB
330
17
100
AcDbEntity
  8
0
 48
2.0
100
AcDbLine
 10
490.7899446994156
 20
122.519046231826
 30
0.0
 11
490.7899447280974
 21
122.5860391165786
 31
0.0
  0
LINE
  5
60DFC
330
17
100
AcDbEntity
  8
0
 48
2.0
100
AcDbLine
 10
490.7899450988702
 20
123.4520535611518
 30
0.0
 11
490.7899454341886
 21
124.235255861621
 31
0.0
  0
LINE
  5
60DFD
330
17
100
AcDbEntity
  8
0
 48
2.0
100
AcDbLine
 10
490.7899458628649
 20
125.236513775176
 30
0.0
 11
490.7899462637082
 21
126.172763468428
 31
0.0
  0
LINE
  5
60DFE
330
17
100
AcDbEntity
  8
0
 48
2.0
100
AcDbLine
 10
490.7899515282069
 20
138.4690462318267
 30
0.0
 11
490.7899530052827
 21
141.9190505802526
 31
0.0
  0
LINE
  5
60DFF
330
17
100
AcDbEntity
  8
0
 48
2.0
100
AcDbLine
 10
500.2899447122054
 20
123.5190462318239
 30
0.0
 11
500.2899450323493
 21
124.711902793016
 31
0.0
  0
LINE
  5
60E00
330
17
100
AcDbEntity
  8
0
 48
2.0
100
AcDbLine
 10
500.2899453010713
 20
125.7131606985458
 30
0.0
 11
500.2899456264663
 21
126.9255821696663
 31
0.0
  0
LINE
  5
60E01
330
17
100
AcDbEntity
  8
0
 48
2.0
100
AcDbLine
 10
500.2899458956922
 20
127.9287170892462
 30
0.0
 11
500.2899460541271
 21
128.519046231826
 31
0.0
  0
LINE
  5
60E02
330
17
100
AcDbEntity
  8
0
 48
2.0
100
AcDbLine
 10
500.2899487245531
 20
138.4690462318265
 30
0.0
 11
500.2899496504801
 21
141.9190493725091
 31
0.0
  0
LINE
  5
60E03
330
17
100
AcDbEntity
  8
0
 48
2.0
100
AcDbLine
 10
499.2899537976054
 20
142.9190452253734
 30
0.0
 11
491.7899496632912
 21
142.9190472382609
 31
0.0
  0
LINE
  5
60E04
330
17
100
AcDbEntity
  8
0
 48
2.0
100
AcDbLine
 10
490.7899504556308
 20
141.9190480306004
 30
0.0
 11
491.7899496632912
 21
142.9190472382609
 31
0.0
  0
LINE
  5
60E05
330
17
100
AcDbEntity
  8
0
 48
2.0
100
AcDbLine
 10
500.2899509923913
 20
141.9190480305979
 30
0.0
 11
499.2899517847281
 21
142.9190472382609
 31
0.0
  0
LINE
  5
60E06
330
17
100
AcDbEntity
  8
0
 48
2.0
100
AcDbLine
 10
500.2899509923913
 20
141.9190480305979
 30
0.0
 11
490.7899504556362
 21
141.9190505802533
 31
0.0
  0
LINE
  5
60E07
330
17
100
AcDbEntity
  8
0
 48
2.0
100
AcDbLine
 10
484.539944014391
 20
120.9190462318156
 30
0.0
 11
506.5399440143947
 21
120.9190462318206
 31
0.0
  0
LINE
  5
60E08
330
17
100
AcDbEntity
  8
0
 48
2.0
100
AcDbLine
 10
484.5399440143937
 20
122.5190462318258
 30
0.0
 11
506.5399440143924
 21
122.5190462318258
 31
0.0
  0
LINE
  5
60E09
330
17
100
AcDbEntity
  8
0
 48
2.0
100
AcDbLine
 10
484.5399440143937
 20
122.5190462318258
 30
0.0
 11
484.539944014391
 21
120.9190462318156
 31
0.0
  0
LINE
  5
60E0A
330
17
100
AcDbEntity
  8
0
 48
2.0
100
AcDbLine
 10
506.5399440143924
 20
122.5190462318258
 30
0.0
 11
506.5399440143947
 21
120.9190462318206
 31
0.0
  0
LINE
  5
60E0B
330
17
100
AcDbEntity
  8
0
100
AcDbLine
 10
515.5399544042047
 20
130.5190462318262
 30
0.0
 11
515.5399544042047
 21
132.1190462318266
 31
0.0
  0
LINE
  5
60E0C
330
17
100
AcDbEntity
  8
0
100
AcDbLine
 10
481.6399544041947
 20
132.1190462318266
 30
0.0
 11
515.5399544042047
 21
132.1190462318266
 31
0.0
  0
ARC
  5
60E0D
330
17
100
AcDbEntity
  8
0
100
AcDbCircle
 10
481.6399544041947
 20
130.5190462318262
 30
0.0
 40
1.600000000000008
100
AcDbArc
 50
90.0
 51
180.0
  0
LINE
  5
60E0E
330
17
100
AcDbEntity
  8
0
100
AcDbLine
 10
480.0399544041961
 20
128.1190462318266
 30
0.0
 11
480.0399544041961
 21
130.5190462318262
 31
0.0
  0
ARC
  5
60E0F
330
17
100
AcDbEntity
  8
0
100
AcDbCircle
 10
468.0399544041961
 20
128.6190462318266
 30
0.0
 40
3.0
100
AcDbArc
 50
90.0
 51
180.0
  0
LINE
  5
60E10
330
17
100
AcDbEntity
  8
0
100
AcDbLine
 10
465.039954404196
 20
128.6190462318266
 30
0.0
 11
465.039954404196
 21
128.1190462318266
 31
0.0
  0
ARC
  5
60E11
330
17
100
AcDbEntity
  8
0
100
AcDbCircle
 10
475.339954404199
 20
128.1190462318266
 30
0.0
 40
10.3
100
AcDbArc
 50
180.0
 51
351.0634955981743
  0
LINE
  5
60E12
330
17
100
AcDbEntity
  8
0
100
AcDbLine
 10
498.5399544041947
 20
129.5190462318262
 30
0.0
 11
498.5399544041947
 21
132.1190462318266
 31
0.0
  0
LINE
  5
60E13
330
17
100
AcDbEntity
  8
0
100
AcDbLine
 10
485.5149236916145
 20
126.5190462318262
 30
0.0
 11
495.5399544041957
 21
126.5190462318262
 31
0.0
  0
ARC
  5
60E14
330
17
100
AcDbEntity
  8
0
100
AcDbCircle
 10
495.5399544041947
 20
129.5190462318262
 30
0.0
 40
3.000000000000013
100
AcDbArc
 50
270.0
 51
0.0
  0
LINE
  5
60E15
330
17
100
AcDbEntity
  8
0
100
AcDbLine
 10
470.6399544041946
 20
131.6190462318266
 30
0.0
 11
470.6399544041946
 21
128.1190462318266
 31
0.0
  0
LINE
  5
60E16
330
17
100
AcDbEntity
  8
0
100
AcDbLine
 10
468.0399544041961
 20
131.6190462318266
 30
0.0
 11
470.6399544041946
 21
131.6190462318266
 31
0.0
  0
ARC
  5
60E17
330
17
100
AcDbEntity
  8
0
100
AcDbCircle
 10
475.339954404199
 20
128.1190462318266
 30
0.0
 40
4.700000000000002
100
AcDbArc
 50
180.0
 51
0.0
  0
LINE
  5
60E18
330
17
100
AcDbEntity
  8
0
100
AcDbLine
 10
498.5399544041943
 20
130.5190462318262
 30
0.0
 11
515.5399544042047
 21
130.519046231826
 31
0.0
  0
LINE
  5
60E19
330
17
100
AcDbEntity
  8
0
100
AcDbLine
 10
472.2030769759276
 20
124.6190462318266
 30
0.0
 11
478.4768318324704
 21
124.6190462318266
 31
0.0
  0
LINE
  5
60E1A
330
17
100
AcDbEntity
  8
0
 48
2.0
100
AcDbLine
 10
500.5399544041948
 20
130.5190462318262
 30
0.0
 11
500.5399544041942
 21
132.1190462318268
 31
0.0
  0
ARC
  5
60E1B
330
17
100
AcDbEntity
  8
0
 48
2.0
100
AcDbCircle
 10
505.5399544041611
 20
130.5190462318262
 30
0.0
 40
2.0
100
AcDbArc
 50
270.0
 51
0.0
  0
LINE
  5
60E1C
330
17
100
AcDbEntity
  8
0
100
AcDbLine
 10
498.3683815289409
 20
128.5190462318262
 30
0.0
 11
505.5399544041611
 21
128.5190462318265
 31
0.0
  0
LINE
  5
60E1D
330
17
100
AcDbEntity
  8
0
100
AcDbLine
 10
519.739954404195
 20
139.119046231818
 30
0.0
 11
518.1399544041946
 21
139.119046231818
 31
0.0
  0
LINE
  5
60E1E
330
17
100
AcDbEntity
  8
0
100
AcDbLine
 10
518.139954404195
 20
173.019046231828
 30
0.0
 11
518.1399544041946
 21
139.119046231818
 31
0.0
  0
ARC
  5
60E1F
330
17
100
AcDbEntity
  8
0
100
AcDbCircle
 10
519.7399544041955
 20
173.019046231828
 30
0.0
 40
1.600000000000008
100
AcDbArc
 50
90.0
 51
180.0
  0
LINE
  5
60E20
330
17
100
AcDbEntity
  8
0
100
AcDbLine
 10
522.139954404195
 20
174.6190462318266
 30
0.0
 11
519.7399544041955
 21
174.6190462318266
 31
0.0
  0
ARC
  5
60E21
330
17
100
AcDbEntity
  8
0
100
AcDbCircle
 10
521.6399544041955
 20
186.6190462318266
 30
0.0
 40
3.0
100
AcDbArc
 50
90.0
 51
180.0
  0
LINE
  5
60E22
330
17
100
AcDbEntity
  8
0
100
AcDbLine
 10
521.6399544041955
 20
189.6190462318266
 30
0.0
 11
522.1399544041956
 21
189.6190462318266
 31
0.0
  0
ARC
  5
60E23
330
17
100
AcDbEntity
  8
0
100
AcDbCircle
 10
522.1399544041956
 20
179.3190462318237
 30
0.0
 40
10.3
100
AcDbArc
 50
278.9365044018257
 51
90.0
  0
LINE
  5
60E24
330
17
100
AcDbEntity
  8
0
100
AcDbLine
 10
520.739954404195
 20
156.1190462318279
 30
0.0
 11
518.1399544041946
 21
156.1190462318279
 31
0.0
  0
LINE
  5
60E25
330
17
100
AcDbEntity
  8
0
100
AcDbLine
 10
523.7399544041955
 20
169.1440769444078
 30
0.0
 11
523.7399544041945
 21
159.1190462318261
 31
0.0
  0
ARC
  5
60E26
330
17
100
AcDbEntity
  8
0
100
AcDbCircle
 10
520.739954404195
 20
159.1190462318279
 30
0.0
 40
3.000000000000013
100
AcDbArc
 50
270.0
 51
0.0
  0
LINE
  5
60E27
330
17
100
AcDbEntity
  8
0
100
AcDbLine
 10
518.6399544041956
 20
184.019046231828
 30
0.0
 11
522.1399544041956
 21
184.019046231828
 31
0.0
  0
LINE
  5
60E28
330
17
100
AcDbEntity
  8
0
100
AcDbLine
 10
518.6399544041956
 20
186.6190462318266
 30
0.0
 11
518.6399544041956
 21
184.019046231828
 31
0.0
  0
ARC
  5
60E29
330
17
100
AcDbEntity
  8
0
100
AcDbCircle
 10
522.1399544041956
 20
179.3190462318237
 30
0.0
 40
4.700000000000002
100
AcDbArc
 50
270.0
 51
90.0
  0
LINE
  5
60E2A
330
17
100
AcDbEntity
  8
0
100
AcDbLine
 10
519.739954404195
 20
156.1190462318284
 30
0.0
 11
519.739954404195
 21
139.119046231818
 31
0.0
  0
LINE
  5
60E2B
330
17
100
AcDbEntity
  8
0
100
AcDbLine
 10
525.6399544041955
 20
182.4559236600946
 30
0.0
 11
525.6399544041951
 21
176.1821688035518
 31
0.0
  0
LINE
  5
60E2C
330
17
100
AcDbEntity
  8
0
 48
2.0
100
AcDbLine
 10
519.739954404195
 20
154.119046231828
 30
0.0
 11
518.1399544041946
 21
154.1190462318284
 31
0.0
  0
ARC
  5
60E2D
330
17
100
AcDbEntity
  8
0
 48
2.0
100
AcDbCircle
 10
519.739954404195
 20
149.1190462318612
 30
0.0
 40
2.0
100
AcDbArc
 50
270.0
 51
0.0
  0
LINE
  5
60E2E
330
17
100
AcDbEntity
  8
0
100
AcDbLine
 10
521.739954404195
 20
156.2906191070817
 30
0.0
 11
521.739954404195
 21
149.1190462318612
 31
0.0
  0
ARC
  5
60E2F
330
17
100
AcDbEntity
  8
0
 48
2.0
100
AcDbCircle
 10
489.0399544041988
 20
126.5356544241583
 30
0.0
 40
0.5
100
AcDbArc
 50
181.9035087939207
 51
274.5308830345207
  0
ARC
  5
60E30
330
17
100
AcDbEntity
  8
0
 48
2.0
100
AcDbCircle
 10
490.0399544041938
 20
124.6982552352085
 30
0.0
 40
0.5
100
AcDbArc
 50
92.87231335648201
 51
272.872313356482
  0
ARC
  5
60E31
330
17
100
AcDbEntity
  8
0
 48
2.0
100
AcDbCircle
 10
501.0399544041984
 20
123.0190462318258
 30
0.0
 40
0.5
100
AcDbArc
 50
270.0
 51
81.3204993646846
  0
ARC
  5
60E32
330
17
100
AcDbEntity
  8
0
 48
2.0
100
AcDbCircle
 10
502.0399544041984
 20
125.3003355950698
 30
0.0
 40
0.5
100
AcDbArc
 50
272.872313356482
 51
92.87231335648201
  0
ARC
  5
60E33
330
17
100
AcDbEntity
  8
0
 48
2.0
100
AcDbCircle
 10
503.0399544041906
 20
127.6450715319797
 30
0.0
 40
0.5
100
AcDbArc
 50
274.5308830345207
 51
94.53088303452069
  0
LINE
  5
60E34
330
17
100
AcDbEntity
  8
0
 48
2.0
100
AcDbLine
 10
490.7899453668505
 20
124.07797272829
 30
0.0
 11
489.9645008312745
 21
124.2039812642838
 31
0.0
  0
LINE
  5
60E35
330
17
100
AcDbEntity
  8
0
 48
2.0
100
AcDbLine
 10
501.1154079771176
 20
123.5133202027505
 30
0.0
 11
500.2899447444884
 21
123.6393315929497
 31
0.0
  0
LINE
  5
60E36
330
17
100
AcDbEntity
  8
0
 48
2.0
100
AcDbLine
 10
490.0650095691621
 20
124.19888339108
 30
0.0
 11
502.0650095691666
 21
124.8009637509413
 31
0.0
  0
LINE
  5
60E37
330
17
100
AcDbEntity
  8
0
 48
2.0
100
AcDbLine
 10
490.0148992392255
 20
125.1976270793371
 30
0.0
 11
502.01489923923
 21
125.7997074391983
 31
0.0
  0
LINE
  5
60E38
330
17
100
AcDbEntity
  8
0
 48
2.0
100
AcDbLine
 10
490.7899461328465
 20
125.8671099487813
 30
0.0
 11
488.9926552094725
 21
126.0378966656269
 31
0.0
  0
LINE
  5
60E39
330
17
100
AcDbEntity
  8
0
 48
2.0
100
AcDbLine
 10
502.0872535989247
 20
125.7980933536012
 30
0.0
 11
500.2899453697027
 21
125.9688817149272
 31
0.0
  0
LINE
  5
60E3A
330
17
100
AcDbEntity
  8
0
 48
2.0
100
AcDbLine
 10
489.0794526208737
 20
126.0372169748434
 30
0.0
 11
495.1597713307632
 21
126.5190462318262
 31
0.0
  0
LINE
  5
60E3B
330
17
100
AcDbEntity
  8
0
 48
2.0
100
AcDbLine
 10
496.2569781563111
 20
126.6059933763324
 30
0.0
 11
503.0794526208656
 21
127.1466340826648
 31
0.0
  0
LINE
  5
60E3C
330
17
100
AcDbEntity
  8
0
 48
2.0
100
AcDbLine
 10
503.0647053970646
 20
128.1444585445779
 30
0.0
 11
500.2899459905029
 21
128.2819832469957
 31
0.0
  0
LINE
  5
60E3D
330
17
100
AcDbEntity
  8
0
 48
2.0
100
AcDbLine
 10
497.9584384470504
 20
127.7439589284938
 30
0.0
 11
503.0004561875157
 21
128.1435089812946
 31
0.0
  0
ARC
  5
60E3E
330
17
100
AcDbEntity
  8
0
 48
2.0
100
AcDbCircle
 10
527.2399544041936
 20
154.6190462318295
 30
0.0
 40
0.5
100
AcDbArc
 50
180.0000000000521
 51
0.0
  0
LINE
  5
60E3F
330
17
100
AcDbEntity
  8
0
 48
2.0
100
AcDbLine
 10
527.7399544041973
 20
164.6190462318264
 30
0.0
 11
527.739954404195
 21
154.6190462318268
 31
0.0
  0
LINE
  5
60E40
330
17
100
AcDbEntity
  8
0
 48
2.0
100
AcDbLine
 10
526.7399544042027
 20
154.6190462318223
 30
0.0
 11
526.7399544041963
 21
164.6569902870619
 31
0.0
  0
ARC
  5
60E41
330
17
100
AcDbEntity
  8
0
 48
2.0
100
AcDbCircle
 10
521.8704878776089
 20
151.6190462318268
 30
0.0
 40
0.5
100
AcDbArc
 50
254.8666195932504
 51
5.818829931762707
  0
ARC
  5
60E42
330
17
100
AcDbEntity
  8
0
 48
2.0
100
AcDbCircle
 10
523.723346211862
 20
152.6190462318296
 30
0.0
 40
0.5
100
AcDbArc
 50
184.5308830345202
 51
4.530883034520189
  0
ARC
  5
60E43
330
17
100
AcDbEntity
  8
0
 48
2.0
100
AcDbCircle
 10
525.5607454008123
 20
153.6190462318245
 30
0.0
 40
0.5
100
AcDbArc
 50
182.8723133564818
 51
2.872313356481857
  0
ARC
  5
60E44
330
17
100
AcDbEntity
  8
0
 48
2.0
100
AcDbCircle
 10
527.2399544041945
 20
164.6190462318291
 30
0.0
 40
0.5
100
AcDbArc
 50
359.999999999974
 51
171.3204993646841
  0
ARC
  5
60E45
330
17
100
AcDbEntity
  8
0
 48
2.0
100
AcDbCircle
 10
524.958665040951
 20
165.6190462318291
 30
0.0
 40
0.5
100
AcDbArc
 50
2.872313356481857
 51
182.8723133564818
  0
LINE
  5
60E46
330
17
100
AcDbEntity
  8
0
 48
2.0
100
AcDbLine
 10
526.1810291701968
 20
154.369045464522
 30
0.0
 11
526.0550193717367
 21
153.5435926589053
 31
0.0
  0
LINE
  5
60E47
330
17
100
AcDbEntity
  8
0
 48
2.0
100
AcDbLine
 10
526.7456804332701
 20
164.6944998047484
 30
0.0
 11
526.6196703594927
 21
163.8690451956088
 31
0.0
  0
LINE
  5
60E48
330
17
100
AcDbEntity
  8
0
 48
2.0
100
AcDbLine
 10
526.0601172449405
 20
153.6441013967928
 30
0.0
 11
525.4580368850793
 21
165.6441013967974
 31
0.0
  0
LINE
  5
60E49
330
17
100
AcDbEntity
  8
0
 48
2.0
100
AcDbLine
 10
525.0613735566835
 20
153.5939910668562
 30
0.0
 11
524.4592931968222
 21
165.5939910668608
 31
0.0
  0
LINE
  5
60E4A
330
17
100
AcDbEntity
  8
0
 48
2.0
100
AcDbLine
 10
524.391891354679
 20
154.3690449843452
 30
0.0
 11
524.2211039703934
 21
152.5717470371033
 31
0.0
  0
LINE
  5
60E4B
330
17
100
AcDbEntity
  8
0
 48
2.0
100
AcDbLine
 10
524.4609072824196
 20
165.6663454265554
 30
0.0
 11
524.2901195863518
 21
163.8690441982412
 31
0.0
  0
LINE
  5
60E4C
330
17
100
AcDbEntity
  8
0
 48
2.0
100
AcDbLine
 10
524.2217836611771
 20
152.6585444485045
 30
0.0
 11
523.7295804291725
 21
158.8697748319921
 31
0.0
  0
LINE
  5
60E4D
330
17
100
AcDbEntity
  8
0
 48
2.0
100
AcDbLine
 10
523.2249087625473
 20
152.5795480151546
 30
0.0
 11
522.8737961840738
 21
157.0103216745556
 31
0.0
  0
LINE
  5
60E4E
330
17
100
AcDbEntity
  8
0
 48
2.0
100
AcDbLine
 10
522.3679115993718
 20
151.6697378586273
 30
0.0
 11
521.891087684558
 21
156.3486866575413
 31
0.0
  0
LINE
  5
60E4F
330
17
100
AcDbEntity
  8
0
 48
2.0
100
AcDbLine
 10
522.5073990887235
 20
154.3690444785773
 30
0.0
 11
522.369874890207
 21
151.5942952389528
 31
0.0
  0
ARC
  5
60E50
330
17
100
AcDbEntity
  8
0
100
AcDbCircle
 10
517.2360844459176
 20
159.1190470551326
 30
0.0
 40
20.00000000000002
100
AcDbArc
 50
330.6102605258299
 51
334.8493365869575
  0
ARC
  5
60E51
330
17
100
AcDbEntity
  8
0
100
AcDbCircle
 10
517.2360844459176
 20
159.1190470551326
 30
0.0
 40
20.00000000000002
100
AcDbArc
 50
25.1506634130716
 51
29.38973947414671
  0
ARC
  5
60E52
330
17
100
AcDbEntity
  8
0
100
AcDbCircle
 10
530.3610777218081
 20
151.8127208467201
 30
0.0
 40
4.97917495038993
100
AcDbArc
 50
329.7466572909168
 51
359.3683759429698
  0
LINE
  5
60E53
330
17
100
AcDbEntity
  8
0
100
AcDbLine
 10
534.6621194813097
 20
149.3040911469177
 30
0.0
 11
529.3399527578016
 21
149.3040914762207
 31
0.0
  0
LINE
  5
60E54
330
17
100
AcDbEntity
  8
0
100
AcDbLine
 10
534.6621188227113
 20
154.211569430219
 30
0.0
 11
529.3399517700077
 21
154.211569430224
 31
0.0
  0
ARC
  5
60E55
330
17
100
AcDbEntity
  8
0
100
AcDbCircle
 10
530.3611036207098
 20
151.702945656916
 30
0.0
 40
4.979149024067279
100
AcDbArc
 50
0.6315970377569114
 51
30.25343776958589
  0
ARC
  5
60E56
330
17
100
AcDbEntity
  8
0
100
AcDbCircle
 10
517.2360844459176
 20
159.1190470551326
 30
0.0
 40
18.10386699023169
100
AcDbArc
 50
344.2718479399937
 51
0.0000000001042204
  0
ARC
  5
60E57
330
17
100
AcDbEntity
  8
0
100
AcDbCircle
 10
517.2360844459176
 20
159.1190470551326
 30
0.0
 40
18.10386699023169
100
AcDbArc
 50
0.0000000001042204
 51
15.72815206000628
  0
ARC
  5
60E58
330
17
100
AcDbEntity
  8
0
100
AcDbCircle
 10
530.3610501893126
 20
166.5351608500202
 30
0.0
 40
4.979203225664152
100
AcDbArc
 50
329.7467433217727
 51
359.3682899120478
  0
LINE
  5
60E59
330
17
100
AcDbEntity
  8
0
100
AcDbLine
 10
534.6621188227186
 20
168.9340009874161
 30
0.0
 11
529.3399517700208
 21
168.9340009874265
 31
0.0
  0
ARC
  5
60E5A
330
17
100
AcDbEntity
  8
0
100
AcDbCircle
 10
530.3610822192199
 20
166.425369951123
 30
0.0
 40
4.979171170095301
100
AcDbArc
 50
0.6316853882969006
 51
30.25338588617213
  0
LINE
  5
60E5B
330
17
100
AcDbEntity
  8
0
100
AcDbLine
 10
529.3399517700208
 20
168.9340009874265
 30
0.0
 11
529.3399570383871
 21
149.3040914762257
 31
0.0
  0
LINE
  5
60E5C
330
17
100
AcDbEntity
  8
0
 48
2.0
100
AcDbLine
 10
535.3399514361167
 20
150.6190470550707
 30
0.0
 11
535.3399514361194
 21
167.6190470551921
 31
0.0
  0
LINE
  5
60E5D
330
17
100
AcDbEntity
  8
0
 48
2.0
100
AcDbLine
 10
526.7399544041973
 20
163.8690452471067
 30
0.0
 11
525.547097447818
 21
163.8690447364004
 31
0.0
  0
LINE
  5
60E5E
330
17
100
AcDbEntity
  8
0
 48
2.0
100
AcDbLine
 10
524.5458395772788
 20
163.8690443077246
 30
0.0
 11
523.739954404195
 21
163.8690439626948
 31
0.0
  0
LINE
  5
60E5F
330
17
100
AcDbEntity
  8
0
 48
2.0
100
AcDbLine
 10
513.7899544041947
 20
163.869039702728
 30
0.0
 11
508.03995005577
 21
163.8690372409367
 31
0.0
  0
LINE
  5
60E60
330
17
100
AcDbEntity
  8
0
 48
2.0
100
AcDbLine
 10
526.8069420483207
 20
154.3690456325078
 30
0.0
 11
526.0237443649598
 21
154.3690454223095
 31
0.0
  0
LINE
  5
60E61
330
17
100
AcDbEntity
  8
0
 48
2.0
100
AcDbLine
 10
525.0224864863953
 20
154.3690451535877
 30
0.0
 11
524.0862366278633
 21
154.3690449023125
 31
0.0
  0
LINE
  5
60E62
330
17
100
AcDbEntity
  8
0
 48
2.0
100
AcDbLine
 10
523.083101750953
 20
154.3690446330868
 30
0.0
 11
522.0928297482828
 21
154.3690443673133
 31
0.0
  0
LINE
  5
60E63
330
17
100
AcDbEntity
  8
0
 48
2.0
100
AcDbLine
 10
513.7899544041947
 20
154.3690421389508
 30
0.0
 11
508.0399512635136
 21
154.3690405957393
 31
0.0
  0
LINE
  5
60E64
330
17
100
AcDbEntity
  8
0
 48
2.0
100
AcDbLine
 10
507.0399554106493
 20
155.369036448614
 30
0.0
 11
507.039953397762
 21
162.8690405829282
 31
0.0
  0
LINE
  5
60E65
330
17
100
AcDbEntity
  8
0
 48
2.0
100
AcDbLine
 10
508.0399526054224
 20
163.8690397905887
 30
0.0
 11
507.039953397762
 21
162.8690405829282
 31
0.0
  0
LINE
  5
60E66
330
17
100
AcDbEntity
  8
0
 48
2.0
100
AcDbLine
 10
508.0399526054248
 20
154.3690392538281
 30
0.0
 11
507.039953397762
 21
155.3690384614913
 31
0.0
  0
LINE
  5
60E67
330
17
100
AcDbEntity
  8
0
 48
2.0
100
AcDbLine
 10
508.0399526054248
 20
154.3690392538281
 30
0.0
 11
508.0399500557696
 21
163.8690397905832
 31
0.0
  0
LINE
  5
60E68
330
17
100
AcDbEntity
  8
0
 48
2.0
100
AcDbLine
 10
529.3399544042062
 20
170.119046231828
 30
0.0
 11
529.3399544042013
 21
148.1190462318243
 31
0.0
  0
LINE
  5
60E69
330
17
100
AcDbEntity
  8
0
 48
2.0
100
AcDbLine
 10
527.7399544041964
 20
170.1190462318252
 30
0.0
 11
527.7399544041959
 21
148.1190462318266
 31
0.0
  0
LINE
  5
60E6A
330
17
100
AcDbEntity
  8
0
 48
2.0
100
AcDbLine
 10
527.7399544041964
 20
170.1190462318252
 30
0.0
 11
529.3399544042062
 21
170.119046231828
 31
0.0
  0
LINE
  5
60E6B
330
17
100
AcDbEntity
  8
0
 48
2.0
100
AcDbLine
 10
527.7399544041959
 20
148.1190462318266
 30
0.0
 11
529.3399544042013
 21
148.1190462318243
 31
0.0
  0
LINE
  5
60E6C
330
17
100
AcDbEntity
  8
0
100
AcDbLine
 10
625.0679748342932
 20
142.7190462318263
 30
0.0
 11
625.0679748342932
 21
143.2326526826198
 31
0.0
  0
LINE
  5
60E6D
330
17
100
AcDbEntity
  8
0
100
AcDbLine
 10
600.7679748342925
 20
142.7190462318263
 30
0.0
 11
600.7679748342925
 21
143.2326526826193
 31
0.0
  0
LINE
  5
60E6E
330
17
100
AcDbEntity
  8
0
100
AcDbLine
 10
625.8185301842391
 20
142.7190462318263
 30
0.0
 11
625.8185301842391
 21
143.835863590006
 31
0.0
  0
LINE
  5
60E6F
330
17
100
AcDbEntity
  8
0
100
AcDbLine
 10
600.0174194843467
 20
142.7190462318263
 30
0.0
 11
600.0174194843467
 21
143.8358635900056
 31
0.0
  0
LINE
  5
60E70
330
17
100
AcDbEntity
  8
0
100
AcDbLine
 10
632.9179748342926
 20
134.1190462318263
 30
0.0
 11
632.9179748342926
 21
177.6190462318261
 31
0.0
  0
LINE
  5
60E71
330
17
100
AcDbEntity
  8
0
100
AcDbLine
 10
627.5505809918081
 20
142.7190462318263
 30
0.0
 11
627.5505809918081
 21
145.7007079282985
 31
0.0
  0
LINE
  5
60E72
330
17
100
AcDbEntity
  8
0
100
AcDbLine
 10
592.9179748342926
 20
134.1190462318263
 30
0.0
 11
592.9179748342926
 21
177.6190462318261
 31
0.0
  0
LINE
  5
60E73
330
17
100
AcDbEntity
  8
0
100
AcDbLine
 10
598.2853686767775
 20
142.7190462318263
 30
0.0
 11
598.2853686767775
 21
145.7007079282973
 31
0.0
  0
ARC
  5
60E74
330
17
100
AcDbEntity
  8
0
100
AcDbCircle
 10
627.9179748342926
 20
177.6190462318261
 30
0.0
 40
5.0
100
AcDbArc
 50
0.0
 51
72.54239687628085
  0
ARC
  5
60E75
330
17
100
AcDbEntity
  8
0
100
AcDbCircle
 10
597.9179748342926
 20
177.6190462318261
 30
0.0
 40
5.0
100
AcDbArc
 50
107.4576031237325
 51
180.0
  0
ARC
  5
60E76
330
17
100
AcDbEntity
  8
0
100
AcDbCircle
 10
627.5505809918081
 20
145.1190462318263
 30
0.0
 40
2.000000000000011
100
AcDbArc
 50
216.2316070091928
 51
270.0
  0
LINE
  5
60E77
330
17
100
AcDbEntity
  8
0
100
AcDbLine
 10
632.9179748342926
 20
143.1190462318263
 30
0.0
 11
627.5505809918081
 21
143.1190462318263
 31
0.0
  0
ARC
  5
60E78
330
17
100
AcDbEntity
  8
0
100
AcDbCircle
 10
598.2853686767775
 20
145.1190462318263
 30
0.0
 40
2.000000000000023
100
AcDbArc
 50
270.0
 51
323.7683929908072
  0
LINE
  5
60E79
330
17
100
AcDbEntity
  8
0
100
AcDbLine
 10
592.9179748342926
 20
143.1190462318263
 30
0.0
 11
598.2853686767775
 21
143.1190462318263
 31
0.0
  0
LINE
  5
60E7A
330
17
100
AcDbEntity
  8
0
100
AcDbLine
 10
598.0179748342925
 20
189.6190462318261
 30
0.0
 11
596.4179748342926
 21
189.6190462318261
 31
0.0
  0
LINE
  5
60E7B
330
17
100
AcDbEntity
  8
0
100
AcDbLine
 10
598.0179748342925
 20
169.1440769444232
 30
0.0
 11
596.4179748342926
 21
169.1440769444232
 31
0.0
  0
LINE
  5
60E7C
330
17
100
AcDbEntity
  8
0
100
AcDbLine
 10
596.4179748342926
 20
189.6190462318261
 30
0.0
 11
596.4179748342921
 21
156.1190462318275
 31
0.0
  0
LINE
  5
60E7D
330
17
100
AcDbEntity
  8
0
100
AcDbLine
 10
596.4179748342917
 20
153.1190462318275
 30
0.0
 11
596.4179748342921
 21
151.5197041550329
 31
0.0
  0
LINE
  5
60E7E
330
17
100
AcDbEntity
  8
0
100
AcDbLine
 10
627.8179748342927
 20
169.1440769444232
 30
0.0
 11
629.4179748342926
 21
169.1440769444232
 31
0.0
  0
LINE
  5
60E7F
330
17
100
AcDbEntity
  8
0
100
AcDbLine
 10
627.8179748342927
 20
189.6190462318261
 30
0.0
 11
629.4179748342926
 21
189.6190462318261
 31
0.0
  0
LINE
  5
60E80
330
17
100
AcDbEntity
  8
0
100
AcDbLine
 10
598.0179748342943
 20
173.0190462318271
 30
0.0
 11
627.8179748342927
 21
173.0190462318276
 31
0.0
  0
LINE
  5
60E81
330
17
100
AcDbEntity
  8
0
100
AcDbLine
 10
598.0179748342957
 20
185.6190462318261
 30
0.0
 11
627.8179748342932
 21
185.6190462318266
 31
0.0
  0
LINE
  5
60E82
330
17
100
AcDbEntity
  8
0
100
AcDbLine
 10
598.0179748342925
 20
156.1190462318275
 30
0.0
 11
596.4179748342926
 21
156.1190462318275
 31
0.0
  0
LINE
  5
60E83
330
17
100
AcDbEntity
  8
0
100
AcDbLine
 10
629.4179748342926
 20
156.1190462318275
 30
0.0
 11
627.8179748342927
 21
156.1190462318275
 31
0.0
  0
LINE
  5
60E84
330
17
100
AcDbEntity
  8
0
100
AcDbLine
 10
629.4179748342926
 20
189.6190462318261
 30
0.0
 11
629.4179748342926
 21
156.1190462318275
 31
0.0
  0
LINE
  5
60E85
330
17
100
AcDbEntity
  8
0
100
AcDbLine
 10
629.4179748342926
 20
153.1190462318275
 30
0.0
 11
629.4179748342926
 21
151.519704155032
 31
0.0
  0
ARC
  5
60E86
330
17
100
AcDbEntity
  8
0
100
AcDbCircle
 10
628.4179748342926
 20
153.1190462318275
 30
0.0
 40
1.0
100
AcDbArc
 50
0.0
 51
90.0
  0
ARC
  5
60E87
330
17
100
AcDbEntity
  8
0
 48
2.0
100
AcDbCircle
 10
612.9179748342926
 20
159.1190462318175
 30
0.0
 40
20.0
100
AcDbArc
 50
229.4583981264556
 51
310.5416018735444
  0
ARC
  5
60E88
330
17
100
AcDbEntity
  8
0
 48
2.0
100
AcDbCircle
 10
619.4179748342926
 20
151.519704155032
 30
0.0
 40
10.0
100
AcDbArc
 50
310.5416018735444
 51
0.0
  0
ARC
  5
60E89
330
17
100
AcDbEntity
  8
0
 48
2.0
100
AcDbCircle
 10
606.4179748342917
 20
151.5197041550329
 30
0.0
 40
10.0
100
AcDbArc
 50
180.0
 51
229.4583981264556
  0
LINE
  5
60E8A
330
17
100
AcDbEntity
  8
0
 48
2.0
100
AcDbLine
 10
628.4179748342926
 20
154.1190462318275
 30
0.0
 11
627.8179748342932
 21
154.1190462318275
 31
0.0
  0
LINE
  5
60E8B
330
17
100
AcDbEntity
  8
0
 48
2.0
100
AcDbLine
 10
627.8179748342922
 20
154.119046231827
 30
0.0
 11
627.8179748342927
 21
189.6190462318261
 31
0.0
  0
ARC
  5
60E8C
330
17
100
AcDbEntity
  8
0
100
AcDbCircle
 10
597.4179748342926
 20
153.1190462318275
 30
0.0
 40
1.0
100
AcDbArc
 50
90.0
 51
180.0
  0
LINE
  5
60E8D
330
17
100
AcDbEntity
  8
0
 48
2.0
100
AcDbLine
 10
598.017974834292
 20
154.1190462318275
 30
0.0
 11
597.4179748342926
 21
154.1190462318275
 31
0.0
  0
LINE
  5
60E8E
330
17
100
AcDbEntity
  8
0
 48
2.0
100
AcDbLine
 10
598.017974834292
 20
154.119046231827
 30
0.0
 11
598.0179748342966
 21
189.6190462318261
 31
0.0
  0
ELLIPSE
  5
60E8F
330
17
100
AcDbEntity
  8
0
100
AcDbEllipse
 10
598.1947793553422
 20
179.3190462318378
 30
0.0
 11
-0.7696473590798954
 21
6.68815555493424
 31
0.0
210
0.0
220
0.0
230
1.0
 40
0.5173994353
 41
4.045099895392805
 42
5.260737786697648
  0
ELLIPSE
  5
60E90
330
17
100
AcDbEntity
  8
0
100
AcDbEllipse
 10
603.9411703132923
 20
179.3190462318378
 30
0.0
 11
-0.7696473590798673
 21
6.68815555493424
 31
0.0
210
0.0
220
0.0
230
1.0
 40
0.5173994353
 41
0.9035072418029926
 42
2.119145133107851
  0
LINE
  5
60E91
330
17
100
AcDbEntity
  8
0
100
AcDbLine
 10
601.3892719492424
 20
175.4928209378879
 30
0.0
 11
600.7466777193926
 21
183.1452715257881
 31
0.0
  0
ELLIPSE
  5
60E92
330
17
100
AcDbEntity
  8
0
100
AcDbEllipse
 10
613.9947793553424
 20
179.3190462318378
 30
0.0
 11
-0.7696473590798807
 21
6.688155554934239
 31
0.0
210
0.0
220
0.0
230
1.0
 40
0.5173994353
 41
4.045099895392802
 42
5.260737786697652
  0
ELLIPSE
  5
60E93
330
17
100
AcDbEntity
  8
0
100
AcDbEllipse
 10
619.7411703132924
 20
179.3190462318378
 30
0.0
 11
-0.7696473590798954
 21
6.68815555493424
 31
0.0
210
0.0
220
0.0
230
1.0
 40
0.5173994353
 41
0.9035072418029987
 42
2.119145133107841
  0
ELLIPSE
  5
60E94
330
17
100
AcDbEntity
  8
0
100
AcDbEllipse
 10
606.0947793553427
 20
179.3190462318378
 30
0.0
 11
-0.7696473590798522
 21
6.68815555493424
 31
0.0
210
0.0
220
0.0
230
1.0
 40
0.5173994353
 41
4.045099895392806
 42
5.260737786697658
  0
ELLIPSE
  5
60E95
330
17
100
AcDbEntity
  8
0
100
AcDbEllipse
 10
611.8411703132928
 20
179.3190462318378
 30
0.0
 11
-0.7696473590798673
 21
6.68815555493424
 31
0.0
210
0.0
220
0.0
230
1.0
 40
0.5173994353
 41
0.9035072418029947
 42
2.119145133107846
  0
LINE
  5
60E96
330
17
100
AcDbEntity
  8
0
100
AcDbLine
 10
609.2892719492424
 20
175.4928209378879
 30
0.0
 11
608.6466777193923
 21
183.1452715257881
 31
0.0
  0
LINE
  5
60E97
330
17
100
AcDbEntity
  8
0
100
AcDbLine
 10
617.1892719492425
 20
175.4928209378879
 30
0.0
 11
616.5466777193928
 21
183.1452715257881
 31
0.0
  0
ELLIPSE
  5
60E98
330
17
100
AcDbEntity
  8
0
100
AcDbEllipse
 10
621.894779355343
 20
179.3190462318378
 30
0.0
 11
-0.7696473590798673
 21
6.68815555493424
 31
0.0
210
0.0
220
0.0
230
1.0
 40
0.5173994353
 41
4.045099895392805
 42
5.260737786697653
  0
ELLIPSE
  5
60E99
330
17
100
AcDbEntity
  8
0
100
AcDbEllipse
 10
627.641170313293
 20
179.3190462318378
 30
0.0
 11
-0.7696473590798673
 21
6.68815555493424
 31
0.0
210
0.0
220
0.0
230
1.0
 40
0.5173994353
 41
0.9035072418029967
 42
2.119145133107851
  0
LINE
  5
60E9A
330
17
100
AcDbEntity
  8
0
100
AcDbLine
 10
625.0892719492426
 20
175.4928209378879
 30
0.0
 11
624.4466777193925
 21
183.1452715257881
 31
0.0
  0
CIRCLE
  5
60E9B
330
17
100
AcDbEntity
  8
0
 48
2.0
100
AcDbCircle
 10
612.9179748343154
 20
159.1190462318625
 30
0.0
 40
12.00000000000136
  0
LINE
  5
60E9C
330
17
100
AcDbEntity
  8
0
100
AcDbLine
 10
627.8179748342891
 20
117.8190462318266
 30
0.0
 11
629.4179748342876
 21
117.8190462318266
 31
0.0
  0
LINE
  5
60E9D
330
17
100
AcDbEntity
  8
0
100
AcDbLine
 10
596.4179748342985
 20
117.8190462318264
 30
0.0
 11
598.0179748342971
 21
117.8190462318264
 31
0.0
  0
LINE
  5
60E9E
330
17
100
AcDbEntity
  8
0
100
AcDbLine
 10
625.3926552949315
 20
121.8190462318264
 30
0.0
 11
627.8179748342891
 21
121.8190462318264
 31
0.0
  0
LINE
  5
60E9F
330
17
100
AcDbEntity
  8
0
100
AcDbLine
 10
601.6926552949343
 20
121.8190462318264
 30
0.0
 11
601.9179748342928
 21
121.8190462318264
 31
0.0
  0
LINE
  5
60EA0
330
17
100
AcDbEntity
  8
0
100
AcDbLine
 10
598.0179748342971
 20
121.8190462318264
 30
0.0
 11
600.4432943736446
 21
121.8190462318262
 31
0.0
  0
LINE
  5
60EA1
330
17
100
AcDbEntity
  8
0
100
AcDbLine
 10
598.0179748342971
 20
132.1190462318266
 30
0.0
 11
627.8179748342891
 21
132.1190462318266
 31
0.0
  0
LINE
  5
60EA2
330
17
100
AcDbEntity
  8
0
100
AcDbLine
 10
627.8179748342891
 20
130.519046231826
 30
0.0
 11
598.0179748342971
 21
130.5190462318262
 31
0.0
  0
LINE
  5
60EA3
330
17
100
AcDbEntity
  8
0
100
AcDbLine
 10
629.4179748342876
 20
126.5190462318264
 30
0.0
 11
627.8179748342891
 21
126.5190462318264
 31
0.0
  0
ARC
  5
60EA4
330
17
100
AcDbEntity
  8
0
100
AcDbCircle
 10
627.8179748342891
 20
130.5190462318264
 30
0.0
 40
1.600000000000008
100
AcDbArc
 50
0.0
 51
90.0
  0
ARC
  5
60EA5
330
17
100
AcDbEntity
  8
0
100
AcDbCircle
 10
598.0179748342971
 20
130.5190462318262
 30
0.0
 40
1.600000000000008
100
AcDbArc
 50
90.0
 51
180.0
  0
LINE
  5
60EA6
330
17
100
AcDbEntity
  8
0
100
AcDbLine
 10
598.0179748342971
 20
126.5190462318262
 30
0.0
 11
596.4179748342985
 21
126.5190462318262
 31
0.0
  0
LINE
  5
60EA7
330
17
100
AcDbEntity
  8
0
100
AcDbLine
 10
627.8179748342891
 20
117.8190462318266
 30
0.0
 11
627.8179748342891
 21
132.1190462318268
 31
0.0
  0
LINE
  5
60EA8
330
17
100
AcDbEntity
  8
0
100
AcDbLine
 10
598.0179748342971
 20
117.8190462318264
 30
0.0
 11
598.0179748342971
 21
132.1190462318266
 31
0.0
  0
LINE
  5
60EA9
330
17
100
AcDbEntity
  8
0
100
AcDbLine
 10
600.4432943736437
 20
121.8190462318262
 30
0.0
 11
601.0679748343327
 21
123.0190462318262
 31
0.0
  0
LINE
  5
60EAA
330
17
100
AcDbEntity
  8
0
100
AcDbLine
 10
601.0679748343327
 20
123.0190462318262
 30
0.0
 11
601.6926552949343
 21
121.8190462318264
 31
0.0
  0
LINE
  5
60EAB
330
17
100
AcDbEntity
  8
0
100
AcDbLine
 10
624.7679748343298
 20
123.0190462318262
 30
0.0
 11
625.3926552949315
 21
121.8190462318264
 31
0.0
  0
LINE
  5
60EAC
330
17
100
AcDbEntity
  8
0
100
AcDbLine
 10
628.9798698381355
 20
131.6190462318268
 30
0.0
 11
629.4179748342876
 21
131.6190462318268
 31
0.0
  0
LINE
  5
60EAD
330
17
100
AcDbEntity
  8
0
100
AcDbLine
 10
629.4179748342876
 20
131.6190462318268
 30
0.0
 11
629.4179748342803
 21
117.8190462318266
 31
0.0
  0
LINE
  5
60EAE
330
17
100
AcDbEntity
  8
0
100
AcDbLine
 10
596.4179748342985
 20
131.6190462318266
 30
0.0
 11
596.8560798303997
 21
131.6190462318266
 31
0.0
  0
LINE
  5
60EAF
330
17
100
AcDbEntity
  8
0
100
AcDbLine
 10
596.4179748342912
 20
117.8190462318264
 30
0.0
 11
596.4179748342985
 21
131.6190462318266
 31
0.0
  0
LINE
  5
60EB0
330
17
100
AcDbEntity
  8
0
 48
2.0
100
AcDbLine
 10
622.9179748342949
 20
128.5190462318255
 30
0.0
 11
602.9179748342921
 21
128.5190462318257
 31
0.0
  0
LINE
  5
60EB1
330
17
100
AcDbEntity
  8
0
100
AcDbLine
 10
632.917974834293
 20
132.1190462318266
 30
0.0
 11
592.9179748342931
 21
132.1190462318266
 31
0.0
  0
LINE
  5
60EB2
330
17
100
AcDbEntity
  8
0
100
AcDbLine
 10
630.9179748342931
 20
142.7190462318265
 30
0.0
 11
624.3652452513088
 21
142.7190462318265
 31
0.0
  0
LINE
  5
60EB3
330
17
100
AcDbEntity
  8
0
100
AcDbLine
 10
601.4707044172764
 20
142.7190462318265
 30
0.0
 11
594.917974834293
 21
142.7190462318265
 31
0.0
  0
LINE
  5
60EB4
330
17
100
AcDbEntity
  8
0
100
AcDbLine
 10
630.9179748342931
 20
138.4190462318265
 30
0.0
 11
594.917974834293
 21
138.4190462318265
 31
0.0
  0
ARC
  5
60EB5
330
17
100
AcDbEntity
  8
0
100
AcDbCircle
 10
630.9179748342931
 20
140.7190462318265
 30
0.0
 40
2.000000000000007
100
AcDbArc
 50
0.0
 51
90.0
  0
LINE
  5
60EB6
330
17
100
AcDbEntity
  8
0
100
AcDbLine
 10
632.917974834293
 20
132.1190462318266
 30
0.0
 11
632.917974834293
 21
140.7190462318265
 31
0.0
  0
ARC
  5
60EB7
330
17
100
AcDbEntity
  8
0
100
AcDbCircle
 10
594.917974834293
 20
140.7190462318265
 30
0.0
 40
2.000000000000007
100
AcDbArc
 50
90.0
 51
180.0
  0
LINE
  5
60EB8
330
17
100
AcDbEntity
  8
0
100
AcDbLine
 10
592.9179748342931
 20
132.1190462318266
 30
0.0
 11
592.9179748342931
 21
140.7190462318265
 31
0.0
  0
ELLIPSE
  5
60EB9
330
17
100
AcDbEntity
  8
0
100
AcDbEllipse
 10
610.2059315926226
 20
138.4190462318265
 30
0.0
 11
-2.315200213171722
 21
-6.236784378126628
 31
0.0
210
0.0
220
0.0
230
1.0
 40
0.3845180504772334
 41
5.108583916158045
 42
6.170554144683866
  0
ELLIPSE
  5
60EBA
330
17
100
AcDbEntity
  8
0
100
AcDbEllipse
 10
604.5300180759632
 20
138.4190462318265
 30
0.0
 11
2.915394302557657
 21
-6.254804632747521
 31
0.0
210
0.0
220
0.0
230
1.0
 40
0.2583774683881715
 41
0.1345592910691981
 42
1.196529519594988
  0
LINE
  5
60EBB
330
17
100
AcDbEntity
  8
0
100
AcDbLine
 10
607.6358645276687
 20
132.3218357684968
 30
0.0
 11
607.1000851409171
 21
136.8334786470598
 31
0.0
  0
ELLIPSE
  5
60EBC
330
17
100
AcDbEntity
  8
0
100
AcDbEllipse
 10
600.7059315926226
 20
138.4190462318265
 30
0.0
 11
-2.315200213171722
 21
-6.236784378126628
 31
0.0
210
0.0
220
0.0
230
1.0
 40
0.3845180504772314
 41
5.108583916158043
 42
6.170554144683859
  0
ELLIPSE
  5
60EBD
330
17
100
AcDbEntity
  8
0
100
AcDbEllipse
 10
595.0300180759632
 20
138.4190462318265
 30
0.0
 11
2.915394302557657
 21
-6.254804632747521
 31
0.0
210
0.0
220
0.0
230
1.0
 40
0.2583774683881715
 41
0.1345592910691911
 42
1.196529519594988
  0
LINE
  5
60EBE
330
17
100
AcDbEntity
  8
0
100
AcDbLine
 10
598.1358645276686
 20
132.3218357684968
 30
0.0
 11
597.6000851409171
 21
136.8334786470598
 31
0.0
  0
ELLIPSE
  5
60EBF
330
17
100
AcDbEntity
  8
0
100
AcDbEllipse
 10
621.305931592623
 20
138.4190462318265
 30
0.0
 11
-2.315200213171722
 21
-6.236784378126628
 31
0.0
210
0.0
220
0.0
230
1.0
 40
0.3845180504772334
 41
5.108583916158045
 42
6.170554144683866
  0
ELLIPSE
  5
60EC0
330
17
100
AcDbEntity
  8
0
100
AcDbEllipse
 10
615.6300180759635
 20
138.4190462318265
 30
0.0
 11
2.915394302557657
 21
-6.254804632747521
 31
0.0
210
0.0
220
0.0
230
1.0
 40
0.2583774683881715
 41
0.1345592910691981
 42
1.196529519594988
  0
LINE
  5
60EC1
330
17
100
AcDbEntity
  8
0
100
AcDbLine
 10
618.735864527669
 20
132.3218357684968
 30
0.0
 11
618.2000851409175
 21
136.8334786470598
 31
0.0
  0
ELLIPSE
  5
60EC2
330
17
100
AcDbEntity
  8
0
100
AcDbEllipse
 10
630.805931592623
 20
138.4190462318265
 30
0.0
 11
-2.315200213171722
 21
-6.236784378126628
 31
0.0
210
0.0
220
0.0
230
1.0
 40
0.3845180504772334
 41
5.108583916158045
 42
6.170554144683866
  0
ELLIPSE
  5
60EC3
330
17
100
AcDbEntity
  8
0
100
AcDbEllipse
 10
625.1300180759635
 20
138.4190462318265
 30
0.0
 11
2.915394302557657
 21
-6.254804632747521
 31
0.0
210
0.0
220
0.0
230
1.0
 40
0.2583774683881715
 41
0.1345592910691981
 42
1.196529519594988
  0
LINE
  5
60EC4
330
17
100
AcDbEntity
  8
0
100
AcDbLine
 10
628.235864527669
 20
132.3218357684968
 30
0.0
 11
627.7000851409175
 21
136.8334786470598
 31
0.0
  0
LINE
  5
60EC5
330
17
100
AcDbEntity
  8
0
 48
2.0
100
AcDbLine
 10
612.9179748343154
 20
149.3040913939369
 30
0.0
 11
621.4179750609559
 21
154.2115688128997
 31
0.0
  0
LINE
  5
60EC6
330
17
100
AcDbEntity
  8
0
 48
2.0
100
AcDbLine
 10
621.4179750609559
 20
154.2115688128997
 30
0.0
 11
621.4179750609559
 21
164.0265236508253
 31
0.0
  0
LINE
  5
60EC7
330
17
100
AcDbEntity
  8
0
 48
2.0
100
AcDbLine
 10
621.4179750609559
 20
164.0265236508253
 30
0.0
 11
612.9179748343154
 21
168.9340010697888
 31
0.0
  0
LINE
  5
60EC8
330
17
100
AcDbEntity
  8
0
 48
2.0
100
AcDbLine
 10
612.9179748343154
 20
168.9340010697888
 30
0.0
 11
604.4179746076747
 21
164.0265236508255
 31
0.0
  0
LINE
  5
60EC9
330
17
100
AcDbEntity
  8
0
 48
2.0
100
AcDbLine
 10
604.4179746076747
 20
164.0265236508255
 30
0.0
 11
604.4179746076747
 21
154.2115688128995
 31
0.0
  0
LINE
  5
60ECA
330
17
100
AcDbEntity
  8
0
 48
2.0
100
AcDbLine
 10
604.4179746076747
 20
154.2115688128995
 30
0.0
 11
612.9179748343154
 21
149.3040913939367
 31
0.0
  0
CIRCLE
  5
60ECB
330
17
100
AcDbEntity
  8
0
 48
2.0
100
AcDbCircle
 10
612.9179748343154
 20
159.1190462318625
 30
0.0
 40
8.500000226640622
  0
CIRCLE
  5
60ECC
330
17
100
AcDbEntity
  8
0
 48
2.0
100
AcDbCircle
 10
612.9179748343154
 20
159.1190462318625
 30
0.0
 40
11.00000000000182
  0
LINE
  5
60ECD
330
17
100
AcDbEntity
  8
0
 48
2.0
100
AcDbLine
 10
617.1679749476129
 20
114.9190478829391
 30
0.0
 11
608.6679747209732
 21
114.9190478829393
 31
0.0
  0
LINE
  5
60ECE
330
17
100
AcDbEntity
  8
0
 48
2.0
100
AcDbLine
 10
621.4179750609341
 20
120.9190462319452
 30
0.0
 11
621.4179750609332
 21
115.596879179239
 31
0.0
  0
LINE
  5
60ECF
330
17
100
AcDbEntity
  8
0
 48
2.0
100
AcDbLine
 10
604.4179746076533
 20
120.9190462319452
 30
0.0
 11
604.4179746076524
 21
115.5968791792393
 31
0.0
  0
LINE
  5
60ED0
330
17
100
AcDbEntity
  8
0
 48
2.0
100
AcDbLine
 10
612.9179748342967
 20
115.5968791792399
 30
0.0
 11
612.9179748342931
 21
120.9190462319438
 31
0.0
  0
ARC
  5
60ED1
330
17
100
AcDbEntity
  8
0
 48
2.0
100
AcDbCircle
 10
617.1679749476129
 20
128.58170725746
 30
0.0
 40
13.6626593745207
100
AcDbArc
 50
251.8764657449767
 51
288.1235342550232
  0
ARC
  5
60ED2
330
17
100
AcDbEntity
  8
0
 48
2.0
100
AcDbCircle
 10
608.6679747209732
 20
128.58170725746
 30
0.0
 40
13.6626593745207
100
AcDbArc
 50
251.8764657449623
 51
288.1235342550377
  0
LINE
  5
60ED3
330
17
100
AcDbEntity
  8
0
 48
2.0
100
AcDbLine
 10
621.4179750609341
 20
120.9190462319452
 30
0.0
 11
604.4179746076529
 21
120.9190462319479
 31
0.0
  0
LINE
  5
60ED4
330
17
100
AcDbEntity
  8
0
 48
2.0
100
AcDbLine
 10
601.9179748342913
 20
120.9190462319416
 30
0.0
 11
623.9179748342949
 21
120.9190462319466
 31
0.0
  0
LINE
  5
60ED5
330
17
100
AcDbEntity
  8
0
 48
2.0
100
AcDbLine
 10
601.9179748342939
 20
122.5190462319517
 30
0.0
 11
623.9179748342926
 21
122.5190462319517
 31
0.0
  0
LINE
  5
60ED6
330
17
100
AcDbEntity
  8
0
 48
2.0
100
AcDbLine
 10
601.9179748342939
 20
122.5190462319517
 30
0.0
 11
601.9179748342913
 21
120.9190462319416
 31
0.0
  0
LINE
  5
60ED7
330
17
100
AcDbEntity
  8
0
 48
2.0
100
AcDbLine
 10
623.9179748342926
 20
122.5190462319517
 30
0.0
 11
623.9179748342949
 21
120.9190462319466
 31
0.0
  0
ARC
  5
60ED8
330
17
100
AcDbEntity
  8
0
 48
2.0
100
AcDbCircle
 10
608.4179852240991
 20
123.0190462319528
 30
0.0
 40
0.5
100
AcDbArc
 50
90.00000000005213
 51
270.0
  0
LINE
  5
60ED9
330
17
100
AcDbEntity
  8
0
 48
2.0
100
AcDbLine
 10
608.4179852240918
 20
123.519046231944
 30
0.0
 11
618.4559292793315
 21
123.5190462319504
 31
0.0
  0
LINE
  5
60EDA
330
17
100
AcDbEntity
  8
0
 48
2.0
100
AcDbLine
 10
608.1679759187704
 20
123.4520535612778
 30
0.0
 11
608.1679762540889
 21
124.2352558617469
 31
0.0
  0
LINE
  5
60EDB
330
17
100
AcDbEntity
  8
0
 48
2.0
100
AcDbLine
 10
608.1679766827651
 20
125.236513775302
 30
0.0
 11
608.1679770836085
 21
126.1727634685539
 31
0.0
  0
LINE
  5
60EDC
330
17
100
AcDbEntity
  8
0
 48
2.0
100
AcDbLine
 10
617.6679755321056
 20
123.5190462319499
 30
0.0
 11
617.6679758522496
 21
124.7119027931419
 31
0.0
  0
LINE
  5
60EDD
330
17
100
AcDbEntity
  8
0
 48
2.0
100
AcDbLine
 10
617.6679761209716
 20
125.7131606986718
 30
0.0
 11
617.6679764463665
 21
126.9255821697923
 31
0.0
  0
LINE
  5
60EDE
330
17
100
AcDbEntity
  8
0
 48
2.0
100
AcDbLine
 10
617.6679767155924
 20
127.9287170893722
 30
0.0
 11
617.6679768740273
 21
128.5190462319519
 31
0.0
  0
ARC
  5
60EDF
330
17
100
AcDbEntity
  8
0
 48
2.0
100
AcDbCircle
 10
606.417985224099
 20
126.5356544242843
 30
0.0
 40
0.5
100
AcDbArc
 50
94.53088303450746
 51
274.5308830345207
  0
ARC
  5
60EE0
330
17
100
AcDbEntity
  8
0
 48
2.0
100
AcDbCircle
 10
607.417985224094
 20
124.6982552353345
 30
0.0
 40
0.5
100
AcDbArc
 50
92.87231335648201
 51
272.872313356482
  0
ARC
  5
60EE1
330
17
100
AcDbEntity
  8
0
 48
2.0
100
AcDbCircle
 10
618.4179852240986
 20
123.0190462319517
 30
0.0
 40
0.5
100
AcDbArc
 50
270.0
 51
81.3204993646846
  0
ARC
  5
60EE2
330
17
100
AcDbEntity
  8
0
 48
2.0
100
AcDbCircle
 10
619.4179852240986
 20
125.3003355951957
 30
0.0
 40
0.5
100
AcDbArc
 50
272.872313356482
 51
92.87231335648201
  0
ARC
  5
60EE3
330
17
100
AcDbEntity
  8
0
 48
2.0
100
AcDbCircle
 10
620.4179852240908
 20
127.6450715321057
 30
0.0
 40
0.5
100
AcDbArc
 50
274.5308830345207
 51
94.53088303452069
  0
LINE
  5
60EE4
330
17
100
AcDbEntity
  8
0
 48
2.0
100
AcDbLine
 10
608.1679761867508
 20
124.0779727284159
 30
0.0
 11
607.3425316511747
 21
124.2039812644097
 31
0.0
  0
LINE
  5
60EE5
330
17
100
AcDbEntity
  8
0
 48
2.0
100
AcDbLine
 10
618.4934387970179
 20
123.5133202028764
 30
0.0
 11
617.6679755643886
 21
123.6393315930756
 31
0.0
  0
LINE
  5
60EE6
330
17
100
AcDbEntity
  8
0
 48
2.0
100
AcDbLine
 10
607.4430403890623
 20
124.198883391206
 30
0.0
 11
619.4430403890669
 21
124.8009637510672
 31
0.0
  0
LINE
  5
60EE7
330
17
100
AcDbEntity
  8
0
 48
2.0
100
AcDbLine
 10
607.3929300591258
 20
125.197627079463
 30
0.0
 11
619.3929300591303
 21
125.7997074393242
 31
0.0
  0
LINE
  5
60EE8
330
17
100
AcDbEntity
  8
0
 48
2.0
100
AcDbLine
 10
608.1679769527468
 20
125.8671099489072
 30
0.0
 11
606.3706860293727
 21
126.0378966657529
 31
0.0
  0
LINE
  5
60EE9
330
17
100
AcDbEntity
  8
0
 48
2.0
100
AcDbLine
 10
619.4652844188249
 20
125.7980933537271
 30
0.0
 11
617.6679761896029
 21
125.9688817150531
 31
0.0
  0
LINE
  5
60EEA
330
17
100
AcDbEntity
  8
0
 48
2.0
100
AcDbLine
 10
606.457483440774
 20
126.0372169749698
 30
0.0
 11
620.4574834407658
 21
127.1466340827908
 31
0.0
  0
LINE
  5
60EEB
330
17
100
AcDbEntity
  8
0
 48
2.0
100
AcDbLine
 10
620.4427362169649
 20
128.1444585447038
 30
0.0
 11
617.6679768104031
 21
128.2819832471216
 31
0.0
  0
LINE
  5
60EEC
330
17
100
AcDbEntity
  8
0
 48
2.0
100
AcDbLine
 10
606.3784870074242
 20
127.0340918736001
 30
0.0
 11
620.378487007416
 21
128.1435089814206
 31
0.0
  0
LINE
  5
60EED
330
17
100
AcDbEntity
  8
0
 48
2.0
100
AcDbLine
 10
608.1679770836085
 20
127.1758983667998
 30
0.0
 11
608.1679770836085
 21
128.5190462318257
 31
0.0
  0
LINE
  5
60F0C
330
17
100
AcDbEntity
  8
0
100
AcDbLine
 10
534.6621188227113
 20
164.0265235857748
 30
0.0
 11
529.3399517700077
 21
164.0265235857798
 31
0.0
  0
ARC
  5
60F28
330
17
100
AcDbEntity
  8
0
 48
2.0
100
AcDbCircle
 10
622.9179748342949
 20
130.5190462318262
 30
0.0
 40
2.0
100
AcDbArc
 50
270.0
 51
0.0
  0
ARC
  5
60F29
330
17
100
AcDbEntity
  8
0
 48
2.0
100
AcDbCircle
 10
602.9179748342921
 20
130.5190462318262
 30
0.0
 40
2.0
100
AcDbArc
 50
180.0
 51
270.0
  0
LINE
  5
60F2A
330
17
100
AcDbEntity
  8
0
100
AcDbLine
 10
624.1432943737281
 20
121.8190462318264
 30
0.0
 11
623.9179748342936
 21
121.8190462318264
 31
0.0
  0
LINE
  5
60F2B
330
17
100
AcDbEntity
  8
0
100
AcDbLine
 10
624.7679748343298
 20
123.0190462318262
 30
0.0
 11
624.1432943737281
 21
121.8190462318264
 31
0.0
  0
ENDSEC
  0
SECTION
  2
OBJECTS
  0
DICTIONARY
  5
C
330
0
100
AcDbDictionary
281
     1
  3
ACAD_COLOR
350
28817
  3
ACAD_GROUP
350
D
  3
ACAD_LAYOUT
350
3F9A
  3
ACAD_MATERIAL
350
28816
  3
ACAD_MLEADERSTYLE
350
29393
  3
ACAD_MLINESTYLE
350
1A
  3
ACAD_PLOTSETTINGS
350
3F9B
  3
ACAD_PLOTSTYLENAME
350
3F98
  3
ACAD_SCALELIST
350
29381
  3
ACAD_TABLESTYLE
350
28818
  3
ACAD_VISUALSTYLE
350
29368
  3
ACDB_RECOMPOSE_DATA
350
610FA
  3
ACDBVARIABLEDICTIONARY
350
51
  3
DWGPROPS
350
610FB
  0
DICTIONARY
  5
2960C
330
8
100
AcDbDictionary
280
     1
281
     1
  0
DICTIONARY
  5
446D
330
2
100
AcDbDictionary
280
     1
281
     1
  3
ACAD_LAYERSTATES
360
446E
  0
DICTIONARY
  5
29522
330
E
100
AcDbDictionary
280
     1
281
     1
  3
ADSK_XREC_LAYER_RECONCILED
360
29523
  0
DICTIONARY
  5
4557E
330
4557D
100
AcDbDictionary
280
     1
281
     1
  3
ADSK_XREC_VTR_ANNOSCALE_DATA
360
4557F
  0
DICTIONARY
  5
29B65
330
17
100
AcDbDictionary
280
     1
281
     1
  3
ACAD_SORTENTS
360
29B66
  0
DICTIONARY
  5
28817
102
{ACAD_REACTORS
330
C
102
}
330
C
100
AcDbDictionary
281
     1
  0
DICTIONARY
  5
D
102
{ACAD_REACTORS
330
C
102
}
330
C
100
AcDbDictionary
281
     1
  3
*A1
350
2BA72
  3
*A10
350
45CDF
  3
*A11
350
45CE5
  3
*A12
350
2BAAB
  3
*A13
350
3E98C
  3
*A14
350
2C4BC
  3
*A15
350
3E9AE
  3
*A16
350
2C4D9
  3
*A17
350
45CE7
  3
*A18
350
45CE4
  3
*A19
350
45CE9
  3
*A2
350
45CDA
  3
*A20
350
2C3EE
  3
*A21
350
3E8F3
  3
*A22
350
2C443
  3
*A23
350
45CDB
  3
*A24
350
45CEB
  3
*A25
350
45CE8
  3
*A26
350
54FDA
  3
*A27
350
2C4E0
  3
*A28
350
417D8
  3
*A29
350
2BA74
  3
*A3
350
45CE0
  3
*A30
350
45CEF
  3
*A31
350
45CEC
  3
*A32
350
551F7
  3
*A33
350
45CDC
  3
*A34
350
3E925
  3
*A35
350
45CDD
  3
*A36
350
45CF2
  3
*A37
350
45CF0
  3
*A38
350
417D5
  3
*A39
350
45CE1
  3
*A4
350
2C4BD
  3
*A40
350
45CE2
  3
*A41
350
45CF5
  3
*A42
350
45CF3
  3
*A43
350
417DB
  3
*A44
350
5CDC0
  3
*A45
350
417D4
  3
*A46
350
45CED
  3
*A47
350
45CF6
  3
*A48
350
3E9A9
  3
*A49
350
45CE6
  3
*A5
350
417DA
  3
*A50
350
551F8
  3
*A51
350
45CF9
  3
*A52
350
2C412
  3
*A53
350
45CEA
  3
*A54
350
45CF8
  3
*A55
350
45CFB
  3
*A56
350
2BA73
  3
*A57
350
45CEE
  3
*A58
350
5720A
  3
*A59
350
45CFD
  3
*A6
350
3E9CA
  3
*A60
350
45CF1
  3
*A61
350
5720B
  3
*A62
350
417D7
  3
*A63
350
45CF4
  3
*A64
350
5720C
  3
*A65
350
4B597
  3
*A66
350
45CF7
  3
*A67
350
417D6
  3
*A68
350
4B5EB
  3
*A69
350
45CFA
  3
*A7
350
417E0
  3
*A70
350
417E5
  3
*A71
350
45CFC
  3
*A72
350
3E9C3
  3
*A73
350
3E91E
  3
*A74
350
2C48C
  3
*A75
350
4B596
  3
*A76
350
3E82F
  3
*A77
350
4B5D6
  3
*A78
350
45CDE
  3
*A79
350
2BAB6
  3
*A8
350
45CE3
  3
*A80
350
2C4CB
  3
*A81
350
417D3
  3
*A82
350
417D9
  3
*A83
350
3E970
  3
*A84
350
2C3C6
  3
*A9
350
50880
  0
DICTIONARY
  5
3F9A
102
{ACAD_REACTORS
330
C
102
}
330
C
100
AcDbDictionary
281
     1
  3
Model
350
3F9C
  3
ﾚｲｱｳﾄ1
350
3F9D
  0
DICTIONARY
  5
28816
102
{ACAD_REACTORS
330
C
102
}
330
C
100
AcDbDictionary
281
     1
  3
ByBlock
350
29358
  3
ByLayer
350
29350
  3
Global
350
29360
  0
DICTIONARY
  5
29393
102
{ACAD_REACTORS
330
C
102
}
330
C
100
AcDbDictionary
281
     1
  3
Standard
350
29394
  0
DICTIONARY
  5
1A
102
{ACAD_REACTORS
330
C
102
}
330
C
100
AcDbDictionary
281
     1
  3
STANDARD
350
1B
  0
DICTIONARY
  5
3F9B
102
{ACAD_REACTORS
330
C
102
}
330
C
100
AcDbDictionary
281
     1
  0
ACDBDICTIONARYWDFLT
  5
3F98
102
{ACAD_REACTORS
330
C
102
}
330
C
100
AcDbDictionary
281
     1
  3
Normal
350
3F99
100
AcDbDictionaryWithDefault
340
3F99
  0
DICTIONARY
  5
29381
102
{ACAD_REACTORS
330
C
102
}
330
C
100
AcDbDictionary
281
     1
  3
A0
350
29382
  3
A1
350
29383
  3
A2
350
29384
  3
A3
350
29385
  3
A4
350
29386
  3
A5
350
29387
  3
A6
350
29388
  3
A7
350
29389
  3
A8
350
2938A
  3
A9
350
2938B
  3
B0
350
2938C
  3
B1
350
2938D
  3
B2
350
2938E
  3
B3
350
2938F
  3
B4
350
29390
  3
B5
350
29391
  3
B6
350
29392
  0
DICTIONARY
  5
28818
102
{ACAD_REACTORS
330
C
102
}
330
C
100
AcDbDictionary
281
     1
  3
Standard
350
28819
  0
DICTIONARY
  5
29368
102
{ACAD_REACTORS
330
C
102
}
330
C
100
AcDbDictionary
281
     1
  3
2dWireframe
350
2936E
  3
3dWireframe
350
2E172
  3
Basic
350
2936D
  3
Brighten
350
29374
  3
ColorChange
350
29378
  3
Conceptual
350
29371
  3
Dim
350
29373
  3
EdgeColorOff
350
29380
  3
Facepattern
350
29377
  3
Flat
350
29369
  3
FlatWithEdges
350
2936A
  3
Gouraud
350
2936B
  3
GouraudWithEdges
350
2936C
  3
Hidden
350
29370
  3
JitterOff
350
2937E
  3
Linepattern
350
29376
  3
OverhangOff
350
2937F
  3
Realistic
350
29372
  3
Shaded
350
2937D
  3
Shaded with edges
350
2937C
  3
Shades of Gray
350
29379
  3
Sketchy
350
2937A
  3
Thicken
350
29375
  3
Wireframe
350
2936F
  3
X-Ray
350
2937B
  0
XRECORD
  5
610FA
102
{ACAD_REACTORS
330
C
102
}
330
C
100
AcDbXrecord
280
     1
 90
        1
330
28819
  0
DICTIONARY
  5
51
102
{ACAD_REACTORS
330
C
102
}
330
C
100
AcDbDictionary
281
     1
  3
CANNOSCALE
350
29648
  3
CMLEADERSTYLE
350
29647
  3
CTABLESTYLE
350
2882E
  3
DIMADEC
350
52
  3
DIMASSOC
350
2882F
  3
HPCOLOR
350
3288D
  3
INDEXCTL
350
29649
  3
PROJECTNAME
350
28830
  3
SORTENTS
350
40D7
  3
XCLIPFRAME
350
61039
  0
XRECORD
  5
610FB
102
{ACAD_REACTORS
330
C
102
}
330
C
100
AcDbXrecord
280
     1
  1
DWGPROPS COOKIE
  2

  3

  4

  6

  7

  8
ryuji.ikebe
  9

300
=
301
=
302
=
303
=
304
=
305
=
306
=
307
=
308
=
309
=
 40
8.529554571759259
 41
2451278.473218079
 42
2458464.438120417
  1

 90
        0
  0
DICTIONARY
  5
446E
102
{ACAD_REACTORS
330
446D
102
}
330
446D
100
AcDbDictionary
281
     1
  0
XRECORD
  5
29523
102
{ACAD_REACTORS
330
29522
102
}
330
29522
100
AcDbXrecord
280
     1
290
     1
  0
XRECORD
  5
4557F
102
{ACAD_REACTORS
330
4557E
102
}
330
4557E
100
AcDbXrecord
280
     1
340
29382
  0
SORTENTSTABLE
  5
29B66
102
{ACAD_REACTORS
330
29B65
102
}
330
29B65
100
AcDbSortentsTable
330
17
  0
GROUP
  5
2BA72
102
{ACAD_REACTORS
330
D
102
}
330
D
100
AcDbGroup
300

 70
     1
 71
     1
  0
GROUP
  5
45CDF
102
{ACAD_REACTORS
330
D
102
}
330
D
100
AcDbGroup
300

 70
     3
 71
     1
  0
GROUP
  5
45CE5
102
{ACAD_REACTORS
330
D
102
}
330
D
100
AcDbGroup
300

 70
     3
 71
     1
  0
GROUP
  5
2BAAB
102
{ACAD_REACTORS
330
D
102
}
330
D
100
AcDbGroup
300

 70
     1
 71
     1
  0
GROUP
  5
3E98C
102
{ACAD_REACTORS
330
D
102
}
330
D
100
AcDbGroup
300

 70
     1
 71
     1
  0
GROUP
  5
2C4BC
102
{ACAD_REACTORS
330
D
102
}
330
D
100
AcDbGroup
300

 70
     1
 71
     1
  0
GROUP
  5
3E9AE
102
{ACAD_REACTORS
330
D
102
}
330
D
100
AcDbGroup
300

 70
     1
 71
     1
  0
GROUP
  5
2C4D9
102
{ACAD_REACTORS
330
D
102
}
330
D
100
AcDbGroup
300

 70
     1
 71
     1
  0
GROUP
  5
45CE7
102
{ACAD_REACTORS
330
D
102
}
330
D
100
AcDbGroup
300

 70
     1
 71
     1
  0
GROUP
  5
45CE4
102
{ACAD_REACTORS
330
D
102
}
330
D
100
AcDbGroup
300

 70
     1
 71
     1
  0
GROUP
  5
45CE9
102
{ACAD_REACTORS
330
D
102
}
330
D
100
AcDbGroup
300

 70
     3
 71
     1
  0
GROUP
  5
45CDA
102
{ACAD_REACTORS
330
D
102
}
330
D
100
AcDbGroup
300

 70
     1
 71
     1
  0
GROUP
  5
2C3EE
102
{ACAD_REACTORS
330
D
102
}
330
D
100
AcDbGroup
300

 70
     1
 71
     1
  0
GROUP
  5
3E8F3
102
{ACAD_REACTORS
330
D
102
}
330
D
100
AcDbGroup
300

 70
     1
 71
     1
  0
GROUP
  5
2C443
102
{ACAD_REACTORS
330
D
102
}
330
D
100
AcDbGroup
300

 70
     1
 71
     1
  0
GROUP
  5
45CDB
102
{ACAD_REACTORS
330
D
102
}
330
D
100
AcDbGroup
300

 70
     3
 71
     1
  0
GROUP
  5
45CEB
102
{ACAD_REACTORS
330
D
102
}
330
D
100
AcDbGroup
300

 70
     1
 71
     1
  0
GROUP
  5
45CE8
102
{ACAD_REACTORS
330
D
102
}
330
D
100
AcDbGroup
300

 70
     1
 71
     1
  0
GROUP
  5
54FDA
102
{ACAD_REACTORS
330
D
102
}
330
D
100
AcDbGroup
300

 70
     1
 71
     1
  0
GROUP
  5
2C4E0
102
{ACAD_REACTORS
330
D
102
}
330
D
100
AcDbGroup
300

 70
     1
 71
     1
  0
GROUP
  5
417D8
102
{ACAD_REACTORS
330
D
102
}
330
D
100
AcDbGroup
300

 70
     1
 71
     1
  0
GROUP
  5
2BA74
102
{ACAD_REACTORS
330
D
102
}
330
D
100
AcDbGroup
300

 70
     1
 71
     1
  0
GROUP
  5
45CE0
102
{ACAD_REACTORS
330
D
102
}
330
D
100
AcDbGroup
300

 70
     3
 71
     1
  0
GROUP
  5
45CEF
102
{ACAD_REACTORS
330
D
102
}
330
D
100
AcDbGroup
300

 70
     1
 71
     1
  0
GROUP
  5
45CEC
102
{ACAD_REACTORS
330
D
102
}
330
D
100
AcDbGroup
300

 70
     1
 71
     1
  0
GROUP
  5
551F7
102
{ACAD_REACTORS
330
D
102
}
330
D
100
AcDbGroup
300

 70
     1
 71
     1
  0
GROUP
  5
45CDC
102
{ACAD_REACTORS
330
D
102
}
330
D
100
AcDbGroup
300

 70
     1
 71
     1
  0
GROUP
  5
3E925
102
{ACAD_REACTORS
330
D
102
}
330
D
100
AcDbGroup
300

 70
     1
 71
     1
  0
GROUP
  5
45CDD
102
{ACAD_REACTORS
330
D
102
}
330
D
100
AcDbGroup
300

 70
     3
 71
     1
  0
GROUP
  5
45CF2
102
{ACAD_REACTORS
330
D
102
}
330
D
100
AcDbGroup
300

 70
     3
 71
     1
  0
GROUP
  5
45CF0
102
{ACAD_REACTORS
330
D
102
}
330
D
100
AcDbGroup
300

 70
     1
 71
     1
  0
GROUP
  5
417D5
102
{ACAD_REACTORS
330
D
102
}
330
D
100
AcDbGroup
300

 70
     1
 71
     1
  0
GROUP
  5
45CE1
102
{ACAD_REACTORS
330
D
102
}
330
D
100
AcDbGroup
300

 70
     1
 71
     1
  0
GROUP
  5
2C4BD
102
{ACAD_REACTORS
330
D
102
}
330
D
100
AcDbGroup
300

 70
     1
 71
     1
  0
GROUP
  5
45CE2
102
{ACAD_REACTORS
330
D
102
}
330
D
100
AcDbGroup
300

 70
     3
 71
     1
  0
GROUP
  5
45CF5
102
{ACAD_REACTORS
330
D
102
}
330
D
100
AcDbGroup
300

 70
     3
 71
     1
  0
GROUP
  5
45CF3
102
{ACAD_REACTORS
330
D
102
}
330
D
100
AcDbGroup
300

 70
     3
 71
     1
  0
GROUP
  5
417DB
102
{ACAD_REACTORS
330
D
102
}
330
D
100
AcDbGroup
300

 70
     1
 71
     1
  0
GROUP
  5
5CDC0
102
{ACAD_REACTORS
330
D
102
}
330
D
100
AcDbGroup
300

 70
     1
 71
     1
  0
GROUP
  5
417D4
102
{ACAD_REACTORS
330
D
102
}
330
D
100
AcDbGroup
300

 70
     1
 71
     1
  0
GROUP
  5
45CED
102
{ACAD_REACTORS
330
D
102
}
330
D
100
AcDbGroup
300

 70
     1
 71
     1
  0
GROUP
  5
45CF6
102
{ACAD_REACTORS
330
D
102
}
330
D
100
AcDbGroup
300

 70
     3
 71
     1
  0
GROUP
  5
3E9A9
102
{ACAD_REACTORS
330
D
102
}
330
D
100
AcDbGroup
300

 70
     1
 71
     1
  0
GROUP
  5
45CE6
102
{ACAD_REACTORS
330
D
102
}
330
D
100
AcDbGroup
300

 70
     1
 71
     1
  0
GROUP
  5
417DA
102
{ACAD_REACTORS
330
D
102
}
330
D
100
AcDbGroup
300

 70
     1
 71
     1
  0
GROUP
  5
551F8
102
{ACAD_REACTORS
330
D
102
}
330
D
100
AcDbGroup
300

 70
     1
 71
     1
  0
GROUP
  5
45CF9
102
{ACAD_REACTORS
330
D
102
}
330
D
100
AcDbGroup
300

 70
     3
 71
     1
  0
GROUP
  5
2C412
102
{ACAD_REACTORS
330
D
102
}
330
D
100
AcDbGroup
300

 70
     1
 71
     1
  0
GROUP
  5
45CEA
102
{ACAD_REACTORS
330
D
102
}
330
D
100
AcDbGroup
300

 70
     1
 71
     1
  0
GROUP
  5
45CF8
102
{ACAD_REACTORS
330
D
102
}
330
D
100
AcDbGroup
300

 70
     1
 71
     1
  0
GROUP
  5
45CFB
102
{ACAD_REACTORS
330
D
102
}
330
D
100
AcDbGroup
300

 70
     3
 71
     1
  0
GROUP
  5
2BA73
102
{ACAD_REACTORS
330
D
102
}
330
D
100
AcDbGroup
300

 70
     1
 71
     1
  0
GROUP
  5
45CEE
102
{ACAD_REACTORS
330
D
102
}
330
D
100
AcDbGroup
300

 70
     1
 71
     1
  0
GROUP
  5
5720A
102
{ACAD_REACTORS
330
D
102
}
330
D
100
AcDbGroup
300

 70
     1
 71
     1
  0
GROUP
  5
45CFD
102
{ACAD_REACTORS
330
D
102
}
330
D
100
AcDbGroup
300

 70
     3
 71
     1
  0
GROUP
  5
3E9CA
102
{ACAD_REACTORS
330
D
102
}
330
D
100
AcDbGroup
300

 70
     1
 71
     1
  0
GROUP
  5
45CF1
102
{ACAD_REACTORS
330
D
102
}
330
D
100
AcDbGroup
300

 70
     3
 71
     1
  0
GROUP
  5
5720B
102
{ACAD_REACTORS
330
D
102
}
330
D
100
AcDbGroup
300

 70
     1
 71
     1
  0
GROUP
  5
417D7
102
{ACAD_REACTORS
330
D
102
}
330
D
100
AcDbGroup
300

 70
     1
 71
     1
  0
GROUP
  5
45CF4
102
{ACAD_REACTORS
330
D
102
}
330
D
100
AcDbGroup
300

 70
     1
 71
     1
  0
GROUP
  5
5720C
102
{ACAD_REACTORS
330
D
102
}
330
D
100
AcDbGroup
300

 70
     1
 71
     1
  0
GROUP
  5
4B597
102
{ACAD_REACTORS
330
D
102
}
330
D
100
AcDbGroup
300

 70
     1
 71
     1
  0
GROUP
  5
45CF7
102
{ACAD_REACTORS
330
D
102
}
330
D
100
AcDbGroup
300

 70
     3
 71
     1
  0
GROUP
  5
417D6
102
{ACAD_REACTORS
330
D
102
}
330
D
100
AcDbGroup
300

 70
     1
 71
     1
  0
GROUP
  5
4B5EB
102
{ACAD_REACTORS
330
D
102
}
330
D
100
AcDbGroup
300

 70
     1
 71
     1
  0
GROUP
  5
45CFA
102
{ACAD_REACTORS
330
D
102
}
330
D
100
AcDbGroup
300

 70
     3
 71
     1
  0
GROUP
  5
417E0
102
{ACAD_REACTORS
330
D
102
}
330
D
100
AcDbGroup
300

 70
     1
 71
     1
  0
GROUP
  5
417E5
102
{ACAD_REACTORS
330
D
102
}
330
D
100
AcDbGroup
300

 70
     1
 71
     1
  0
GROUP
  5
45CFC
102
{ACAD_REACTORS
330
D
102
}
330
D
100
AcDbGroup
300

 70
     1
 71
     1
  0
GROUP
  5
3E9C3
102
{ACAD_REACTORS
330
D
102
}
330
D
100
AcDbGroup
300

 70
     1
 71
     1
  0
GROUP
  5
3E91E
102
{ACAD_REACTORS
330
D
102
}
330
D
100
AcDbGroup
300

 70
     1
 71
     1
  0
GROUP
  5
2C48C
102
{ACAD_REACTORS
330
D
102
}
330
D
100
AcDbGroup
300

 70
     1
 71
     1
  0
GROUP
  5
4B596
102
{ACAD_REACTORS
330
D
102
}
330
D
100
AcDbGroup
300

 70
     1
 71
     1
  0
GROUP
  5
3E82F
102
{ACAD_REACTORS
330
D
102
}
330
D
100
AcDbGroup
300

 70
     1
 71
     1
  0
GROUP
  5
4B5D6
102
{ACAD_REACTORS
330
D
102
}
330
D
100
AcDbGroup
300

 70
     1
 71
     1
  0
GROUP
  5
45CDE
102
{ACAD_REACTORS
330
D
102
}
330
D
100
AcDbGroup
300

 70
     3
 71
     1
  0
GROUP
  5
2BAB6
102
{ACAD_REACTORS
330
D
102
}
330
D
100
AcDbGroup
300

 70
     1
 71
     1
  0
GROUP
  5
45CE3
102
{ACAD_REACTORS
330
D
102
}
330
D
100
AcDbGroup
300

 70
     1
 71
     1
  0
GROUP
  5
2C4CB
102
{ACAD_REACTORS
330
D
102
}
330
D
100
AcDbGroup
300

 70
     1
 71
     1
  0
GROUP
  5
417D3
102
{ACAD_REACTORS
330
D
102
}
330
D
100
AcDbGroup
300

 70
     1
 71
     1
  0
GROUP
  5
417D9
102
{ACAD_REACTORS
330
D
102
}
330
D
100
AcDbGroup
300

 70
     1
 71
     1
  0
GROUP
  5
3E970
102
{ACAD_REACTORS
330
D
102
}
330
D
100
AcDbGroup
300

 70
     1
 71
     1
  0
GROUP
  5
2C3C6
102
{ACAD_REACTORS
330
D
102
}
330
D
100
AcDbGroup
300

 70
     1
 71
     1
  0
GROUP
  5
50880
102
{ACAD_REACTORS
330
D
102
}
330
D
100
AcDbGroup
300

 70
     1
 71
     1
  0
LAYOUT
  5
3F9C
102
{ACAD_XDICTIONARY
360
610FC
102
}
102
{ACAD_REACTORS
330
3F9A
102
}
330
3F9A
100
AcDbPlotSettings
  1

  2
PrimoPDF
  4
A3
  6

 40
3.174999952316284
 41
3.174999952316284
 42
3.17498779296875
 43
3.17498779296875
 44
297.0106506347656
 45
419.9889831542968
 46
-3.169668555259704
 47
-3.180502295494079
 48
0.0
 49
0.0
140
420.0
141
297.0
142
1.0
143
1.0
 70
 11940
 72
     1
 73
     1
 74
     4
  7
INABA-CAD(IKEBE).ctb
 75
     0
147
0.9786554306043116
148
0.0
149
0.0
100
AcDbLayout
  1
Model
 70
     1
 71
     0
 10
0.0
 20
0.0
 11
12.0
 21
9.0
 12
0.0
 22
0.0
 32
0.0
 14
0.0
 24
0.0
 34
0.0
 15
0.0
 25
0.0
 35
0.0
146
0.0
 13
0.0
 23
0.0
 33
0.0
 16
1.0
 26
0.0
 36
0.0
 17
0.0
 27
1.0
 37
0.0
 76
     0
330
17
331
29348
1001
ACAD_PSEXT
1000
PrimoPDF
1000
PrimoPDF
1000
PrimoPort:
1000

1070
     0
  0
LAYOUT
  5
3F9D
102
{ACAD_XDICTIONARY
360
610FE
102
}
102
{ACAD_REACTORS
330
3F9A
102
}
330
3F9A
100
AcDbPlotSettings
  1

  2
NSCC 3350
  4

  6

 40
0.0
 41
0.0
 42
0.0
 43
0.0
 44
0.0
 45
0.0
 46
0.0
 47
0.0
 48
0.0
 49
0.0
140
0.0
141
0.0
142
1.0
143
1.0
 70
   688
 72
     0
 73
     0
 74
     5
  7
INABA-CAD(IKEBE).ctb
 75
    16
147
1.0
148
0.0
149
0.0
100
AcDbLayout
  1
ﾚｲｱｳﾄ1
 70
     0
 71
     1
 10
0.0
 20
0.0
 11
12.0
 21
9.0
 12
0.0
 22
0.0
 32
0.0
 14
1.000000000000000E+20
 24
1.000000000000000E+20
 34
1.000000000000000E+20
 15
-1.000000000000000E+20
 25
-1.000000000000000E+20
 35
-1.000000000000000E+20
146
0.0
 13
0.0
 23
0.0
 33
0.0
 16
1.0
 26
0.0
 36
0.0
 17
0.0
 27
1.0
 37
0.0
 76
     0
330
14
  0
MATERIAL
  5
29358
102
{ACAD_XDICTIONARY
360
29359
102
}
102
{ACAD_REACTORS
330
28816
102
}
330
28816
100
AcDbMaterial
  1
ByBlock
 72
     0
 43
0.0208333333333333
 43
0.0
 43
0.0
 43
0.0
 43
0.0
 43
0.0208333333333333
 43
0.0
 43
0.0
 43
0.0
 43
0.0
 43
1.0
 43
0.0
 43
0.0
 43
0.0
 43
0.0
 43
1.0
 77
     0
 47
0.0208333333333333
 47
0.0
 47
0.0
 47
0.0
 47
0.0
 47
0.0208333333333333
 47
0.0
 47
0.0
 47
0.0
 47
0.0
 47
1.0
 47
0.0
 47
0.0
 47
0.0
 47
0.0
 47
1.0
171
     0
 49
0.0208333333333333
 49
0.0
 49
0.0
 49
0.0
 49
0.0
 49
0.0208333333333333
 49
0.0
 49
0.0
 49
0.0
 49
0.0
 49
1.0
 49
0.0
 49
0.0
 49
0.0
 49
0.0
 49
1.0
175
     0
142
0.0208333333333333
142
0.0
142
0.0
142
0.0
142
0.0
142
0.0208333333333333
142
0.0
142
0.0
142
0.0
142
0.0
142
1.0
142
0.0
142
0.0
142
0.0
142
0.0
142
1.0
179
     0
144
0.0208333333333333
144
0.0
144
0.0
144
0.0
144
0.0
144
0.0208333333333333
144
0.0
144
0.0
144
0.0
144
0.0
144
1.0
144
0.0
144
0.0
144
0.0
144
0.0
144
1.0
147
0.0208333333333333
147
0.0
147
0.0
147
0.0
147
0.0
147
0.0208333333333333
147
0.0
147
0.0
147
0.0
147
0.0
147
1.0
147
0.0
147
0.0
147
0.0
147
0.0
147
1.0
  0
MATERIAL
  5
29350
102
{ACAD_XDICTIONARY
360
29351
102
}
102
{ACAD_REACTORS
330
28816
102
}
330
28816
100
AcDbMaterial
  1
ByLayer
 72
     0
 43
0.0208333333333333
 43
0.0
 43
0.0
 43
0.0
 43
0.0
 43
0.0208333333333333
 43
0.0
 43
0.0
 43
0.0
 43
0.0
 43
1.0
 43
0.0
 43
0.0
 43
0.0
 43
0.0
 43
1.0
 77
     0
 47
0.0208333333333333
 47
0.0
 47
0.0
 47
0.0
 47
0.0
 47
0.0208333333333333
 47
0.0
 47
0.0
 47
0.0
 47
0.0
 47
1.0
 47
0.0
 47
0.0
 47
0.0
 47
0.0
 47
1.0
171
     0
 49
0.0208333333333333
 49
0.0
 49
0.0
 49
0.0
 49
0.0
 49
0.0208333333333333
 49
0.0
 49
0.0
 49
0.0
 49
0.0
 49
1.0
 49
0.0
 49
0.0
 49
0.0
 49
0.0
 49
1.0
175
     0
142
0.0208333333333333
142
0.0
142
0.0
142
0.0
142
0.0
142
0.0208333333333333
142
0.0
142
0.0
142
0.0
142
0.0
142
1.0
142
0.0
142
0.0
142
0.0
142
0.0
142
1.0
179
     0
144
0.0208333333333333
144
0.0
144
0.0
144
0.0
144
0.0
144
0.0208333333333333
144
0.0
144
0.0
144
0.0
144
0.0
144
1.0
144
0.0
144
0.0
144
0.0
144
0.0
144
1.0
147
0.0208333333333333
147
0.0
147
0.0
147
0.0
147
0.0
147
0.0208333333333333
147
0.0
147
0.0
147
0.0
147
0.0
147
1.0
147
0.0
147
0.0
147
0.0
147
0.0
147
1.0
  0
MATERIAL
  5
29360
102
{ACAD_XDICTIONARY
360
29361
102
}
102
{ACAD_REACTORS
330
28816
102
}
330
28816
100
AcDbMaterial
  1
Global
 72
     0
 43
0.0208333333333333
 43
0.0
 43
0.0
 43
0.0
 43
0.0
 43
0.0208333333333333
 43
0.0
 43
0.0
 43
0.0
 43
0.0
 43
1.0
 43
0.0
 43
0.0
 43
0.0
 43
0.0
 43
1.0
 77
     0
 47
0.0208333333333333
 47
0.0
 47
0.0
 47
0.0
 47
0.0
 47
0.0208333333333333
 47
0.0
 47
0.0
 47
0.0
 47
0.0
 47
1.0
 47
0.0
 47
0.0
 47
0.0
 47
0.0
 47
1.0
171
     0
 49
0.0208333333333333
 49
0.0
 49
0.0
 49
0.0
 49
0.0
 49
0.0208333333333333
 49
0.0
 49
0.0
 49
0.0
 49
0.0
 49
1.0
 49
0.0
 49
0.0
 49
0.0
 49
0.0
 49
1.0
175
     0
142
0.0208333333333333
142
0.0
142
0.0
142
0.0
142
0.0
142
0.0208333333333333
142
0.0
142
0.0
142
0.0
142
0.0
142
1.0
142
0.0
142
0.0
142
0.0
142
0.0
142
1.0
179
     0
144
0.0208333333333333
144
0.0
144
0.0
144
0.0
144
0.0
144
0.0208333333333333
144
0.0
144
0.0
144
0.0
144
0.0
144
1.0
144
0.0
144
0.0
144
0.0
144
0.0
144
1.0
147
0.0208333333333333
147
0.0
147
0.0
147
0.0
147
0.0
147
0.0208333333333333
147
0.0
147
0.0
147
0.0
147
0.0
147
1.0
147
0.0
147
0.0
147
0.0
147
0.0
147
1.0
  0
MLEADERSTYLE
  5
29394
102
{ACAD_REACTORS
330
29393
102
}
330
29393
100
AcDbMLeaderStyle
170
     2
171
     1
172
     0
 90
        2
 40
0.0
 41
0.0
173
     1
 91
-1056964608
340
11
 92
       -2
290
     1
 42
0.09
291
     1
 43
0.36
  3
Standard
 44
0.18
300

342
F
174
     1
178
     6
175
     1
176
     0
 93
-1056964608
 45
0.18
292
     0
297
     0
 46
0.18
 94
-1056964608
 47
1.0
 49
1.0
140
1.0
293
     1
141
0.0
294
     1
177
     0
142
1.0
295
     0
296
     0
143
0.125
1001
ACAD_MLEADERVER
1070
     2
  0
MLINESTYLE
  5
1B
102
{ACAD_REACTORS
330
1A
102
}
330
1A
100
AcDbMlineStyle
  2
STANDARD
 70
     0
  3

 62
   256
 51
90.0
 52
90.0
 71
     2
 49
0.5
 62
   256
  6
BYLAYER
 49
-0.5
 62
   256
  6
BYLAYER
  0
ACDBPLACEHOLDER
  5
3F99
102
{ACAD_REACTORS
330
3F98
102
}
330
3F98
  0
SCALE
  5
29382
102
{ACAD_REACTORS
330
29381
102
}
330
29381
100
AcDbScale
 70
     0
300
1:1
140
1.0
141
1.0
290
     1
  0
SCALE
  5
29383
102
{ACAD_REACTORS
330
29381
102
}
330
29381
100
AcDbScale
 70
     0
300
1/128" = 1'-0"
140
0.0078125
141
12.0
290
     0
  0
SCALE
  5
29384
102
{ACAD_REACTORS
330
29381
102
}
330
29381
100
AcDbScale
 70
     0
300
1/64" = 1'-0"
140
0.015625
141
12.0
290
     0
  0
SCALE
  5
29385
102
{ACAD_REACTORS
330
29381
102
}
330
29381
100
AcDbScale
 70
     0
300
1/32" = 1'-0"
140
0.03125
141
12.0
290
     0
  0
SCALE
  5
29386
102
{ACAD_REACTORS
330
29381
102
}
330
29381
100
AcDbScale
 70
     0
300
1/16" = 1'-0"
140
0.0625
141
12.0
290
     0
  0
SCALE
  5
29387
102
{ACAD_REACTORS
330
29381
102
}
330
29381
100
AcDbScale
 70
     0
300
3/32" = 1'-0"
140
0.09375
141
12.0
290
     0
  0
SCALE
  5
29388
102
{ACAD_REACTORS
330
29381
102
}
330
29381
100
AcDbScale
 70
     0
300
1/8" = 1'-0"
140
0.125
141
12.0
290
     0
  0
SCALE
  5
29389
102
{ACAD_REACTORS
330
29381
102
}
330
29381
100
AcDbScale
 70
     0
300
3/16" = 1'-0"
140
0.1875
141
12.0
290
     0
  0
SCALE
  5
2938A
102
{ACAD_REACTORS
330
29381
102
}
330
29381
100
AcDbScale
 70
     0
300
1/4" = 1'-0"
140
0.25
141
12.0
290
     0
  0
SCALE
  5
2938B
102
{ACAD_REACTORS
330
29381
102
}
330
29381
100
AcDbScale
 70
     0
300
3/8" = 1'-0"
140
0.375
141
12.0
290
     0
  0
SCALE
  5
2938C
102
{ACAD_REACTORS
330
29381
102
}
330
29381
100
AcDbScale
 70
     0
300
1/2" = 1'-0"
140
0.5
141
12.0
290
     0
  0
SCALE
  5
2938D
102
{ACAD_REACTORS
330
29381
102
}
330
29381
100
AcDbScale
 70
     0
300
3/4" = 1'-0"
140
0.75
141
12.0
290
     0
  0
SCALE
  5
2938E
102
{ACAD_REACTORS
330
29381
102
}
330
29381
100
AcDbScale
 70
     0
300
1" = 1'-0"
140
1.0
141
12.0
290
     0
  0
SCALE
  5
2938F
102
{ACAD_REACTORS
330
29381
102
}
330
29381
100
AcDbScale
 70
     0
300
1-1/2" = 1'-0"
140
1.5
141
12.0
290
     0
  0
SCALE
  5
29390
102
{ACAD_REACTORS
330
29381
102
}
330
29381
100
AcDbScale
 70
     0
300
3" = 1'-0"
140
3.0
141
12.0
290
     0
  0
SCALE
  5
29391
102
{ACAD_REACTORS
330
29381
102
}
330
29381
100
AcDbScale
 70
     0
300
6" = 1'-0"
140
6.0
141
12.0
290
     0
  0
SCALE
  5
29392
102
{ACAD_REACTORS
330
29381
102
}
330
29381
100
AcDbScale
 70
     0
300
1'-0" = 1'-0"
140
12.0
141
12.0
290
     0
  0
TABLESTYLE
  5
28819
102
{ACAD_XDICTIONARY
360
29608
102
}
102
{ACAD_REACTORS
330
28818
102
}
330
28818
100
AcDbTableStyle
  3
Standard
 70
     0
 71
     0
 40
0.06
 41
0.06
280
     0
281
     0
  7
STANDARD
140
0.18
170
     2
 62
     0
 63
     7
283
     0
274
    -2
284
     1
 64
     0
275
    -2
285
     1
 65
     0
276
    -2
286
     1
 66
     0
277
    -2
287
     1
 67
     0
278
    -2
288
     1
 68
     0
279
    -2
289
     1
 69
     0
  7
STANDARD
140
0.25
170
     5
 62
     0
 63
     7
283
     0
274
    -2
284
     1
 64
     0
275
    -2
285
     1
 65
     0
276
    -2
286
     1
 66
     0
277
    -2
287
     1
 67
     0
278
    -2
288
     1
 68
     0
279
    -2
289
     1
 69
     0
  7
STANDARD
140
0.18
170
     5
 62
     0
 63
     7
283
     0
274
    -2
284
     1
 64
     0
275
    -2
285
     1
 65
     0
276
    -2
286
     1
 66
     0
277
    -2
287
     1
 67
     0
278
    -2
288
     1
 68
     0
279
    -2
289
     1
 69
     0
  0
VISUALSTYLE
  5
2936E
102
{ACAD_XDICTIONARY
360
6110E
102
}
102
{ACAD_REACTORS
330
29368
102
}
330
29368
100
AcDbVisualStyle
  2
2dWireframe
 70
     4
 71
     0
 72
     2
 73
     0
 90
        0
 40
-0.6
 41
-30.0
 62
     5
 63
     7
 74
     1
 91
        4
 64
     7
 65
   257
 75
     1
175
     1
 42
1.0
 92
        0
 66
   257
 43
1.0
 76
     1
 77
     6
 78
     2
 67
     7
 79
     5
170
     0
171
     0
290
     0
174
     0
 93
        1
 44
0.0
173
     0
291
     0
 45
0.0
1001
ACAD
1000
AcDbSavedByObjectVersion
1070
     0
  0
VISUALSTYLE
  5
2E172
102
{ACAD_XDICTIONARY
360
61134
102
}
102
{ACAD_REACTORS
330
29368
102
}
330
29368
100
AcDbVisualStyle
  2

 70
     5
 71
     0
 72
     2
 73
     0
 90
        0
 40
-0.6
 41
-30.0
 62
     5
 63
     7
 74
     1
 91
        4
 64
     7
 65
   257
 75
     1
175
     1
 42
1.0
 92
        0
 66
   257
 43
1.0
 76
     1
 77
     6
 78
     2
 67
     7
 79
     5
170
     0
171
     0
290
     0
174
     0
 93
        1
 44
0.0
173
     0
291
     0
 45
0.0
1001
ACAD
1000
AcDbSavedByObjectVersion
1070
     0
  0
VISUALSTYLE
  5
2936D
102
{ACAD_XDICTIONARY
360
6110C
102
}
102
{ACAD_REACTORS
330
29368
102
}
330
29368
100
AcDbVisualStyle
  2
Basic
 70
     7
 71
     1
 72
     0
 73
     1
 90
        0
 40
-0.6
 41
-30.0
 62
     5
 63
     7
 74
     0
 91
        4
 64
     7
 65
   257
 75
     1
175
     1
 42
1.0
 92
        8
 66
     7
 43
1.0
 76
     1
 77
     6
 78
     2
 67
     7
 79
     5
170
     0
171
     0
290
     0
174
     0
 93
        1
 44
0.0
173
     0
291
     1
 45
0.0
1001
ACAD
1000
AcDbSavedByObjectVersion
1070
     0
  0
VISUALSTYLE
  5
29374
102
{ACAD_XDICTIONARY
360
6111A
102
}
102
{ACAD_REACTORS
330
29368
102
}
330
29368
100
AcDbVisualStyle
  2
Brighten
 70
    12
 71
     2
 72
     2
 73
     0
 90
        0
 40
-0.6
 41
-30.0
 62
     5
 63
     7
 74
     1
 91
        4
 64
     7
 65
   257
 75
     1
175
     1
 42
1.0
 92
        8
 66
     7
 43
1.0
 76
     1
 77
     6
 78
     2
 67
     7
 79
     5
170
     0
171
     0
290
     0
174
     0
 93
        1
 44
50.0
173
     0
291
     1
 45
0.0
1001
ACAD
1000
AcDbSavedByObjectVersion
1070
     0
  0
VISUALSTYLE
  5
29378
102
{ACAD_XDICTIONARY
360
61122
102
}
102
{ACAD_REACTORS
330
29368
102
}
330
29368
100
AcDbVisualStyle
  2
ColorChange
 70
    16
 71
     2
 72
     2
 73
     3
 90
        0
 40
-0.6
 41
-30.0
 62
     5
 63
     8
 74
     1
 91
        4
 64
     7
 65
   257
 75
     1
175
     1
 42
1.0
 92
        8
 66
     8
 43
1.0
 76
     1
 77
     6
 78
     2
 67
     7
 79
     5
170
     0
171
     0
290
     0
174
     0
 93
        1
 44
0.0
173
     0
291
     1
 45
0.0
1001
ACAD
1000
AcDbSavedByObjectVersion
1070
     0
  0
VISUALSTYLE
  5
29371
102
{ACAD_XDICTIONARY
360
61114
102
}
102
{ACAD_REACTORS
330
29368
102
}
330
29368
100
AcDbVisualStyle
  2
Conceptual
 70
     9
 71
     3
 72
     2
 73
     0
 90
        0
 40
-0.6
 41
-30.0
 62
     5
 63
     7
 74
     2
 91
        2
 64
     7
 65
   257
 75
     1
175
     1
 42
179.0
 92
        8
 66
     7
 43
1.0
 76
     1
 77
     6
 78
     2
 67
     7
 79
     3
170
     0
171
     0
290
     0
174
     0
 93
        1
 44
0.0
173
     0
291
     0
 45
0.0
1001
ACAD
1000
AcDbSavedByObjectVersion
1070
     0
  0
VISUALSTYLE
  5
29373
102
{ACAD_XDICTIONARY
360
61118
102
}
102
{ACAD_REACTORS
330
29368
102
}
330
29368
100
AcDbVisualStyle
  2
Dim
 70
    11
 71
     2
 72
     2
 73
     0
 90
        0
 40
-0.6
 41
-30.0
 62
     5
 63
     7
 74
     1
 91
        4
 64
     7
 65
   257
 75
     1
175
     1
 42
1.0
 92
        8
 66
     7
 43
1.0
 76
     1
 77
     6
 78
     2
 67
     7
 79
     5
170
     0
171
     0
290
     0
174
     0
 93
        1
 44
-50.0
173
     0
291
     1
 45
0.0
1001
ACAD
1000
AcDbSavedByObjectVersion
1070
     0
  0
VISUALSTYLE
  5
29380
102
{ACAD_XDICTIONARY
360
61132
102
}
102
{ACAD_REACTORS
330
29368
102
}
330
29368
100
AcDbVisualStyle
  2
EdgeColorOff
 70
    22
 71
     2
 72
     2
 73
     0
 90
        0
 40
-0.6
 41
-30.0
 62
     5
 63
     7
 74
     1
 91
        4
 64
     7
 65
   257
 75
     1
175
     1
 42
1.0
 92
        8
 66
     7
 43
1.0
 76
     1
 77
     6
 78
     2
 67
     7
 79
     5
170
     0
171
     0
290
     0
174
     0
 93
        1
 44
0.0
173
     0
291
     1
 45
0.0
1001
ACAD
1000
AcDbSavedByObjectVersion
1070
     0
  0
VISUALSTYLE
  5
29377
102
{ACAD_XDICTIONARY
360
61120
102
}
102
{ACAD_REACTORS
330
29368
102
}
330
29368
100
AcDbVisualStyle
  2
Facepattern
 70
    15
 71
     2
 72
     2
 73
     0
 90
        0
 40
-0.6
 41
-30.0
 62
     5
 63
     7
 74
     1
 91
        4
 64
     7
 65
   257
 75
     1
175
     1
 42
1.0
 92
        8
 66
     7
 43
1.0
 76
     1
 77
     6
 78
     2
 67
     7
 79
     5
170
     0
171
     0
290
     0
174
     0
 93
        1
 44
0.0
173
     0
291
     1
 45
0.0
1001
ACAD
1000
AcDbSavedByObjectVersion
1070
     0
  0
VISUALSTYLE
  5
29369
102
{ACAD_XDICTIONARY
360
61104
102
}
102
{ACAD_REACTORS
330
29368
102
}
330
29368
100
AcDbVisualStyle
  2
Flat
 70
     0
 71
     2
 72
     1
 73
     1
 90
        2
 40
-0.6
 41
30.0
 62
     5
 63
     7
 74
     0
 91
        0
 64
     7
 65
   257
 75
     1
175
     1
 42
1.0
 92
        8
 66
     7
 43
1.0
 76
     1
 77
     6
 78
     2
 67
     7
 79
     5
170
     0
171
     0
290
     0
174
     0
 93
       13
 44
0.0
173
     0
291
     1
 45
0.0
1001
ACAD
1000
AcDbSavedByObjectVersion
1070
     0
  0
VISUALSTYLE
  5
2936A
102
{ACAD_XDICTIONARY
360
61106
102
}
102
{ACAD_REACTORS
330
29368
102
}
330
29368
100
AcDbVisualStyle
  2
FlatWithEdges
 70
     1
 71
     2
 72
     1
 73
     1
 90
        2
 40
-0.6
 41
30.0
 62
     5
 63
     7
 74
     1
 91
        0
 64
     7
 65
   257
 75
     1
175
     1
 42
1.0
 92
        0
 66
   257
 43
1.0
 76
     1
 77
     6
 78
     2
 67
     7
 79
     5
170
     0
171
     0
290
     0
174
     0
 93
       13
 44
0.0
173
     0
291
     1
 45
0.0
1001
ACAD
1000
AcDbSavedByObjectVersion
1070
     0
  0
VISUALSTYLE
  5
2936B
102
{ACAD_XDICTIONARY
360
61108
102
}
102
{ACAD_REACTORS
330
29368
102
}
330
29368
100
AcDbVisualStyle
  2
Gouraud
 70
     2
 71
     2
 72
     2
 73
     1
 90
        2
 40
-0.6
 41
30.0
 62
     5
 63
     7
 74
     0
 91
        0
 64
     7
 65
   257
 75
     1
175
     1
 42
1.0
 92
        0
 66
     7
 43
1.0
 76
     1
 77
     6
 78
     2
 67
     7
 79
     5
170
     0
171
     0
290
     0
174
     0
 93
       13
 44
0.0
173
     0
291
     1
 45
0.0
1001
ACAD
1000
AcDbSavedByObjectVersion
1070
     0
  0
VISUALSTYLE
  5
2936C
102
{ACAD_XDICTIONARY
360
6110A
102
}
102
{ACAD_REACTORS
330
29368
102
}
330
29368
100
AcDbVisualStyle
  2
GouraudWithEdges
 70
     3
 71
     2
 72
     2
 73
     1
 90
        2
 40
-0.6
 41
30.0
 62
     5
 63
     7
 74
     1
 91
        0
 64
     7
 65
   257
 75
     1
175
     1
 42
1.0
 92
        0
 66
   257
 43
1.0
 76
     1
 77
     6
 78
     2
 67
     7
 79
     5
170
     0
171
     0
290
     0
174
     0
 93
       13
 44
0.0
173
     0
291
     1
 45
0.0
1001
ACAD
1000
AcDbSavedByObjectVersion
1070
     0
  0
VISUALSTYLE
  5
29370
102
{ACAD_XDICTIONARY
360
61112
102
}
102
{ACAD_REACTORS
330
29368
102
}
330
29368
100
AcDbVisualStyle
  2
Hidden
 70
     6
 71
     1
 72
     2
 73
     2
 90
        0
 40
-0.6
 41
-30.0
 62
     5
 63
     7
 74
     2
 91
        2
 64
     7
 65
   257
 75
     2
175
     1
 42
40.0
 92
        0
 66
   257
 43
1.0
 76
     1
 77
     6
 78
     2
 67
     7
 79
     3
170
     0
171
     0
290
     0
174
     0
 93
        1
 44
0.0
173
     0
291
     0
 45
0.0
1001
ACAD
1000
AcDbSavedByObjectVersion
1070
     0
  0
VISUALSTYLE
  5
2937E
102
{ACAD_XDICTIONARY
360
6112E
102
}
102
{ACAD_REACTORS
330
29368
102
}
330
29368
100
AcDbVisualStyle
  2
JitterOff
 70
    20
 71
     2
 72
     2
 73
     0
 90
        0
 40
-0.6
 41
-30.0
 62
     5
 63
     7
 74
     1
 91
        4
 64
     7
 65
   257
 75
     1
175
     1
 42
1.0
 92
       10
 66
     7
 43
1.0
 76
     1
 77
     6
 78
     2
 67
     7
 79
     5
170
     0
171
     0
290
     0
174
     0
 93
        1
 44
0.0
173
     0
291
     1
 45
0.0
1001
ACAD
1000
AcDbSavedByObjectVersion
1070
     0
  0
VISUALSTYLE
  5
29376
102
{ACAD_XDICTIONARY
360
6111E
102
}
102
{ACAD_REACTORS
330
29368
102
}
330
29368
100
AcDbVisualStyle
  2
Linepattern
 70
    14
 71
     2
 72
     2
 73
     0
 90
        0
 40
-0.6
 41
-30.0
 62
     5
 63
     7
 74
     1
 91
        4
 64
     7
 65
   257
 75
     7
175
     7
 42
1.0
 92
        8
 66
     7
 43
1.0
 76
     1
 77
     6
 78
     2
 67
     7
 79
     5
170
     0
171
     0
290
     0
174
     0
 93
        1
 44
0.0
173
     0
291
     1
 45
0.0
1001
ACAD
1000
AcDbSavedByObjectVersion
1070
     0
  0
VISUALSTYLE
  5
2937F
102
{ACAD_XDICTIONARY
360
61130
102
}
102
{ACAD_REACTORS
330
29368
102
}
330
29368
100
AcDbVisualStyle
  2
OverhangOff
 70
    21
 71
     2
 72
     2
 73
     0
 90
        0
 40
-0.6
 41
-30.0
 62
     5
 63
     7
 74
     1
 91
        4
 64
     7
 65
   257
 75
     1
175
     1
 42
1.0
 92
        9
 66
     7
 43
1.0
 76
     1
 77
     6
 78
     2
 67
     7
 79
     5
170
     0
171
     0
290
     0
174
     0
 93
        1
 44
0.0
173
     0
291
     1
 45
0.0
1001
ACAD
1000
AcDbSavedByObjectVersion
1070
     0
  0
VISUALSTYLE
  5
29372
102
{ACAD_XDICTIONARY
360
61116
102
}
102
{ACAD_REACTORS
330
29368
102
}
330
29368
100
AcDbVisualStyle
  2
Realistic
 70
     8
 71
     2
 72
     2
 73
     0
 90
        2
 40
-0.6
 41
30.0
 62
     5
 63
     7
 74
     0
 91
        0
 64
     7
 65
   257
 75
     1
175
     1
 42
1.0
 92
        8
 66
   257
 43
1.0
 76
     1
 77
     6
 78
     2
 67
     7
 79
     3
170
     0
171
     0
290
     0
174
     0
 93
       13
 44
0.0
173
     0
291
     0
 45
0.0
1001
ACAD
1000
AcDbSavedByObjectVersion
1070
     0
  0
VISUALSTYLE
  5
2937D
102
{ACAD_XDICTIONARY
360
6112C
102
}
102
{ACAD_REACTORS
330
29368
102
}
330
29368
100
AcDbVisualStyle
  2
Shaded
 70
    27
 71
     2
 72
     2
 73
     1
 90
        2
 40
-0.6
 41
30.0
 62
     5
 63
     7
 74
     0
 91
        4
 64
     7
 65
   257
 75
     1
175
     1
 42
1.0
 92
        8
 66
   257
 43
1.0
 76
     1
 77
     6
 78
     2
 67
     8
 79
     3
170
     0
171
     0
290
     0
174
     0
 93
        5
 44
0.0
173
     0
291
     0
 45
0.0
1001
ACAD
1000
AcDbSavedByObjectVersion
1070
     0
  0
VISUALSTYLE
  5
2937C
102
{ACAD_XDICTIONARY
360
6112A
102
}
102
{ACAD_REACTORS
330
29368
102
}
330
29368
100
AcDbVisualStyle
  2
Shaded with edges
 70
    26
 71
     2
 72
     2
 73
     1
 90
        2
 40
-0.6
 41
30.0
 62
     5
 63
     7
 74
     1
 91
       10
 64
     7
 65
   257
 75
     2
175
     1
 42
1.0
 92
        8
 66
   257
 43
1.0
 76
     1
 77
     6
 78
     2
 67
     7
 79
     3
170
     0
171
     0
290
     0
174
     0
 93
        5
 44
0.0
173
     0
291
     0
 45
0.0
1001
ACAD
1000
AcDbSavedByObjectVersion
1070
     0
  0
VISUALSTYLE
  5
29379
102
{ACAD_XDICTIONARY
360
61124
102
}
102
{ACAD_REACTORS
330
29368
102
}
330
29368
100
AcDbVisualStyle
  2
Shades of Gray
 70
    23
 71
     2
 72
     2
 73
     3
 90
        0
 40
-0.6
 41
-30.0
 62
     5
 63
     7
 74
     2
 91
        2
 64
     7
 65
     7
 75
     1
175
     1
 42
40.0
 92
        8
 66
     7
 43
1.0
 76
     1
 77
     6
 78
     2
 67
     7
 79
     3
170
     0
171
     0
290
     0
174
     0
 93
        1
 44
0.0
173
     0
291
     0
 45
0.0
1001
ACAD
1000
AcDbSavedByObjectVersion
1070
     0
  0
VISUALSTYLE
  5
2937A
102
{ACAD_XDICTIONARY
360
61126
102
}
102
{ACAD_REACTORS
330
29368
102
}
330
29368
100
AcDbVisualStyle
  2
Sketchy
 70
    24
 71
     1
 72
     2
 73
     2
 90
        0
 40
-0.6
 41
-30.0
 62
     5
 63
     7
 74
     2
 91
        2
 64
     7
 65
     7
 75
     1
175
     1
 42
40.0
 92
       11
 66
     7
 43
1.0
 76
     1
 77
     6
 78
     2
 67
     7
 79
     6
170
     0
171
     0
290
     0
174
     0
 93
        1
 44
0.0
173
     0
291
     0
 45
0.0
1001
ACAD
1000
AcDbSavedByObjectVersion
1070
     0
  0
VISUALSTYLE
  5
29375
102
{ACAD_XDICTIONARY
360
6111C
102
}
102
{ACAD_REACTORS
330
29368
102
}
330
29368
100
AcDbVisualStyle
  2
Thicken
 70
    13
 71
     2
 72
     2
 73
     0
 90
        0
 40
-0.6
 41
-30.0
 62
     5
 63
     7
 74
     1
 91
        4
 64
     7
 65
   257
 75
     1
175
     1
 42
1.0
 92
       12
 66
     7
 43
1.0
 76
     1
 77
     6
 78
     2
 67
     7
 79
     5
170
     0
171
     0
290
     0
174
     0
 93
        1
 44
0.0
173
     0
291
     1
 45
0.0
1001
ACAD
1000
AcDbSavedByObjectVersion
1070
     0
  0
VISUALSTYLE
  5
2936F
102
{ACAD_XDICTIONARY
360
61110
102
}
102
{ACAD_REACTORS
330
29368
102
}
330
29368
100
AcDbVisualStyle
  2
Wireframe
 70
     5
 71
     0
 72
     2
 73
     0
 90
        0
 40
-0.6
 41
-30.0
 62
     5
 63
     7
 74
     1
 91
        4
 64
     7
 65
   257
 75
     1
175
     1
 42
1.0
 92
        0
 66
   257
 43
1.0
 76
     1
 77
     6
 78
     2
 67
     7
 79
     3
170
     0
171
     0
290
     0
174
     0
 93
        1
 44
0.0
173
     0
291
     0
 45
0.0
1001
ACAD
1000
AcDbSavedByObjectVersion
1070
     0
  0
VISUALSTYLE
  5
2937B
102
{ACAD_XDICTIONARY
360
61128
102
}
102
{ACAD_REACTORS
330
29368
102
}
330
29368
100
AcDbVisualStyle
  2
X-Ray
 70
    25
 71
     2
 72
     2
 73
     1
 90
        1
 40
0.5
 41
-30.0
 62
     5
 63
     7
 74
     1
 91
        0
 64
     7
 65
   257
 75
     1
175
     1
 42
1.0
 92
        8
 66
     7
 43
1.0
 76
     1
 77
     6
 78
     2
 67
     7
 79
     3
170
     0
171
     0
290
     0
174
     0
 93
       13
 44
0.0
173
     0
291
     0
 45
0.0
1001
ACAD
1000
AcDbSavedByObjectVersion
1070
     0
  0
DICTIONARYVAR
  5
29648
102
{ACAD_REACTORS
330
51
102
}
330
51
100
DictionaryVariables
280
     0
  1
1:1
  0
DICTIONARYVAR
  5
29647
102
{ACAD_REACTORS
330
51
102
}
330
51
100
DictionaryVariables
280
     0
  1
STANDARD
  0
DICTIONARYVAR
  5
2882E
102
{ACAD_REACTORS
330
51
102
}
330
51
100
DictionaryVariables
280
     0
  1
STANDARD
  0
DICTIONARYVAR
  5
52
102
{ACAD_REACTORS
330
51
102
}
330
51
100
DictionaryVariables
280
     0
  1
0
  0
DICTIONARYVAR
  5
2882F
102
{ACAD_REACTORS
330
51
102
}
330
51
100
DictionaryVariables
280
     0
  1
1
  0
DICTIONARYVAR
  5
3288D
102
{ACAD_REACTORS
330
51
102
}
330
51
100
DictionaryVariables
280
     0
  1
1
  0
DICTIONARYVAR
  5
29649
102
{ACAD_REACTORS
330
51
102
}
330
51
100
DictionaryVariables
280
     0
  1
0
  0
DICTIONARYVAR
  5
28830
102
{ACAD_REACTORS
330
51
102
}
330
51
100
DictionaryVariables
280
     0
  1

  0
DICTIONARYVAR
  5
40D7
102
{ACAD_REACTORS
330
51
102
}
330
51
100
DictionaryVariables
280
     0
  1
127
  0
DICTIONARYVAR
  5
61039
102
{ACAD_REACTORS
330
51
102
}
330
51
100
DictionaryVariables
280
     0
  1
2
  0
DICTIONARY
  5
610FC
330
3F9C
100
AcDbDictionary
280
     1
281
     1
  3
ACAD_XREC_ROUNDTRIP
360
610FD
  0
DICTIONARY
  5
610FE
330
3F9D
100
AcDbDictionary
280
     1
281
     1
  3
ACAD_XREC_ROUNDTRIP
360
610FF
  0
DICTIONARY
  5
29359
330
29358
100
AcDbDictionary
280
     1
281
     1
  3
ACAD_XREC_ROUNDTRIP
360
61102
  3
BUMPTILE
360
2935B
  3
DIFFUSETILE
360
2935A
  3
OPACITYTILE
360
2935E
  3
REFLECTIONTILE
360
2935D
  3
REFRACTIONTILE
360
2935F
  3
SPECULARTILE
360
2935C
  0
DICTIONARY
  5
29351
330
29350
100
AcDbDictionary
280
     1
281
     1
  3
ACAD_XREC_ROUNDTRIP
360
61101
  3
BUMPTILE
360
29353
  3
DIFFUSETILE
360
29352
  3
OPACITYTILE
360
29356
  3
REFLECTIONTILE
360
29355
  3
REFRACTIONTILE
360
29357
  3
SPECULARTILE
360
29354
  0
DICTIONARY
  5
29361
330
29360
100
AcDbDictionary
280
     1
281
     1
  3
ACAD_XREC_ROUNDTRIP
360
61103
  3
BUMPTILE
360
29363
  3
DIFFUSETILE
360
29362
  3
OPACITYTILE
360
29366
  3
REFLECTIONTILE
360
29365
  3
REFRACTIONTILE
360
29367
  3
SPECULARTILE
360
29364
  0
DICTIONARY
  5
29608
330
28819
100
AcDbDictionary
280
     1
281
     1
  3
ACAD_ROUNDTRIP_2008_TABLESTYLE_CELLSTYLEMAP
360
610F9
  3
ACAD_XREC_ROUNDTRIP
360
61100
  0
DICTIONARY
  5
6110E
330
2936E
100
AcDbDictionary
280
     1
281
     1
  3
ACAD_XREC_ROUNDTRIP
360
6110F
  0
DICTIONARY
  5
61134
330
2E172
100
AcDbDictionary
280
     1
281
     1
  3
ACAD_XREC_ROUNDTRIP
360
61135
  0
DICTIONARY
  5
6110C
330
2936D
100
AcDbDictionary
280
     1
281
     1
  3
ACAD_XREC_ROUNDTRIP
360
6110D
  0
DICTIONARY
  5
6111A
330
29374
100
AcDbDictionary
280
     1
281
     1
  3
ACAD_XREC_ROUNDTRIP
360
6111B
  0
DICTIONARY
  5
61122
330
29378
100
AcDbDictionary
280
     1
281
     1
  3
ACAD_XREC_ROUNDTRIP
360
61123
  0
DICTIONARY
  5
61114
330
29371
100
AcDbDictionary
280
     1
281
     1
  3
ACAD_XREC_ROUNDTRIP
360
61115
  0
DICTIONARY
  5
61118
330
29373
100
AcDbDictionary
280
     1
281
     1
  3
ACAD_XREC_ROUNDTRIP
360
61119
  0
DICTIONARY
  5
61132
330
29380
100
AcDbDictionary
280
     1
281
     1
  3
ACAD_XREC_ROUNDTRIP
360
61133
  0
DICTIONARY
  5
61120
330
29377
100
AcDbDictionary
280
     1
281
     1
  3
ACAD_XREC_ROUNDTRIP
360
61121
  0
DICTIONARY
  5
61104
330
29369
100
AcDbDictionary
280
     1
281
     1
  3
ACAD_XREC_ROUNDTRIP
360
61105
  0
DICTIONARY
  5
61106
330
2936A
100
AcDbDictionary
280
     1
281
     1
  3
ACAD_XREC_ROUNDTRIP
360
61107
  0
DICTIONARY
  5
61108
330
2936B
100
AcDbDictionary
280
     1
281
     1
  3
ACAD_XREC_ROUNDTRIP
360
61109
  0
DICTIONARY
  5
6110A
330
2936C
100
AcDbDictionary
280
     1
281
     1
  3
ACAD_XREC_ROUNDTRIP
360
6110B
  0
DICTIONARY
  5
61112
330
29370
100
AcDbDictionary
280
     1
281
     1
  3
ACAD_XREC_ROUNDTRIP
360
61113
  0
DICTIONARY
  5
6112E
330
2937E
100
AcDbDictionary
280
     1
281
     1
  3
ACAD_XREC_ROUNDTRIP
360
6112F
  0
DICTIONARY
  5
6111E
330
29376
100
AcDbDictionary
280
     1
281
     1
  3
ACAD_XREC_ROUNDTRIP
360
6111F
  0
DICTIONARY
  5
61130
330
2937F
100
AcDbDictionary
280
     1
281
     1
  3
ACAD_XREC_ROUNDTRIP
360
61131
  0
DICTIONARY
  5
61116
330
29372
100
AcDbDictionary
280
     1
281
     1
  3
ACAD_XREC_ROUNDTRIP
360
61117
  0
DICTIONARY
  5
6112C
330
2937D
100
AcDbDictionary
280
     1
281
     1
  3
ACAD_XREC_ROUNDTRIP
360
6112D
  0
DICTIONARY
  5
6112A
330
2937C
100
AcDbDictionary
280
     1
281
     1
  3
ACAD_XREC_ROUNDTRIP
360
6112B
  0
DICTIONARY
  5
61124
330
29379
100
AcDbDictionary
280
     1
281
     1
  3
ACAD_XREC_ROUNDTRIP
360
61125
  0
DICTIONARY
  5
61126
330
2937A
100
AcDbDictionary
280
     1
281
     1
  3
ACAD_XREC_ROUNDTRIP
360
61127
  0
DICTIONARY
  5
6111C
330
29375
100
AcDbDictionary
280
     1
281
     1
  3
ACAD_XREC_ROUNDTRIP
360
6111D
  0
DICTIONARY
  5
61110
330
2936F
100
AcDbDictionary
280
     1
281
     1
  3
ACAD_XREC_ROUNDTRIP
360
61111
  0
DICTIONARY
  5
61128
330
2937B
100
AcDbDictionary
280
     1
281
     1
  3
ACAD_XREC_ROUNDTRIP
360
61129
  0
XRECORD
  5
610FD
102
{ACAD_REACTORS
330
610FC
102
}
330
610FC
100
AcDbXrecord
280
     1
102
SHADEPLOT
 70
     0
102
SHADEPLOTRESLEVEL
 70
     2
102
SHADEPLOTCUSTOMDPI
 70
   300
  0
XRECORD
  5
610FF
102
{ACAD_REACTORS
330
610FE
102
}
330
610FE
100
AcDbXrecord
280
     1
102
SHADEPLOT
 70
     0
102
SHADEPLOTRESLEVEL
 70
     2
102
SHADEPLOTCUSTOMDPI
 70
   300
  0
XRECORD
  5
61102
102
{ACAD_REACTORS
330
29359
102
}
330
29359
100
AcDbXrecord
280
     1
102
MATERIAL
148
0.0
149
0.0
149
0.0
 93
        0
 94
      127
282
     0
 72
     0
 77
     0
171
     0
175
     0
179
     0
273
     0
  0
XRECORD
  5
2935B
102
{ACAD_REACTORS
330
29359
102
}
330
29359
100
AcDbXrecord
280
     1
270
     1
271
     1
  0
XRECORD
  5
2935A
102
{ACAD_REACTORS
330
29359
102
}
330
29359
100
AcDbXrecord
280
     1
270
     1
271
     1
  0
XRECORD
  5
2935E
102
{ACAD_REACTORS
330
29359
102
}
330
29359
100
AcDbXrecord
280
     1
270
     1
271
     1
  0
XRECORD
  5
2935D
102
{ACAD_REACTORS
330
29359
102
}
330
29359
100
AcDbXrecord
280
     1
270
     1
271
     1
  0
XRECORD
  5
2935F
102
{ACAD_REACTORS
330
29359
102
}
330
29359
100
AcDbXrecord
280
     1
270
     1
271
     1
  0
XRECORD
  5
2935C
102
{ACAD_REACTORS
330
29359
102
}
330
29359
100
AcDbXrecord
280
     1
270
     1
271
     1
  0
XRECORD
  5
61101
102
{ACAD_REACTORS
330
29351
102
}
330
29351
100
AcDbXrecord
280
     1
102
MATERIAL
148
0.0
149
0.0
149
0.0
 93
        0
 94
      127
282
     0
 72
     0
 77
     0
171
     0
175
     0
179
     0
273
     0
  0
XRECORD
  5
29353
102
{ACAD_REACTORS
330
29351
102
}
330
29351
100
AcDbXrecord
280
     1
270
     1
271
     1
  0
XRECORD
  5
29352
102
{ACAD_REACTORS
330
29351
102
}
330
29351
100
AcDbXrecord
280
     1
270
     1
271
     1
  0
XRECORD
  5
29356
102
{ACAD_REACTORS
330
29351
102
}
330
29351
100
AcDbXrecord
280
     1
270
     1
271
     1
  0
XRECORD
  5
29355
102
{ACAD_REACTORS
330
29351
102
}
330
29351
100
AcDbXrecord
280
     1
270
     1
271
     1
  0
XRECORD
  5
29357
102
{ACAD_REACTORS
330
29351
102
}
330
29351
100
AcDbXrecord
280
     1
270
     1
271
     1
  0
XRECORD
  5
29354
102
{ACAD_REACTORS
330
29351
102
}
330
29351
100
AcDbXrecord
280
     1
270
     1
271
     1
  0
XRECORD
  5
61103
102
{ACAD_REACTORS
330
29361
102
}
330
29361
100
AcDbXrecord
280
     1
102
MATERIAL
148
0.0
149
0.0
149
0.0
 93
        0
 94
      127
282
     0
 72
     0
 77
     0
171
     0
175
     0
179
     0
273
     0
  0
XRECORD
  5
29363
102
{ACAD_REACTORS
330
29361
102
}
330
29361
100
AcDbXrecord
280
     1
270
     1
271
     1
  0
XRECORD
  5
29362
102
{ACAD_REACTORS
330
29361
102
}
330
29361
100
AcDbXrecord
280
     1
270
     1
271
     1
  0
XRECORD
  5
29366
102
{ACAD_REACTORS
330
29361
102
}
330
29361
100
AcDbXrecord
280
     1
270
     1
271
     1
  0
XRECORD
  5
29365
102
{ACAD_REACTORS
330
29361
102
}
330
29361
100
AcDbXrecord
280
     1
270
     1
271
     1
  0
XRECORD
  5
29367
102
{ACAD_REACTORS
330
29361
102
}
330
29361
100
AcDbXrecord
280
     1
270
     1
271
     1
  0
XRECORD
  5
29364
102
{ACAD_REACTORS
330
29361
102
}
330
29361
100
AcDbXrecord
280
     1
270
     1
271
     1
  0
CELLSTYLEMAP
  5
610F9
102
{ACAD_REACTORS
330
29608
102
}
330
29608
100
AcDbCellStyleMap
 90
        3
300
CELLSTYLE
  1
TABLEFORMAT_BEGIN
 90
        5
170
     1
 91
        0
 92
    32768
 62
   257
 93
        1
300
CONTENTFORMAT
  1
CONTENTFORMAT_BEGIN
 90
        0
 91
        0
 92
        4
 93
        0
300

 40
0.0
140
1.0
 94
        5
 62
     0
340
F
144
0.25
309
CONTENTFORMAT_END
171
     0
 94
        6
 95
        1
302
GRIDFORMAT
  1
GRIDFORMAT_BEGIN
 90
        0
 91
        1
 62
     0
 92
       -2
340
0
 93
        0
 40
0.045
309
GRIDFORMAT_END
 95
        2
302
GRIDFORMAT
  1
GRIDFORMAT_BEGIN
 90
        0
 91
        1
 62
     0
 92
       -2
340
0
 93
        0
 40
0.045
309
GRIDFORMAT_END
 95
        4
302
GRIDFORMAT
  1
GRIDFORMAT_BEGIN
 90
        0
 91
        1
 62
     0
 92
       -2
340
0
 93
        0
 40
0.045
309
GRIDFORMAT_END
 95
        8
302
GRIDFORMAT
  1
GRIDFORMAT_BEGIN
 90
        0
 91
        1
 62
     0
 92
       -2
340
0
 93
        0
 40
0.045
309
GRIDFORMAT_END
 95
       16
302
GRIDFORMAT
  1
GRIDFORMAT_BEGIN
 90
        0
 91
        1
 62
     0
 92
       -2
340
0
 93
        0
 40
0.045
309
GRIDFORMAT_END
 95
       32
302
GRIDFORMAT
  1
GRIDFORMAT_BEGIN
 90
        0
 91
        1
 62
     0
 92
       -2
340
0
 93
        0
 40
0.045
309
GRIDFORMAT_END
309
TABLEFORMAT_END
  1
CELLSTYLE_BEGIN
 90
        1
 91
        1
300
_TITLE
309
CELLSTYLE_END
300
CELLSTYLE
  1
TABLEFORMAT_BEGIN
 90
        5
170
     1
 91
        0
 92
        0
 62
   257
 93
        1
300
CONTENTFORMAT
  1
CONTENTFORMAT_BEGIN
 90
        0
 91
        0
 92
        4
 93
        0
300

 40
0.0
140
1.0
 94
        5
 62
     0
340
F
144
0.18
309
CONTENTFORMAT_END
171
     0
 94
        6
 95
        1
302
GRIDFORMAT
  1
GRIDFORMAT_BEGIN
 90
        0
 91
        1
 62
     0
 92
       -2
340
0
 93
        0
 40
0.045
309
GRIDFORMAT_END
 95
        2
302
GRIDFORMAT
  1
GRIDFORMAT_BEGIN
 90
        0
 91
        1
 62
     0
 92
       -2
340
0
 93
        0
 40
0.045
309
GRIDFORMAT_END
 95
        4
302
GRIDFORMAT
  1
GRIDFORMAT_BEGIN
 90
        0
 91
        1
 62
     0
 92
       -2
340
0
 93
        0
 40
0.045
309
GRIDFORMAT_END
 95
        8
302
GRIDFORMAT
  1
GRIDFORMAT_BEGIN
 90
        0
 91
        1
 62
     0
 92
       -2
340
0
 93
        0
 40
0.045
309
GRIDFORMAT_END
 95
       16
302
GRIDFORMAT
  1
GRIDFORMAT_BEGIN
 90
        0
 91
        1
 62
     0
 92
       -2
340
0
 93
        0
 40
0.045
309
GRIDFORMAT_END
 95
       32
302
GRIDFORMAT
  1
GRIDFORMAT_BEGIN
 90
        0
 91
        1
 62
     0
 92
       -2
340
0
 93
        0
 40
0.045
309
GRIDFORMAT_END
309
TABLEFORMAT_END
  1
CELLSTYLE_BEGIN
 90
        2
 91
        1
300
_HEADER
309
CELLSTYLE_END
300
CELLSTYLE
  1
TABLEFORMAT_BEGIN
 90
        5
170
     1
 91
        0
 92
        0
 62
   257
 93
        1
300
CONTENTFORMAT
  1
CONTENTFORMAT_BEGIN
 90
        0
 91
        0
 92
        4
 93
        0
300

 40
0.0
140
1.0
 94
        2
 62
     0
340
F
144
0.18
309
CONTENTFORMAT_END
171
     0
 94
        6
 95
        1
302
GRIDFORMAT
  1
GRIDFORMAT_BEGIN
 90
        0
 91
        1
 62
     0
 92
       -2
340
0
 93
        0
 40
0.045
309
GRIDFORMAT_END
 95
        2
302
GRIDFORMAT
  1
GRIDFORMAT_BEGIN
 90
        0
 91
        1
 62
     0
 92
       -2
340
0
 93
        0
 40
0.045
309
GRIDFORMAT_END
 95
        4
302
GRIDFORMAT
  1
GRIDFORMAT_BEGIN
 90
        0
 91
        1
 62
     0
 92
       -2
340
0
 93
        0
 40
0.045
309
GRIDFORMAT_END
 95
        8
302
GRIDFORMAT
  1
GRIDFORMAT_BEGIN
 90
        0
 91
        1
 62
     0
 92
       -2
340
0
 93
        0
 40
0.045
309
GRIDFORMAT_END
 95
       16
302
GRIDFORMAT
  1
GRIDFORMAT_BEGIN
 90
        0
 91
        1
 62
     0
 92
       -2
340
0
 93
        0
 40
0.045
309
GRIDFORMAT_END
 95
       32
302
GRIDFORMAT
  1
GRIDFORMAT_BEGIN
 90
        0
 91
        1
 62
     0
 92
       -2
340
0
 93
        0
 40
0.045
309
GRIDFORMAT_END
309
TABLEFORMAT_END
  1
CELLSTYLE_BEGIN
 90
        3
 91
        2
300
_DATA
309
CELLSTYLE_END
  0
XRECORD
  5
61100
102
{ACAD_REACTORS
330
29608
102
}
330
29608
100
AcDbXrecord
280
     1
102
ACAD_ROUNDTRIP_PRE2007_TABLESTYLE
 90
        4
 91
        0
  1

 92
        4
 93
        0
  2

 94
        4
 95
        0
  3

  0
XRECORD
  5
6110F
102
{ACAD_REACTORS
330
6110E
102
}
330
6110E
100
AcDbXrecord
280
     1
102
RTVSPropertyOp0
 70
     1
102
RTVSPropertyOp1
 70
     1
102
RTVSPropertyOp2
 70
     1
102
RTVSPropertyOp3
 70
     1
102
RTVSPropertyOp4
 70
     1
102
RTVSPropertyOp5
 70
     1
102
RTVSPropertyOp6
 70
     1
102
RTVSPropertyOp7
 70
     1
102
RTVSPropertyOp8
 70
     1
102
RTVSPropertyOp9
 70
     1
102
RTVSPropertyOp10
 70
     1
102
RTVSPropertyOp11
 70
     1
102
RTVSPropertyOp12
 70
     1
102
RTVSPropertyOp13
 70
     1
102
RTVSPropertyOp14
 70
     1
102
RTVSPropertyOp15
 70
     1
102
RTVSPropertyOp16
 70
     1
102
RTVSPropertyOp17
 70
     1
102
RTVSPropertyOp18
 70
     1
102
RTVSPropertyOp19
 70
     1
102
RTVSPropertyOp20
 70
     1
102
RTVSPropertyOp21
 70
     1
102
RTVSPropertyOp22
 70
     1
102
RTVSPropertyOp23
 70
     1
102
RTVSPropertyOp24
 70
     1
102
RTVSPropertyOp25
 70
     1
102
RTVSPropertyOp26
 70
     1
102
RTVSPropertyOp27
 70
     1
102
RTVSPropertyOp28
 70
     1
102
RTVSPropertyOp29
 70
     1
102
RTVSPropertyOp30
 70
     1
102
RTVSPropertyOp31
 70
     1
102
RTVSPropertyOp32
 70
     1
  0
XRECORD
  5
61135
102
{ACAD_REACTORS
330
61134
102
}
330
61134
100
AcDbXrecord
280
     1
102
RTVSPropertyOp0
 70
     1
102
RTVSPropertyOp1
 70
     1
102
RTVSPropertyOp2
 70
     1
102
RTVSPropertyOp3
 70
     1
102
RTVSPropertyOp4
 70
     1
102
RTVSPropertyOp5
 70
     1
102
RTVSPropertyOp6
 70
     1
102
RTVSPropertyOp7
 70
     1
102
RTVSPropertyOp8
 70
     1
102
RTVSPropertyOp9
 70
     1
102
RTVSPropertyOp10
 70
     1
102
RTVSPropertyOp11
 70
     1
102
RTVSPropertyOp12
 70
     1
102
RTVSPropertyOp13
 70
     1
102
RTVSPropertyOp14
 70
     1
102
RTVSPropertyOp15
 70
     1
102
RTVSPropertyOp16
 70
     1
102
RTVSPropertyOp17
 70
     1
102
RTVSPropertyOp18
 70
     1
102
RTVSPropertyOp19
 70
     1
102
RTVSPropertyOp20
 70
     1
102
RTVSPropertyOp21
 70
     1
102
RTVSPropertyOp22
 70
     1
102
RTVSPropertyOp23
 70
     1
102
RTVSPropertyOp24
 70
     1
102
RTVSPropertyOp25
 70
     1
102
RTVSPropertyOp26
 70
     1
102
RTVSPropertyOp27
 70
     1
102
RTVSPropertyOp28
 70
     1
102
RTVSPropertyOp29
 70
     1
102
RTVSPropertyOp30
 70
     1
102
RTVSPropertyOp31
 70
     1
102
RTVSPropertyOp32
 70
     1
  0
XRECORD
  5
6110D
102
{ACAD_REACTORS
330
6110C
102
}
330
6110C
100
AcDbXrecord
280
     1
102
RTVSPropertyOp0
 70
     1
102
RTVSPropertyOp1
 70
     1
102
RTVSPropertyOp2
 70
     1
102
RTVSPropertyOp3
 70
     1
102
RTVSPropertyOp4
 70
     1
102
RTVSPropertyOp5
 70
     1
102
RTVSPropertyOp6
 70
     1
102
RTVSPropertyOp7
 70
     1
102
RTVSPropertyOp8
 70
     1
102
RTVSPropertyOp9
 70
     1
102
RTVSPropertyOp10
 70
     1
102
RTVSPropertyOp11
 70
     1
102
RTVSPropertyOp12
 70
     1
102
RTVSPropertyOp13
 70
     1
102
RTVSPropertyOp14
 70
     1
102
RTVSPropertyOp15
 70
     1
102
RTVSPropertyOp16
 70
     1
102
RTVSPropertyOp17
 70
     1
102
RTVSPropertyOp18
 70
     1
102
RTVSPropertyOp19
 70
     1
102
RTVSPropertyOp20
 70
     1
102
RTVSPropertyOp21
 70
     1
102
RTVSPropertyOp22
 70
     1
102
RTVSPropertyOp23
 70
     1
102
RTVSPropertyOp24
 70
     1
102
RTVSPropertyOp25
 70
     1
102
RTVSPropertyOp26
 70
     1
102
RTVSPropertyOp27
 70
     1
102
RTVSPropertyOp28
 70
     1
102
RTVSPropertyOp29
 70
     1
102
RTVSPropertyOp30
 70
     1
102
RTVSPropertyOp31
 70
     1
102
RTVSPropertyOp32
 70
     1
  0
XRECORD
  5
6111B
102
{ACAD_REACTORS
330
6111A
102
}
330
6111A
100
AcDbXrecord
280
     1
102
RTVSPropertyOp0
 70
     1
102
RTVSPropertyOp1
 70
     1
102
RTVSPropertyOp2
 70
     1
102
RTVSPropertyOp3
 70
     1
102
RTVSPropertyOp4
 70
     1
102
RTVSPropertyOp5
 70
     1
102
RTVSPropertyOp6
 70
     1
102
RTVSPropertyOp7
 70
     1
102
RTVSPropertyOp8
 70
     1
102
RTVSPropertyOp9
 70
     1
102
RTVSPropertyOp10
 70
     1
102
RTVSPropertyOp11
 70
     1
102
RTVSPropertyOp12
 70
     1
102
RTVSPropertyOp13
 70
     1
102
RTVSPropertyOp14
 70
     1
102
RTVSPropertyOp15
 70
     1
102
RTVSPropertyOp16
 70
     1
102
RTVSPropertyOp17
 70
     1
102
RTVSPropertyOp18
 70
     1
102
RTVSPropertyOp19
 70
     1
102
RTVSPropertyOp20
 70
     1
102
RTVSPropertyOp21
 70
     1
102
RTVSPropertyOp22
 70
     1
102
RTVSPropertyOp23
 70
     1
102
RTVSPropertyOp24
 70
     1
102
RTVSPropertyOp25
 70
     1
102
RTVSPropertyOp26
 70
     1
102
RTVSPropertyOp27
 70
     1
102
RTVSPropertyOp28
 70
     1
102
RTVSPropertyOp29
 70
     1
102
RTVSPropertyOp30
 70
     1
102
RTVSPropertyOp31
 70
     1
102
RTVSPropertyOp32
 70
     1
  0
XRECORD
  5
61123
102
{ACAD_REACTORS
330
61122
102
}
330
61122
100
AcDbXrecord
280
     1
102
RTVSPropertyOp0
 70
     1
102
RTVSPropertyOp1
 70
     1
102
RTVSPropertyOp2
 70
     1
102
RTVSPropertyOp3
 70
     1
102
RTVSPropertyOp4
 70
     1
102
RTVSPropertyOp5
 70
     1
102
RTVSPropertyOp6
 70
     1
102
RTVSPropertyOp7
 70
     1
102
RTVSPropertyOp8
 70
     1
102
RTVSPropertyOp9
 70
     1
102
RTVSPropertyOp10
 70
     1
102
RTVSPropertyOp11
 70
     1
102
RTVSPropertyOp12
 70
     1
102
RTVSPropertyOp13
 70
     1
102
RTVSPropertyOp14
 70
     1
102
RTVSPropertyOp15
 70
     1
102
RTVSPropertyOp16
 70
     1
102
RTVSPropertyOp17
 70
     1
102
RTVSPropertyOp18
 70
     1
102
RTVSPropertyOp19
 70
     1
102
RTVSPropertyOp20
 70
     1
102
RTVSPropertyOp21
 70
     1
102
RTVSPropertyOp22
 70
     1
102
RTVSPropertyOp23
 70
     1
102
RTVSPropertyOp24
 70
     1
102
RTVSPropertyOp25
 70
     1
102
RTVSPropertyOp26
 70
     1
102
RTVSPropertyOp27
 70
     1
102
RTVSPropertyOp28
 70
     1
102
RTVSPropertyOp29
 70
     1
102
RTVSPropertyOp30
 70
     1
102
RTVSPropertyOp31
 70
     1
102
RTVSPropertyOp32
 70
     1
  0
XRECORD
  5
61115
102
{ACAD_REACTORS
330
61114
102
}
330
61114
100
AcDbXrecord
280
     1
102
RTVSPropertyOp0
 70
     1
102
RTVSPropertyOp1
 70
     1
102
RTVSPropertyOp2
 70
     1
102
RTVSPropertyOp3
 70
     1
102
RTVSPropertyOp4
 70
     1
102
RTVSPropertyOp5
 70
     1
102
RTVSPropertyOp6
 70
     1
102
RTVSPropertyOp7
 70
     1
102
RTVSPropertyOp8
 70
     1
102
RTVSPropertyOp9
 70
     1
102
RTVSPropertyOp10
 70
     1
102
RTVSPropertyOp11
 70
     1
102
RTVSPropertyOp12
 70
     1
102
RTVSPropertyOp13
 70
     1
102
RTVSPropertyOp14
 70
     1
102
RTVSPropertyOp15
 70
     1
102
RTVSPropertyOp16
 70
     1
102
RTVSPropertyOp17
 70
     1
102
RTVSPropertyOp18
 70
     1
102
RTVSPropertyOp19
 70
     1
102
RTVSPropertyOp20
 70
     1
102
RTVSPropertyOp21
 70
     1
102
RTVSPropertyOp22
 70
     1
102
RTVSPropertyOp23
 70
     1
102
RTVSPropertyOp24
 70
     1
102
RTVSPropertyOp25
 70
     1
102
RTVSPropertyOp26
 70
     1
102
RTVSPropertyOp27
 70
     1
102
RTVSPropertyOp28
 70
     1
102
RTVSPropertyOp29
 70
     1
102
RTVSPropertyOp30
 70
     1
102
RTVSPropertyOp31
 70
     1
102
RTVSPropertyOp32
 70
     1
  0
XRECORD
  5
61119
102
{ACAD_REACTORS
330
61118
102
}
330
61118
100
AcDbXrecord
280
     1
102
RTVSPropertyOp0
 70
     1
102
RTVSPropertyOp1
 70
     1
102
RTVSPropertyOp2
 70
     1
102
RTVSPropertyOp3
 70
     1
102
RTVSPropertyOp4
 70
     1
102
RTVSPropertyOp5
 70
     1
102
RTVSPropertyOp6
 70
     1
102
RTVSPropertyOp7
 70
     1
102
RTVSPropertyOp8
 70
     1
102
RTVSPropertyOp9
 70
     1
102
RTVSPropertyOp10
 70
     1
102
RTVSPropertyOp11
 70
     1
102
RTVSPropertyOp12
 70
     1
102
RTVSPropertyOp13
 70
     1
102
RTVSPropertyOp14
 70
     1
102
RTVSPropertyOp15
 70
     1
102
RTVSPropertyOp16
 70
     1
102
RTVSPropertyOp17
 70
     1
102
RTVSPropertyOp18
 70
     1
102
RTVSPropertyOp19
 70
     1
102
RTVSPropertyOp20
 70
     1
102
RTVSPropertyOp21
 70
     1
102
RTVSPropertyOp22
 70
     1
102
RTVSPropertyOp23
 70
     1
102
RTVSPropertyOp24
 70
     1
102
RTVSPropertyOp25
 70
     1
102
RTVSPropertyOp26
 70
     1
102
RTVSPropertyOp27
 70
     1
102
RTVSPropertyOp28
 70
     1
102
RTVSPropertyOp29
 70
     1
102
RTVSPropertyOp30
 70
     1
102
RTVSPropertyOp31
 70
     1
102
RTVSPropertyOp32
 70
     1
  0
XRECORD
  5
61133
102
{ACAD_REACTORS
330
61132
102
}
330
61132
100
AcDbXrecord
280
     1
102
RTVSPropertyOp0
 70
     0
102
RTVSPropertyOp1
 70
     0
102
RTVSPropertyOp2
 70
     0
102
RTVSPropertyOp3
 70
     0
102
RTVSPropertyOp4
 70
     0
102
RTVSPropertyOp5
 70
     0
102
RTVSPropertyOp6
 70
     0
102
RTVSPropertyOp7
 70
     0
102
RTVSPropertyOp8
 70
     0
102
RTVSPropertyOp9
 70
     0
102
RTVSPropertyOp10
 70
     0
102
RTVSPropertyOp11
 70
     0
102
RTVSPropertyOp12
 70
     0
102
RTVSPropertyOp13
 70
     0
102
RTVSPropertyOp14
 70
     2
102
RTVSPropertyOp15
 70
     0
102
RTVSPropertyOp16
 70
     0
102
RTVSPropertyOp17
 70
     0
102
RTVSPropertyOp18
 70
     0
102
RTVSPropertyOp19
 70
     0
102
RTVSPropertyOp20
 70
     0
102
RTVSPropertyOp21
 70
     0
102
RTVSPropertyOp22
 70
     0
102
RTVSPropertyOp23
 70
     0
102
RTVSPropertyOp24
 70
     0
102
RTVSPropertyOp25
 70
     0
102
RTVSPropertyOp26
 70
     0
102
RTVSPropertyOp27
 70
     0
102
RTVSPropertyOp28
 70
     0
102
RTVSPropertyOp29
 70
     0
102
RTVSPropertyOp30
 70
     0
102
RTVSPropertyOp31
 70
     0
102
RTVSPropertyOp32
 70
     0
  0
XRECORD
  5
61121
102
{ACAD_REACTORS
330
61120
102
}
330
61120
100
AcDbXrecord
280
     1
102
RTVSPropertyOp0
 70
     1
102
RTVSPropertyOp1
 70
     1
102
RTVSPropertyOp2
 70
     1
102
RTVSPropertyOp3
 70
     1
102
RTVSPropertyOp4
 70
     1
102
RTVSPropertyOp5
 70
     1
102
RTVSPropertyOp6
 70
     1
102
RTVSPropertyOp7
 70
     1
102
RTVSPropertyOp8
 70
     1
102
RTVSPropertyOp9
 70
     1
102
RTVSPropertyOp10
 70
     1
102
RTVSPropertyOp11
 70
     1
102
RTVSPropertyOp12
 70
     1
102
RTVSPropertyOp13
 70
     1
102
RTVSPropertyOp14
 70
     1
102
RTVSPropertyOp15
 70
     1
102
RTVSPropertyOp16
 70
     1
102
RTVSPropertyOp17
 70
     1
102
RTVSPropertyOp18
 70
     1
102
RTVSPropertyOp19
 70
     1
102
RTVSPropertyOp20
 70
     1
102
RTVSPropertyOp21
 70
     1
102
RTVSPropertyOp22
 70
     1
102
RTVSPropertyOp23
 70
     1
102
RTVSPropertyOp24
 70
     1
102
RTVSPropertyOp25
 70
     1
102
RTVSPropertyOp26
 70
     1
102
RTVSPropertyOp27
 70
     1
102
RTVSPropertyOp28
 70
     1
102
RTVSPropertyOp29
 70
     1
102
RTVSPropertyOp30
 70
     1
102
RTVSPropertyOp31
 70
     1
102
RTVSPropertyOp32
 70
     1
  0
XRECORD
  5
61105
102
{ACAD_REACTORS
330
61104
102
}
330
61104
100
AcDbXrecord
280
     1
102
RTVSPropertyOp0
 70
     1
102
RTVSPropertyOp1
 70
     1
102
RTVSPropertyOp2
 70
     1
102
RTVSPropertyOp3
 70
     1
102
RTVSPropertyOp4
 70
     1
102
RTVSPropertyOp5
 70
     1
102
RTVSPropertyOp6
 70
     1
102
RTVSPropertyOp7
 70
     1
102
RTVSPropertyOp8
 70
     1
102
RTVSPropertyOp9
 70
     1
102
RTVSPropertyOp10
 70
     1
102
RTVSPropertyOp11
 70
     1
102
RTVSPropertyOp12
 70
     1
102
RTVSPropertyOp13
 70
     1
102
RTVSPropertyOp14
 70
     1
102
RTVSPropertyOp15
 70
     1
102
RTVSPropertyOp16
 70
     1
102
RTVSPropertyOp17
 70
     1
102
RTVSPropertyOp18
 70
     1
102
RTVSPropertyOp19
 70
     1
102
RTVSPropertyOp20
 70
     1
102
RTVSPropertyOp21
 70
     1
102
RTVSPropertyOp22
 70
     1
102
RTVSPropertyOp23
 70
     1
102
RTVSPropertyOp24
 70
     1
102
RTVSPropertyOp25
 70
     1
102
RTVSPropertyOp26
 70
     1
102
RTVSPropertyOp27
 70
     1
102
RTVSPropertyOp28
 70
     1
102
RTVSPropertyOp29
 70
     1
102
RTVSPropertyOp30
 70
     1
102
RTVSPropertyOp31
 70
     1
102
RTVSPropertyOp32
 70
     1
  0
XRECORD
  5
61107
102
{ACAD_REACTORS
330
61106
102
}
330
61106
100
AcDbXrecord
280
     1
102
RTVSPropertyOp0
 70
     1
102
RTVSPropertyOp1
 70
     1
102
RTVSPropertyOp2
 70
     1
102
RTVSPropertyOp3
 70
     1
102
RTVSPropertyOp4
 70
     1
102
RTVSPropertyOp5
 70
     1
102
RTVSPropertyOp6
 70
     1
102
RTVSPropertyOp7
 70
     1
102
RTVSPropertyOp8
 70
     1
102
RTVSPropertyOp9
 70
     1
102
RTVSPropertyOp10
 70
     1
102
RTVSPropertyOp11
 70
     1
102
RTVSPropertyOp12
 70
     1
102
RTVSPropertyOp13
 70
     1
102
RTVSPropertyOp14
 70
     1
102
RTVSPropertyOp15
 70
     1
102
RTVSPropertyOp16
 70
     1
102
RTVSPropertyOp17
 70
     1
102
RTVSPropertyOp18
 70
     1
102
RTVSPropertyOp19
 70
     1
102
RTVSPropertyOp20
 70
     1
102
RTVSPropertyOp21
 70
     1
102
RTVSPropertyOp22
 70
     1
102
RTVSPropertyOp23
 70
     1
102
RTVSPropertyOp24
 70
     1
102
RTVSPropertyOp25
 70
     1
102
RTVSPropertyOp26
 70
     1
102
RTVSPropertyOp27
 70
     1
102
RTVSPropertyOp28
 70
     1
102
RTVSPropertyOp29
 70
     1
102
RTVSPropertyOp30
 70
     1
102
RTVSPropertyOp31
 70
     1
102
RTVSPropertyOp32
 70
     1
  0
XRECORD
  5
61109
102
{ACAD_REACTORS
330
61108
102
}
330
61108
100
AcDbXrecord
280
     1
102
RTVSPropertyOp0
 70
     1
102
RTVSPropertyOp1
 70
     1
102
RTVSPropertyOp2
 70
     1
102
RTVSPropertyOp3
 70
     1
102
RTVSPropertyOp4
 70
     1
102
RTVSPropertyOp5
 70
     1
102
RTVSPropertyOp6
 70
     1
102
RTVSPropertyOp7
 70
     1
102
RTVSPropertyOp8
 70
     1
102
RTVSPropertyOp9
 70
     1
102
RTVSPropertyOp10
 70
     1
102
RTVSPropertyOp11
 70
     1
102
RTVSPropertyOp12
 70
     1
102
RTVSPropertyOp13
 70
     1
102
RTVSPropertyOp14
 70
     1
102
RTVSPropertyOp15
 70
     1
102
RTVSPropertyOp16
 70
     1
102
RTVSPropertyOp17
 70
     1
102
RTVSPropertyOp18
 70
     1
102
RTVSPropertyOp19
 70
     1
102
RTVSPropertyOp20
 70
     1
102
RTVSPropertyOp21
 70
     1
102
RTVSPropertyOp22
 70
     1
102
RTVSPropertyOp23
 70
     1
102
RTVSPropertyOp24
 70
     1
102
RTVSPropertyOp25
 70
     1
102
RTVSPropertyOp26
 70
     1
102
RTVSPropertyOp27
 70
     1
102
RTVSPropertyOp28
 70
     1
102
RTVSPropertyOp29
 70
     1
102
RTVSPropertyOp30
 70
     1
102
RTVSPropertyOp31
 70
     1
102
RTVSPropertyOp32
 70
     1
  0
XRECORD
  5
6110B
102
{ACAD_REACTORS
330
6110A
102
}
330
6110A
100
AcDbXrecord
280
     1
102
RTVSPropertyOp0
 70
     1
102
RTVSPropertyOp1
 70
     1
102
RTVSPropertyOp2
 70
     1
102
RTVSPropertyOp3
 70
     1
102
RTVSPropertyOp4
 70
     1
102
RTVSPropertyOp5
 70
     1
102
RTVSPropertyOp6
 70
     1
102
RTVSPropertyOp7
 70
     1
102
RTVSPropertyOp8
 70
     1
102
RTVSPropertyOp9
 70
     1
102
RTVSPropertyOp10
 70
     1
102
RTVSPropertyOp11
 70
     1
102
RTVSPropertyOp12
 70
     1
102
RTVSPropertyOp13
 70
     1
102
RTVSPropertyOp14
 70
     1
102
RTVSPropertyOp15
 70
     1
102
RTVSPropertyOp16
 70
     1
102
RTVSPropertyOp17
 70
     1
102
RTVSPropertyOp18
 70
     1
102
RTVSPropertyOp19
 70
     1
102
RTVSPropertyOp20
 70
     1
102
RTVSPropertyOp21
 70
     1
102
RTVSPropertyOp22
 70
     1
102
RTVSPropertyOp23
 70
     1
102
RTVSPropertyOp24
 70
     1
102
RTVSPropertyOp25
 70
     1
102
RTVSPropertyOp26
 70
     1
102
RTVSPropertyOp27
 70
     1
102
RTVSPropertyOp28
 70
     1
102
RTVSPropertyOp29
 70
     1
102
RTVSPropertyOp30
 70
     1
102
RTVSPropertyOp31
 70
     1
102
RTVSPropertyOp32
 70
     1
  0
XRECORD
  5
61113
102
{ACAD_REACTORS
330
61112
102
}
330
61112
100
AcDbXrecord
280
     1
102
RTVSPropertyOp0
 70
     1
102
RTVSPropertyOp1
 70
     1
102
RTVSPropertyOp2
 70
     1
102
RTVSPropertyOp3
 70
     1
102
RTVSPropertyOp4
 70
     1
102
RTVSPropertyOp5
 70
     1
102
RTVSPropertyOp6
 70
     1
102
RTVSPropertyOp7
 70
     1
102
RTVSPropertyOp8
 70
     1
102
RTVSPropertyOp9
 70
     1
102
RTVSPropertyOp10
 70
     1
102
RTVSPropertyOp11
 70
     1
102
RTVSPropertyOp12
 70
     1
102
RTVSPropertyOp13
 70
     1
102
RTVSPropertyOp14
 70
     1
102
RTVSPropertyOp15
 70
     1
102
RTVSPropertyOp16
 70
     1
102
RTVSPropertyOp17
 70
     1
102
RTVSPropertyOp18
 70
     1
102
RTVSPropertyOp19
 70
     1
102
RTVSPropertyOp20
 70
     1
102
RTVSPropertyOp21
 70
     1
102
RTVSPropertyOp22
 70
     1
102
RTVSPropertyOp23
 70
     1
102
RTVSPropertyOp24
 70
     1
102
RTVSPropertyOp25
 70
     1
102
RTVSPropertyOp26
 70
     1
102
RTVSPropertyOp27
 70
     1
102
RTVSPropertyOp28
 70
     1
102
RTVSPropertyOp29
 70
     1
102
RTVSPropertyOp30
 70
     1
102
RTVSPropertyOp31
 70
     1
102
RTVSPropertyOp32
 70
     1
  0
XRECORD
  5
6112F
102
{ACAD_REACTORS
330
6112E
102
}
330
6112E
100
AcDbXrecord
280
     1
102
RTVSPropertyOp0
 70
     0
102
RTVSPropertyOp1
 70
     0
102
RTVSPropertyOp2
 70
     0
102
RTVSPropertyOp3
 70
     0
102
RTVSPropertyOp4
 70
     0
102
RTVSPropertyOp5
 70
     0
102
RTVSPropertyOp6
 70
     0
102
RTVSPropertyOp7
 70
     0
102
RTVSPropertyOp8
 70
     0
102
RTVSPropertyOp9
 70
     0
102
RTVSPropertyOp10
 70
     0
102
RTVSPropertyOp11
 70
     0
102
RTVSPropertyOp12
 70
     0
102
RTVSPropertyOp13
 70
     0
102
RTVSPropertyOp14
 70
     2
102
RTVSPropertyOp15
 70
     0
102
RTVSPropertyOp16
 70
     0
102
RTVSPropertyOp17
 70
     0
102
RTVSPropertyOp18
 70
     0
102
RTVSPropertyOp19
 70
     0
102
RTVSPropertyOp20
 70
     0
102
RTVSPropertyOp21
 70
     0
102
RTVSPropertyOp22
 70
     0
102
RTVSPropertyOp23
 70
     0
102
RTVSPropertyOp24
 70
     0
102
RTVSPropertyOp25
 70
     0
102
RTVSPropertyOp26
 70
     0
102
RTVSPropertyOp27
 70
     0
102
RTVSPropertyOp28
 70
     0
102
RTVSPropertyOp29
 70
     0
102
RTVSPropertyOp30
 70
     0
102
RTVSPropertyOp31
 70
     0
102
RTVSPropertyOp32
 70
     0
  0
XRECORD
  5
6111F
102
{ACAD_REACTORS
330
6111E
102
}
330
6111E
100
AcDbXrecord
280
     1
102
RTVSPropertyOp0
 70
     1
102
RTVSPropertyOp1
 70
     1
102
RTVSPropertyOp2
 70
     1
102
RTVSPropertyOp3
 70
     1
102
RTVSPropertyOp4
 70
     1
102
RTVSPropertyOp5
 70
     1
102
RTVSPropertyOp6
 70
     1
102
RTVSPropertyOp7
 70
     1
102
RTVSPropertyOp8
 70
     1
102
RTVSPropertyOp9
 70
     1
102
RTVSPropertyOp10
 70
     1
102
RTVSPropertyOp11
 70
     1
102
RTVSPropertyOp12
 70
     1
102
RTVSPropertyOp13
 70
     1
102
RTVSPropertyOp14
 70
     1
102
RTVSPropertyOp15
 70
     1
102
RTVSPropertyOp16
 70
     1
102
RTVSPropertyOp17
 70
     1
102
RTVSPropertyOp18
 70
     1
102
RTVSPropertyOp19
 70
     1
102
RTVSPropertyOp20
 70
     1
102
RTVSPropertyOp21
 70
     1
102
RTVSPropertyOp22
 70
     1
102
RTVSPropertyOp23
 70
     1
102
RTVSPropertyOp24
 70
     1
102
RTVSPropertyOp25
 70
     1
102
RTVSPropertyOp26
 70
     1
102
RTVSPropertyOp27
 70
     1
102
RTVSPropertyOp28
 70
     1
102
RTVSPropertyOp29
 70
     1
102
RTVSPropertyOp30
 70
     1
102
RTVSPropertyOp31
 70
     1
102
RTVSPropertyOp32
 70
     1
  0
XRECORD
  5
61131
102
{ACAD_REACTORS
330
61130
102
}
330
61130
100
AcDbXrecord
280
     1
102
RTVSPropertyOp0
 70
     0
102
RTVSPropertyOp1
 70
     0
102
RTVSPropertyOp2
 70
     0
102
RTVSPropertyOp3
 70
     0
102
RTVSPropertyOp4
 70
     0
102
RTVSPropertyOp5
 70
     0
102
RTVSPropertyOp6
 70
     0
102
RTVSPropertyOp7
 70
     0
102
RTVSPropertyOp8
 70
     0
102
RTVSPropertyOp9
 70
     0
102
RTVSPropertyOp10
 70
     0
102
RTVSPropertyOp11
 70
     0
102
RTVSPropertyOp12
 70
     0
102
RTVSPropertyOp13
 70
     0
102
RTVSPropertyOp14
 70
     2
102
RTVSPropertyOp15
 70
     0
102
RTVSPropertyOp16
 70
     0
102
RTVSPropertyOp17
 70
     0
102
RTVSPropertyOp18
 70
     0
102
RTVSPropertyOp19
 70
     0
102
RTVSPropertyOp20
 70
     0
102
RTVSPropertyOp21
 70
     0
102
RTVSPropertyOp22
 70
     0
102
RTVSPropertyOp23
 70
     0
102
RTVSPropertyOp24
 70
     0
102
RTVSPropertyOp25
 70
     0
102
RTVSPropertyOp26
 70
     0
102
RTVSPropertyOp27
 70
     0
102
RTVSPropertyOp28
 70
     0
102
RTVSPropertyOp29
 70
     0
102
RTVSPropertyOp30
 70
     0
102
RTVSPropertyOp31
 70
     0
102
RTVSPropertyOp32
 70
     0
  0
XRECORD
  5
61117
102
{ACAD_REACTORS
330
61116
102
}
330
61116
100
AcDbXrecord
280
     1
102
RTVSPropertyOp0
 70
     1
102
RTVSPropertyOp1
 70
     1
102
RTVSPropertyOp2
 70
     1
102
RTVSPropertyOp3
 70
     1
102
RTVSPropertyOp4
 70
     1
102
RTVSPropertyOp5
 70
     1
102
RTVSPropertyOp6
 70
     1
102
RTVSPropertyOp7
 70
     1
102
RTVSPropertyOp8
 70
     1
102
RTVSPropertyOp9
 70
     1
102
RTVSPropertyOp10
 70
     1
102
RTVSPropertyOp11
 70
     1
102
RTVSPropertyOp12
 70
     1
102
RTVSPropertyOp13
 70
     1
102
RTVSPropertyOp14
 70
     1
102
RTVSPropertyOp15
 70
     1
102
RTVSPropertyOp16
 70
     1
102
RTVSPropertyOp17
 70
     1
102
RTVSPropertyOp18
 70
     1
102
RTVSPropertyOp19
 70
     1
102
RTVSPropertyOp20
 70
     1
102
RTVSPropertyOp21
 70
     1
102
RTVSPropertyOp22
 70
     1
102
RTVSPropertyOp23
 70
     1
102
RTVSPropertyOp24
 70
     1
102
RTVSPropertyOp25
 70
     1
102
RTVSPropertyOp26
 70
     1
102
RTVSPropertyOp27
 70
     1
102
RTVSPropertyOp28
 70
     1
102
RTVSPropertyOp29
 70
     1
102
RTVSPropertyOp30
 70
     1
102
RTVSPropertyOp31
 70
     1
102
RTVSPropertyOp32
 70
     1
  0
XRECORD
  5
6112D
102
{ACAD_REACTORS
330
6112C
102
}
330
6112C
100
AcDbXrecord
280
     1
102
RTVSPropertyOp0
 70
     1
102
RTVSPropertyOp1
 70
     1
102
RTVSPropertyOp2
 70
     1
102
RTVSPropertyOp3
 70
     1
102
RTVSPropertyOp4
 70
     1
102
RTVSPropertyOp5
 70
     1
102
RTVSPropertyOp6
 70
     1
102
RTVSPropertyOp7
 70
     1
102
RTVSPropertyOp8
 70
     1
102
RTVSPropertyOp9
 70
     1
102
RTVSPropertyOp10
 70
     1
102
RTVSPropertyOp11
 70
     1
102
RTVSPropertyOp12
 70
     1
102
RTVSPropertyOp13
 70
     1
102
RTVSPropertyOp14
 70
     1
102
RTVSPropertyOp15
 70
     1
102
RTVSPropertyOp16
 70
     1
102
RTVSPropertyOp17
 70
     1
102
RTVSPropertyOp18
 70
     1
102
RTVSPropertyOp19
 70
     1
102
RTVSPropertyOp20
 70
     1
102
RTVSPropertyOp21
 70
     1
102
RTVSPropertyOp22
 70
     1
102
RTVSPropertyOp23
 70
     1
102
RTVSPropertyOp24
 70
     1
102
RTVSPropertyOp25
 70
     1
102
RTVSPropertyOp26
 70
     1
102
RTVSPropertyOp27
 70
     1
102
RTVSPropertyOp28
 70
     1
102
RTVSPropertyOp29
 70
     1
102
RTVSPropertyOp30
 70
     1
102
RTVSPropertyOp31
 70
     1
102
RTVSPropertyOp32
 70
     1
  0
XRECORD
  5
6112B
102
{ACAD_REACTORS
330
6112A
102
}
330
6112A
100
AcDbXrecord
280
     1
102
RTVSPropertyOp0
 70
     1
102
RTVSPropertyOp1
 70
     1
102
RTVSPropertyOp2
 70
     1
102
RTVSPropertyOp3
 70
     1
102
RTVSPropertyOp4
 70
     1
102
RTVSPropertyOp5
 70
     1
102
RTVSPropertyOp6
 70
     1
102
RTVSPropertyOp7
 70
     1
102
RTVSPropertyOp8
 70
     1
102
RTVSPropertyOp9
 70
     1
102
RTVSPropertyOp10
 70
     1
102
RTVSPropertyOp11
 70
     1
102
RTVSPropertyOp12
 70
     1
102
RTVSPropertyOp13
 70
     1
102
RTVSPropertyOp14
 70
     1
102
RTVSPropertyOp15
 70
     1
102
RTVSPropertyOp16
 70
     1
102
RTVSPropertyOp17
 70
     1
102
RTVSPropertyOp18
 70
     1
102
RTVSPropertyOp19
 70
     1
102
RTVSPropertyOp20
 70
     1
102
RTVSPropertyOp21
 70
     1
102
RTVSPropertyOp22
 70
     1
102
RTVSPropertyOp23
 70
     1
102
RTVSPropertyOp24
 70
     1
102
RTVSPropertyOp25
 70
     1
102
RTVSPropertyOp26
 70
     1
102
RTVSPropertyOp27
 70
     1
102
RTVSPropertyOp28
 70
     1
102
RTVSPropertyOp29
 70
     1
102
RTVSPropertyOp30
 70
     1
102
RTVSPropertyOp31
 70
     1
102
RTVSPropertyOp32
 70
     1
  0
XRECORD
  5
61125
102
{ACAD_REACTORS
330
61124
102
}
330
61124
100
AcDbXrecord
280
     1
102
RTVSPropertyOp0
 70
     1
102
RTVSPropertyOp1
 70
     1
102
RTVSPropertyOp2
 70
     1
102
RTVSPropertyOp3
 70
     1
102
RTVSPropertyOp4
 70
     1
102
RTVSPropertyOp5
 70
     1
102
RTVSPropertyOp6
 70
     1
102
RTVSPropertyOp7
 70
     1
102
RTVSPropertyOp8
 70
     1
102
RTVSPropertyOp9
 70
     1
102
RTVSPropertyOp10
 70
     1
102
RTVSPropertyOp11
 70
     1
102
RTVSPropertyOp12
 70
     1
102
RTVSPropertyOp13
 70
     1
102
RTVSPropertyOp14
 70
     1
102
RTVSPropertyOp15
 70
     1
102
RTVSPropertyOp16
 70
     1
102
RTVSPropertyOp17
 70
     1
102
RTVSPropertyOp18
 70
     1
102
RTVSPropertyOp19
 70
     1
102
RTVSPropertyOp20
 70
     1
102
RTVSPropertyOp21
 70
     1
102
RTVSPropertyOp22
 70
     1
102
RTVSPropertyOp23
 70
     1
102
RTVSPropertyOp24
 70
     1
102
RTVSPropertyOp25
 70
     1
102
RTVSPropertyOp26
 70
     1
102
RTVSPropertyOp27
 70
     1
102
RTVSPropertyOp28
 70
     1
102
RTVSPropertyOp29
 70
     1
102
RTVSPropertyOp30
 70
     1
102
RTVSPropertyOp31
 70
     1
102
RTVSPropertyOp32
 70
     1
  0
XRECORD
  5
61127
102
{ACAD_REACTORS
330
61126
102
}
330
61126
100
AcDbXrecord
280
     1
102
RTVSPropertyOp0
 70
     1
102
RTVSPropertyOp1
 70
     1
102
RTVSPropertyOp2
 70
     1
102
RTVSPropertyOp3
 70
     1
102
RTVSPropertyOp4
 70
     1
102
RTVSPropertyOp5
 70
     1
102
RTVSPropertyOp6
 70
     1
102
RTVSPropertyOp7
 70
     1
102
RTVSPropertyOp8
 70
     1
102
RTVSPropertyOp9
 70
     1
102
RTVSPropertyOp10
 70
     1
102
RTVSPropertyOp11
 70
     1
102
RTVSPropertyOp12
 70
     1
102
RTVSPropertyOp13
 70
     1
102
RTVSPropertyOp14
 70
     1
102
RTVSPropertyOp15
 70
     1
102
RTVSPropertyOp16
 70
     1
102
RTVSPropertyOp17
 70
     1
102
RTVSPropertyOp18
 70
     1
102
RTVSPropertyOp19
 70
     1
102
RTVSPropertyOp20
 70
     1
102
RTVSPropertyOp21
 70
     1
102
RTVSPropertyOp22
 70
     1
102
RTVSPropertyOp23
 70
     1
102
RTVSPropertyOp24
 70
     1
102
RTVSPropertyOp25
 70
     1
102
RTVSPropertyOp26
 70
     1
102
RTVSPropertyOp27
 70
     1
102
RTVSPropertyOp28
 70
     1
102
RTVSPropertyOp29
 70
     1
102
RTVSPropertyOp30
 70
     1
102
RTVSPropertyOp31
 70
     1
102
RTVSPropertyOp32
 70
     1
  0
XRECORD
  5
6111D
102
{ACAD_REACTORS
330
6111C
102
}
330
6111C
100
AcDbXrecord
280
     1
102
RTVSPropertyOp0
 70
     1
102
RTVSPropertyOp1
 70
     1
102
RTVSPropertyOp2
 70
     1
102
RTVSPropertyOp3
 70
     1
102
RTVSPropertyOp4
 70
     1
102
RTVSPropertyOp5
 70
     1
102
RTVSPropertyOp6
 70
     1
102
RTVSPropertyOp7
 70
     1
102
RTVSPropertyOp8
 70
     1
102
RTVSPropertyOp9
 70
     1
102
RTVSPropertyOp10
 70
     1
102
RTVSPropertyOp11
 70
     1
102
RTVSPropertyOp12
 70
     1
102
RTVSPropertyOp13
 70
     1
102
RTVSPropertyOp14
 70
     1
102
RTVSPropertyOp15
 70
     1
102
RTVSPropertyOp16
 70
     1
102
RTVSPropertyOp17
 70
     1
102
RTVSPropertyOp18
 70
     1
102
RTVSPropertyOp19
 70
     1
102
RTVSPropertyOp20
 70
     1
102
RTVSPropertyOp21
 70
     1
102
RTVSPropertyOp22
 70
     1
102
RTVSPropertyOp23
 70
     1
102
RTVSPropertyOp24
 70
     1
102
RTVSPropertyOp25
 70
     1
102
RTVSPropertyOp26
 70
     1
102
RTVSPropertyOp27
 70
     1
102
RTVSPropertyOp28
 70
     1
102
RTVSPropertyOp29
 70
     1
102
RTVSPropertyOp30
 70
     1
102
RTVSPropertyOp31
 70
     1
102
RTVSPropertyOp32
 70
     1
  0
XRECORD
  5
61111
102
{ACAD_REACTORS
330
61110
102
}
330
61110
100
AcDbXrecord
280
     1
102
RTVSPropertyOp0
 70
     1
102
RTVSPropertyOp1
 70
     1
102
RTVSPropertyOp2
 70
     1
102
RTVSPropertyOp3
 70
     1
102
RTVSPropertyOp4
 70
     1
102
RTVSPropertyOp5
 70
     1
102
RTVSPropertyOp6
 70
     1
102
RTVSPropertyOp7
 70
     1
102
RTVSPropertyOp8
 70
     1
102
RTVSPropertyOp9
 70
     1
102
RTVSPropertyOp10
 70
     1
102
RTVSPropertyOp11
 70
     1
102
RTVSPropertyOp12
 70
     1
102
RTVSPropertyOp13
 70
     1
102
RTVSPropertyOp14
 70
     1
102
RTVSPropertyOp15
 70
     1
102
RTVSPropertyOp16
 70
     1
102
RTVSPropertyOp17
 70
     1
102
RTVSPropertyOp18
 70
     1
102
RTVSPropertyOp19
 70
     1
102
RTVSPropertyOp20
 70
     1
102
RTVSPropertyOp21
 70
     1
102
RTVSPropertyOp22
 70
     1
102
RTVSPropertyOp23
 70
     1
102
RTVSPropertyOp24
 70
     1
102
RTVSPropertyOp25
 70
     1
102
RTVSPropertyOp26
 70
     1
102
RTVSPropertyOp27
 70
     1
102
RTVSPropertyOp28
 70
     1
102
RTVSPropertyOp29
 70
     1
102
RTVSPropertyOp30
 70
     1
102
RTVSPropertyOp31
 70
     1
102
RTVSPropertyOp32
 70
     1
  0
XRECORD
  5
61129
102
{ACAD_REACTORS
330
61128
102
}
330
61128
100
AcDbXrecord
280
     1
102
RTVSPropertyOp0
 70
     1
102
RTVSPropertyOp1
 70
     1
102
RTVSPropertyOp2
 70
     1
102
RTVSPropertyOp3
 70
     1
102
RTVSPropertyOp4
 70
     1
102
RTVSPropertyOp5
 70
     1
102
RTVSPropertyOp6
 70
     1
102
RTVSPropertyOp7
 70
     1
102
RTVSPropertyOp8
 70
     1
102
RTVSPropertyOp9
 70
     1
102
RTVSPropertyOp10
 70
     1
102
RTVSPropertyOp11
 70
     1
102
RTVSPropertyOp12
 70
     1
102
RTVSPropertyOp13
 70
     1
102
RTVSPropertyOp14
 70
     1
102
RTVSPropertyOp15
 70
     1
102
RTVSPropertyOp16
 70
     1
102
RTVSPropertyOp17
 70
     1
102
RTVSPropertyOp18
 70
     1
102
RTVSPropertyOp19
 70
     1
102
RTVSPropertyOp20
 70
     1
102
RTVSPropertyOp21
 70
     1
102
RTVSPropertyOp22
 70
     1
102
RTVSPropertyOp23
 70
     1
102
RTVSPropertyOp24
 70
     1
102
RTVSPropertyOp25
 70
     1
102
RTVSPropertyOp26
 70
     1
102
RTVSPropertyOp27
 70
     1
102
RTVSPropertyOp28
 70
     1
102
RTVSPropertyOp29
 70
     1
102
RTVSPropertyOp30
 70
     1
102
RTVSPropertyOp31
 70
     1
102
RTVSPropertyOp32
 70
     1
  0
ENDSEC
  0
EOF
