  0
SECTION
  2
HEADER
  9
$ACADVER
  1
AC1024
  9
$ACADMAINTVER
 70
   225
  9
$DWGCODEPAGE
  3
ANSI_932
  9
$LASTSAVEDBY
  1
satoko.sakata
  9
$INSBASE
 10
0.0
 20
0.0
 30
0.0
  9
$EXTMIN
 10
10428.36255827007
 20
-13845.40120438835
 30
0.0
  9
$EXTMAX
 10
33712.18630206168
 20
-11312.41703814158
 30
0.0
  9
$LIMMIN
 10
-277.5
 20
-199.349887
  9
$LIMMAX
 10
279.846988
 20
197.5
  9
$ORTHOMODE
 70
     1
  9
$REGENMODE
 70
     1
  9
$FILLMODE
 70
     1
  9
$QTEXTMODE
 70
     0
  9
$MIRRTEXT
 70
     1
  9
$LTSCALE
 40
1.0
  9
$ATTMODE
 70
     1
  9
$TEXTSIZE
 40
10.0
  9
$TRACEWID
 40
0.05
  9
$TEXTSTYLE
  7
MX_NOTE_STANDARD
  9
$CLAYER
  8
0
  9
$CELTYPE
  6
CENTER
  9
$CECOLOR
 62
   256
  9
$CELTSCALE
 40
1.0
  9
$DISPSILH
 70
     0
  9
$DIMSCALE
 40
1.0
  9
$DIMASZ
 40
2.5
  9
$DIMEXO
 40
1.0
  9
$DIMDLI
 40
3.75
  9
$DIMRND
 40
0.0
  9
$DIMDLE
 40
0.0
  9
$DIMEXE
 40
2.286
  9
$DIMTP
 40
0.0
  9
$DIMTM
 40
0.0
  9
$DIMTXT
 40
3.799999999999998
  9
$DIMCEN
 40
2.5
  9
$DIMTSZ
 40
0.0
  9
$DIMTOL
 70
     0
  9
$DIMLIM
 70
     0
  9
$DIMTIH
 70
     0
  9
$DIMTOH
 70
     0
  9
$DIMSE1
 70
     0
  9
$DIMSE2
 70
     0
  9
$DIMTAD
 70
     1
  9
$DIMZIN
 70
     8
  9
$DIMBLK
  1

  9
$DIMASO
 70
     1
  9
$DIMSHO
 70
     1
  9
$DIMPOST
  1

  9
$DIMAPOST
  1

  9
$DIMALT
 70
     0
  9
$DIMALTD
 70
     4
  9
$DIMALTF
 40
0.03937
  9
$DIMLFAC
 40
1.0
  9
$DIMTOFL
 70
     1
  9
$DIMTVP
 40
0.0
  9
$DIMTIX
 70
     0
  9
$DIMSOXD
 70
     0
  9
$DIMSAH
 70
     0
  9
$DIMBLK1
  1

  9
$DIMBLK2
  1

  9
$DIMSTYLE
  2
MX_DIMSTYLE_PV
  9
$DIMCLRD
 70
     0
  9
$DIMCLRE
 70
     0
  9
$DIMCLRT
 70
     0
  9
$DIMTFAC
 40
1.0
  9
$DIMGAP
 40
1.0
  9
$DIMJUST
 70
     0
  9
$DIMSD1
 70
     0
  9
$DIMSD2
 70
     0
  9
$DIMTOLJ
 70
     1
  9
$DIMTZIN
 70
     0
  9
$DIMALTZ
 70
     0
  9
$DIMALTTZ
 70
     0
  9
$DIMUPT
 70
     1
  9
$DIMDEC
 70
     4
  9
$DIMTDEC
 70
     4
  9
$DIMALTU
 70
     2
  9
$DIMALTTD
 70
     4
  9
$DIMTXSTY
  7
MX_NOTE_STANDARD
  9
$DIMAUNIT
 70
     0
  9
$DIMADEC
 70
     0
  9
$DIMALTRND
 40
0.0
  9
$DIMAZIN
 70
     0
  9
$DIMDSEP
 70
    46
  9
$DIMATFIT
 70
     3
  9
$DIMFRAC
 70
     0
  9
$DIMLDRBLK
  1

  9
$DIMLUNIT
 70
     2
  9
$DIMLWD
 70
    -2
  9
$DIMLWE
 70
    -2
  9
$DIMTMOVE
 70
     0
  9
$DIMFXL
 40
1.0
  9
$DIMFXLON
 70
     0
  9
$DIMJOGANG
 40
0.7853981633974483
  9
$DIMTFILL
 70
     0
  9
$DIMTFILLCLR
 70
     0
  9
$DIMARCSYM
 70
     0
  9
$DIMLTYPE
  6

  9
$DIMLTEX1
  6

  9
$DIMLTEX2
  6

  9
$DIMTXTDIRECTION
 70
     0
  9
$LUNITS
 70
     2
  9
$LUPREC
 70
     4
  9
$SKETCHINC
 40
0.1
  9
$FILLETRAD
 40
292.0
  9
$AUNITS
 70
     0
  9
$AUPREC
 70
     0
  9
$MENU
  1
acad
  9
$ELEVATION
 40
0.0
  9
$PELEVATION
 40
0.0
  9
$THICKNESS
 40
0.0
  9
$LIMCHECK
 70
     0
  9
$CHAMFERA
 40
0.0
  9
$CHAMFERB
 40
0.0
  9
$CHAMFERC
 40
0.0
  9
$CHAMFERD
 40
0.0
  9
$SKPOLY
 70
     0
  9
$TDCREATE
 40
2453189.532337963
  9
$TDUCREATE
 40
2453189.157337963
  9
$TDUPDATE
 40
2457655.575300926
  9
$TDUUPDATE
 40
2457655.200300926
  9
$TDINDWG
 40
1.4445215278
  9
$TDUSRTIMER
 40
1.4445215278
  9
$USRTIMER
 70
     1
  9
$ANGBASE
 50
0.0
  9
$ANGDIR
 70
     0
  9
$PDMODE
 70
     0
  9
$PDSIZE
 40
0.0
  9
$PLINEWID
 40
0.0
  9
$SPLFRAME
 70
     0
  9
$SPLINETYPE
 70
     6
  9
$SPLINESEGS
 70
     8
  9
$HANDSEED
  5
1018FA1
  9
$SURFTAB1
 70
     6
  9
$SURFTAB2
 70
     6
  9
$SURFTYPE
 70
     6
  9
$SURFU
 70
     6
  9
$SURFV
 70
     6
  9
$UCSBASE
  2

  9
$UCSNAME
  2

  9
$UCSORG
 10
0.0
 20
0.0
 30
0.0
  9
$UCSXDIR
 10
1.0
 20
0.0
 30
0.0
  9
$UCSYDIR
 10
0.0
 20
1.0
 30
0.0
  9
$UCSORTHOREF
  2

  9
$UCSORTHOVIEW
 70
     0
  9
$UCSORGTOP
 10
0.0
 20
0.0
 30
0.0
  9
$UCSORGBOTTOM
 10
0.0
 20
0.0
 30
0.0
  9
$UCSORGLEFT
 10
0.0
 20
0.0
 30
0.0
  9
$UCSORGRIGHT
 10
0.0
 20
0.0
 30
0.0
  9
$UCSORGFRONT
 10
0.0
 20
0.0
 30
0.0
  9
$UCSORGBACK
 10
0.0
 20
0.0
 30
0.0
  9
$PUCSBASE
  2

  9
$PUCSNAME
  2

  9
$PUCSORG
 10
0.0
 20
0.0
 30
0.0
  9
$PUCSXDIR
 10
1.0
 20
0.0
 30
0.0
  9
$PUCSYDIR
 10
0.0
 20
1.0
 30
0.0
  9
$PUCSORTHOREF
  2

  9
$PUCSORTHOVIEW
 70
     0
  9
$PUCSORGTOP
 10
0.0
 20
0.0
 30
0.0
  9
$PUCSORGBOTTOM
 10
0.0
 20
0.0
 30
0.0
  9
$PUCSORGLEFT
 10
0.0
 20
0.0
 30
0.0
  9
$PUCSORGRIGHT
 10
0.0
 20
0.0
 30
0.0
  9
$PUCSORGFRONT
 10
0.0
 20
0.0
 30
0.0
  9
$PUCSORGBACK
 10
0.0
 20
0.0
 30
0.0
  9
$USERI1
 70
     0
  9
$USERI2
 70
     0
  9
$USERI3
 70
     0
  9
$USERI4
 70
     0
  9
$USERI5
 70
     0
  9
$USERR1
 40
0.0
  9
$USERR2
 40
0.0
  9
$USERR3
 40
0.0
  9
$USERR4
 40
0.0
  9
$USERR5
 40
0.0
  9
$WORLDVIEW
 70
     1
  9
$SHADEDGE
 70
     3
  9
$SHADEDIF
 70
    70
  9
$TILEMODE
 70
     1
  9
$MAXACTVP
 70
    16
  9
$PINSBASE
 10
0.0
 20
0.0
 30
0.0
  9
$PLIMCHECK
 70
     0
  9
$PEXTMIN
 10
1.000000000000000E+20
 20
1.000000000000000E+20
 30
1.000000000000000E+20
  9
$PEXTMAX
 10
-1.000000000000000E+20
 20
-1.000000000000000E+20
 30
-1.000000000000000E+20
  9
$PLIMMIN
 10
0.0
 20
0.0
  9
$PLIMMAX
 10
12.0
 20
9.0
  9
$UNITMODE
 70
     0
  9
$VISRETAIN
 70
     0
  9
$PLINEGEN
 70
     1
  9
$PSLTSCALE
 70
     0
  9
$TREEDEPTH
 70
  3020
  9
$CMLSTYLE
  2
STANDARD
  9
$CMLJUST
 70
     0
  9
$CMLSCALE
 40
1.0
  9
$PROXYGRAPHICS
 70
     0
  9
$MEASUREMENT
 70
     1
  9
$CELWEIGHT
370
    -1
  9
$ENDCAPS
280
     0
  9
$JOINSTYLE
280
     0
  9
$LWDISPLAY
290
     0
  9
$INSUNITS
 70
     0
  9
$HYPERLINKBASE
  1

  9
$STYLESHEET
  1
INABA-CAD-CANON.CTB
  9
$XEDIT
290
     1
  9
$CEPSNTYPE
380
     0
  9
$PSTYLEMODE
290
     1
  9
$FINGERPRINTGUID
  2
{842FE996-CA1F-4AC3-82FA-4E2BFCEB2676}
  9
$VERSIONGUID
  2
{E89B650A-5515-C142-99A1-4D6B87428355}
  9
$EXTNAMES
290
     1
  9
$PSVPSCALE
 40
0.0
  9
$OLESTARTUP
290
     0
  9
$SORTENTS
280
   127
  9
$INDEXCTL
280
     0
  9
$HIDETEXT
280
     0
  9
$XCLIPFRAME
280
     2
  9
$HALOGAP
280
     0
  9
$OBSCOLOR
 70
   257
  9
$OBSLTYPE
280
     0
  9
$INTERSECTIONDISPLAY
280
     0
  9
$INTERSECTIONCOLOR
 70
   257
  9
$DIMASSOC
280
     1
  9
$PROJECTNAME
  1

  9
$CAMERADISPLAY
290
     0
  9
$LENSLENGTH
 40
50.0
  9
$CAMERAHEIGHT
 40
0.0
  9
$STEPSPERSEC
 40
2.0
  9
$STEPSIZE
 40
6.0
  9
$3DDWFPREC
 40
2.0
  9
$PSOLWIDTH
 40
0.25
  9
$PSOLHEIGHT
 40
4.0
  9
$LOFTANG1
 40
1.570796326794896
  9
$LOFTANG2
 40
1.570796326794896
  9
$LOFTMAG1
 40
0.0
  9
$LOFTMAG2
 40
0.0
  9
$LOFTPARAM
 70
     7
  9
$LOFTNORMALS
280
     1
  9
$LATITUDE
 40
37.795
  9
$LONGITUDE
 40
-122.394
  9
$NORTHDIRECTION
 40
0.0
  9
$TIMEZONE
 70
 -8000
  9
$LIGHTGLYPHDISPLAY
280
     1
  9
$TILEMODELIGHTSYNCH
280
     1
  9
$CMATERIAL
347
16D17
  9
$SOLIDHIST
280
     0
  9
$SHOWHIST
280
     1
  9
$DWFFRAME
280
     2
  9
$DGNFRAME
280
     0
  9
$REALWORLDSCALE
290
     1
  9
$INTERFERECOLOR
 62
     1
  9
$INTERFEREOBJVS
345
16D39
  9
$INTERFEREVPVS
346
16D36
  9
$CSHADOW
280
     0
  9
$SHADOWPLANELOCATION
 40
0.0
  0
ENDSEC
  0
SECTION
  2
CLASSES
  0
CLASS
  1
IMAGE
  2
AcDbRasterImage
  3
ISM
 90
      127
 91
        0
280
     0
281
     1
  0
CLASS
  1
DICTIONARYVAR
  2
AcDbDictionaryVar
  3
ObjectDBX Classes
 90
        0
 91
       13
280
     0
281
     0
  0
CLASS
  1
RASTERVARIABLES
  2
AcDbRasterVariables
  3
ISM
 90
        0
 91
        0
280
     0
281
     0
  0
CLASS
  1
IMAGEDEF
  2
AcDbRasterImageDef
  3
ISM
 90
        0
 91
        0
280
     0
281
     0
  0
CLASS
  1
IMAGEDEF_REACTOR
  2
AcDbRasterImageDefReactor
  3
ISM
 90
        1
 91
        0
280
     0
281
     0
  0
CLASS
  1
IDBUFFER
  2
AcDbIdBuffer
  3
ObjectDBX Classes
 90
        0
 91
        0
280
     0
281
     0
  0
CLASS
  1
SPATIAL_FILTER
  2
AcDbSpatialFilter
  3
ObjectDBX Classes
 90
        0
 91
        0
280
     0
281
     0
  0
CLASS
  1
SORTENTSTABLE
  2
AcDbSortentsTable
  3
ObjectDBX Classes
 90
        0
 91
        1
280
     0
281
     0
  0
CLASS
  1
LAYER_INDEX
  2
AcDbLayerIndex
  3
ObjectDBX Classes
 90
        0
 91
        0
280
     0
281
     0
  0
CLASS
  1
SPATIAL_INDEX
  2
AcDbSpatialIndex
  3
ObjectDBX Classes
 90
        0
 91
        0
280
     0
281
     0
  0
CLASS
  1
OBJECT_PTR
  2
CAseDLPNTableRecord
  3
"ASE-LPNTableRecord"
 90
        1
 91
        0
280
     0
281
     0
  0
CLASS
  1
PLOTSETTINGS
  2
AcDbPlotSettings
  3
ObjectDBX Classes
 90
        0
 91
        0
280
     0
281
     0
  0
CLASS
  1
ACDBDICTIONARYWDFLT
  2
AcDbDictionaryWithDefault
  3
ObjectDBX Classes
 90
        0
 91
        1
280
     0
281
     0
  0
CLASS
  1
WIPEOUT
  2
AcDbWipeout
  3
"WipeOut|Product Desc: Object Enabler for WipeOut entity^I^I^I^I^I^I|Company: Autodesk, Inc.^I^I^I^I^I^I|WEB Address: www.autodesk.com"
 90
      127
 91
        0
280
     0
281
     1
  0
CLASS
  1
WIPEOUTVARIABLES
  2
AcDbWipeoutVariables
  3
"WipeOut|Product Desc:     WipeOut Dbx Application|Company:          Autodesk, Inc.|WEB Address:      www.autodesk.com"
 90
        0
 91
        0
280
     0
281
     0
  0
CLASS
  1
RTEXT
  2
RText
  3
RText|AutoCAD Express Tool|expresstools@autodesk.com
 90
        0
 91
        0
280
     0
281
     1
  0
CLASS
  1
ARCALIGNEDTEXT
  2
AcDbArcAlignedText
  3
ATEXT|AutoCAD Express Tool|expresstools@autodesk.com
 90
        0
 91
        0
280
     0
281
     1
  0
CLASS
  1
TABLESTYLE
  2
AcDbTableStyle
  3
ObjectDBX Classes
 90
     4095
 91
        1
280
     0
281
     0
  0
CLASS
  1
MATERIAL
  2
AcDbMaterial
  3
ObjectDBX Classes
 90
     1153
 91
        3
280
     0
281
     0
  0
CLASS
  1
VISUALSTYLE
  2
AcDbVisualStyle
  3
ObjectDBX Classes
 90
     4095
 91
       24
280
     0
281
     0
  0
CLASS
  1
SCALE
  2
AcDbScale
  3
ObjectDBX Classes
 90
     1153
 91
       17
280
     0
281
     0
  0
CLASS
  1
MLEADERSTYLE
  2
AcDbMLeaderStyle
  3
ACDB_MLEADERSTYLE_CLASS
 90
     4095
 91
        1
280
     0
281
     0
  0
CLASS
  1
CELLSTYLEMAP
  2
AcDbCellStyleMap
  3
ObjectDBX Classes
 90
     1152
 91
        3
280
     0
281
     0
  0
CLASS
  1
ACDBSECTIONVIEWSTYLE
  2
AcDbSectionViewStyle
  3
ObjectDBX Classes
 90
     1025
 91
        1
280
     0
281
     0
  0
CLASS
  1
ACDBDETAILVIEWSTYLE
  2
AcDbDetailViewStyle
  3
ObjectDBX Classes
 90
     1025
 91
        1
280
     0
281
     0
  0
ENDSEC
  0
SECTION
  2
TABLES
  0
TABLE
  2
VPORT
  5
7
330
0
100
AcDbSymbolTable
 70
     1
  0
VPORT
  5
16D10
330
7
100
AcDbSymbolTableRecord
100
AcDbViewportTableRecord
  2
*Active
 70
     0
 10
0.0
 20
0.0
 11
1.0
 21
1.0
 12
19935.38520018642
 22
-6699.870659356434
 13
0.0
 23
0.0
 14
1.0
 24
1.0
 15
0.0
 25
0.0
 16
0.0
 26
0.0
 36
1.0
 17
0.0
 27
0.0
 37
0.0
 40
38751.94555009391
 41
2.307909604519774
 42
50.0
 43
0.0
 44
0.0
 50
0.0
 51
0.0
 71
     0
 72
  1000
 73
     1
 74
     1
 75
     0
 76
     0
 77
     0
 78
     0
281
     0
 65
     1
110
0.0
120
0.0
130
0.0
111
1.0
121
0.0
131
0.0
112
0.0
122
1.0
132
0.0
 79
     0
146
0.0
348
16D35
 60
     3
 61
     5
292
     1
282
     1
141
0.0
142
0.0
 63
   250
421
  3355443
1001
ACAD_NAV_VCDISPLAY
1070
     3
  0
ENDTAB
  0
TABLE
  2
LTYPE
  5
4
330
0
100
AcDbSymbolTable
 70
     3
  0
LTYPE
  5
11
330
4
100
AcDbSymbolTableRecord
100
AcDbLinetypeTableRecord
  2
BYBLOCK
 70
     0
  3

 72
    65
 73
     0
 40
0.0
  0
LTYPE
  5
12
330
4
100
AcDbSymbolTableRecord
100
AcDbLinetypeTableRecord
  2
BYLAYER
 70
     0
  3

 72
    65
 73
     0
 40
0.0
  0
LTYPE
  5
13
330
4
100
AcDbSymbolTableRecord
100
AcDbLinetypeTableRecord
  2
CONTINUOUS
 70
     0
  3
Solid line
 72
    65
 73
     0
 40
0.0
  0
LTYPE
  5
1C6
330
4
100
AcDbSymbolTableRecord
100
AcDbLinetypeTableRecord
  2
CENTER
 70
     0
  3
Center ____ _ ____ _ ____ _ ____ _ ____ _ ____
 72
    65
 73
     4
 40
50.8
 49
31.75
 74
     0
 49
-6.349999999999997
 74
     0
 49
6.349999999999997
 74
     0
 49
-6.349999999999997
 74
     0
  0
ENDTAB
  0
TABLE
  2
LAYER
  5
2
102
{ACAD_XDICTIONARY
360
16DF9
102
}
330
0
100
AcDbSymbolTable
 70
     3
  0
LAYER
  5
14
102
{ACAD_XDICTIONARY
360
16D62
102
}
330
2
100
AcDbSymbolTableRecord
100
AcDbLayerTableRecord
  2
0
 70
     0
 62
     7
  6
CONTINUOUS
370
    -3
390
4EB
347
16D27
  0
LAYER
  5
1D
330
2
100
AcDbSymbolTableRecord
100
AcDbLayerTableRecord
  2
DEFPOINTS
 70
     0
 62
     7
  6
CONTINUOUS
290
     0
370
    -3
390
4EB
347
16D27
  0
LAYER
  5
3568
102
{ACAD_XDICTIONARY
360
16D6C
102
}
330
2
100
AcDbSymbolTableRecord
100
AcDbLayerTableRecord
  2
C6
 70
     0
 62
     2
  6
CONTINUOUS
370
    -3
390
4EB
347
16D27
  0
ENDTAB
  0
TABLE
  2
STYLE
  5
3
330
0
100
AcDbSymbolTable
 70
     3
  0
STYLE
  5
17
330
3
100
AcDbSymbolTableRecord
100
AcDbTextStyleTableRecord
  2
MX_NOTE_STANDARD
 70
     0
 40
0.0
 41
1.0
 50
0.0
 71
     0
 42
10.0
  3
txt.shx
  4
extfont.shx
  0
STYLE
  5
4E7
330
3
100
AcDbSymbolTableRecord
100
AcDbTextStyleTableRecord
  2
Standard
 70
     0
 40
0.0
 41
1.0
 50
0.0
 71
     0
 42
0.2
  3

  4

  0
STYLE
  5
603
330
3
100
AcDbSymbolTableRecord
100
AcDbTextStyleTableRecord
  2
KANJI
 70
     0
 40
0.0
 41
1.0
 50
0.0
 71
     0
 42
3.5
  3
simplex
  4
bigfont
  0
ENDTAB
  0
TABLE
  2
VIEW
  5
5
330
0
100
AcDbSymbolTable
 70
     1
  0
ENDTAB
  0
TABLE
  2
UCS
  5
6
330
0
100
AcDbSymbolTable
 70
     0
  0
ENDTAB
  0
TABLE
  2
APPID
  5
8
330
0
100
AcDbSymbolTable
 70
     7
  0
APPID
  5
16
330
8
100
AcDbSymbolTableRecord
100
AcDbRegAppTableRecord
  2
ACAD
 70
     0
  0
APPID
  5
4D
330
8
100
AcDbSymbolTableRecord
100
AcDbRegAppTableRecord
  2
CONTENTBLOCKDESCRIPTION
 70
     0
  0
APPID
  5
16DDD
330
8
100
AcDbSymbolTableRecord
100
AcDbRegAppTableRecord
  2
ACAD_DSTYLE_DIMRADIAL_EXTENSION
 70
     0
  0
APPID
  5
16DF7
330
8
100
AcDbSymbolTableRecord
100
AcDbRegAppTableRecord
  2
ACAD_PSEXT
 70
     0
  0
APPID
  5
16DF8
330
8
100
AcDbSymbolTableRecord
100
AcDbRegAppTableRecord
  2
ACAD_NAV_VCDISPLAY
 70
     0
  0
APPID
  5
16E03
330
8
100
AcDbSymbolTableRecord
100
AcDbRegAppTableRecord
  2
ACAD_EXEMPT_FROM_CAD_STANDARDS
 70
     0
  0
APPID
  5
1714D
330
8
100
AcDbSymbolTableRecord
100
AcDbRegAppTableRecord
  2
ACAD_MLEADERVER
 70
     0
  0
ENDTAB
  0
TABLE
  2
DIMSTYLE
  5
9
330
0
100
AcDbSymbolTable
 70
     2
100
AcDbDimStyleTable
 71
     1
340
19C
  0
DIMSTYLE
105
19C
330
9
100
AcDbSymbolTableRecord
100
AcDbDimStyleTableRecord
  2
MX_DIMSTYLE_PV
 70
     0
 41
2.5
 42
1.0
 43
3.75
 44
2.286
 73
     0
 74
     0
 77
     1
 78
     8
140
3.799999999999998
141
2.5
143
0.03937
147
1.0
171
     4
172
     1
274
     4
288
     1
340
17
  0
DIMSTYLE
105
16DF6
330
9
100
AcDbSymbolTableRecord
100
AcDbDimStyleTableRecord
  2
STANDARD
 70
     0
 41
1.0
 42
1.0
 43
6.0
 44
1.0
 73
     0
 74
     0
 77
     1
 78
     8
140
2.5
141
0.0
147
0.5
172
     1
173
     1
284
     8
285
     8
286
     8
340
603
341
16DF1
343
16DF1
344
16DF1
  0
ENDTAB
  0
TABLE
  2
BLOCK_RECORD
  5
1
330
0
100
AcDbSymbolTable
 70
     1
  0
BLOCK_RECORD
  5
A
102
{ACAD_XDICTIONARY
360
5293
102
}
330
1
100
AcDbSymbolTableRecord
100
AcDbBlockTableRecord
  2
*MODEL_SPACE
340
4EE
 70
     0
280
     1
281
     0
  0
BLOCK_RECORD
  5
B
330
1
100
AcDbSymbolTableRecord
100
AcDbBlockTableRecord
  2
*PAPER_SPACE
340
4EF
 70
     0
280
     1
281
     0
  0
BLOCK_RECORD
  5
16DF1
330
1
100
AcDbSymbolTableRecord
100
AcDbBlockTableRecord
  2
Y2
340
0
 70
     0
280
     1
281
     0
  0
ENDTAB
  0
ENDSEC
  0
SECTION
  2
BLOCKS
  0
BLOCK
  5
D
330
A
100
AcDbEntity
  8
0
100
AcDbBlockBegin
  2
*MODEL_SPACE
 70
     0
 10
0.0
 20
0.0
 30
0.0
  3
*MODEL_SPACE
  1

  0
ENDBLK
  5
E
330
A
100
AcDbEntity
  8
0
100
AcDbBlockEnd
  0
BLOCK
  5
F
330
B
100
AcDbEntity
 67
     1
  8
0
100
AcDbBlockBegin
  2
*PAPER_SPACE
 70
     0
 10
0.0
 20
0.0
 30
0.0
  3
*PAPER_SPACE
  1

  0
ENDBLK
  5
10
330
B
100
AcDbEntity
 67
     1
  8
0
100
AcDbBlockEnd
  0
BLOCK
  5
16DF2
330
16DF1
100
AcDbEntity
  8
0
 48
2.0
100
AcDbBlockBegin
  2
Y2
 70
     0
 10
0.0
 20
0.0
 30
0.0
  3
Y2
  1

  0
SOLID
  5
16DF3
330
16DF1
100
AcDbEntity
  8
0
  6
ByBlock
 62
     0
100
AcDbTrace
 10
-1.811110924292108
 20
0.485285709567151
 30
0.0
 11
-1.811110924292108
 21
-0.4852857095673784
 31
0.0
 12
-0.0000000000000568
 22
-0.0000000000000142
 32
0.0
 13
-0.0000000000000568
 23
-0.0000000000000142
 33
0.0
  0
ENDBLK
  5
16DF4
330
16DF1
100
AcDbEntity
  8
0
 48
2.0
100
AcDbBlockEnd
  0
ENDSEC
  0
SECTION
  2
ENTITIES
  0
TEXT
  5
101730B
330
A
100
AcDbEntity
  8
C6
 48
2.0
100
AcDbText
 10
16298.8365636731
 20
-11412.41703814159
 30
0.0
 40
100.0
  1
IFE15-500R1
  7
KANJI
100
AcDbText
  0
LINE
  5
101730C
330
A
100
AcDbEntity
  8
0
100
AcDbLine
 10
17687.68630206169
 20
-11769.82954880231
 30
0.0
 11
17687.68630206169
 21
-13845.40120438835
 31
0.0
  0
LINE
  5
101730D
330
A
100
AcDbEntity
  8
0
100
AcDbLine
 10
19468.18630206168
 20
-11769.82954880231
 30
0.0
 11
19468.18630206168
 21
-13845.40120438835
 31
0.0
  0
LINE
  5
101730E
330
A
100
AcDbEntity
  8
0
100
AcDbLine
 10
23029.18630206169
 20
-11769.82954880231
 30
0.0
 11
23029.18630206169
 21
-13845.40120438835
 31
0.0
  0
LINE
  5
101730F
330
A
100
AcDbEntity
  8
0
100
AcDbLine
 10
24809.68630206169
 20
-11769.82954880231
 30
0.0
 11
24809.68630206169
 21
-13845.40120438835
 31
0.0
  0
LINE
  5
1017310
330
A
100
AcDbEntity
  8
0
100
AcDbLine
 10
26590.18630206167
 20
-11769.82954880231
 30
0.0
 11
26590.18630206167
 21
-13845.40120438835
 31
0.0
  0
LINE
  5
1017311
330
A
100
AcDbEntity
  8
0
100
AcDbLine
 10
28370.68630206168
 20
-11769.82954880231
 30
0.0
 11
28370.68630206168
 21
-13845.40120438835
 31
0.0
  0
LINE
  5
1017312
330
A
100
AcDbEntity
  8
0
100
AcDbLine
 10
30151.18630206168
 20
-11769.82954880231
 30
0.0
 11
30151.18630206168
 21
-13845.40120438835
 31
0.0
  0
TEXT
  5
1017313
330
A
100
AcDbEntity
  8
C6
 48
2.0
100
AcDbText
 10
18079.33656367311
 20
-11414.00203814159
 30
0.0
 40
100.0
  1
IFE19-500R1
  7
KANJI
100
AcDbText
  0
TEXT
  5
1017314
330
A
100
AcDbEntity
  8
C6
 48
2.0
100
AcDbText
 10
19859.83656367311
 20
-11415.58703814159
 30
0.0
 40
100.0
  1
IFE22-500R1
  7
KANJI
100
AcDbText
  0
TEXT
  5
1017315
330
A
100
AcDbEntity
  8
C6
 48
2.0
100
AcDbText
 10
23420.83656367312
 20
-11415.58703814159
 30
0.0
 40
100.0
  1
IFE28-500R1
  7
KANJI
100
AcDbText
  0
TEXT
  5
1017316
330
A
100
AcDbEntity
  8
C6
 48
2.0
100
AcDbText
 10
25201.33656367312
 20
-11415.58703814159
 30
0.0
 40
100.0
  1
IFE31-500R1
  7
KANJI
100
AcDbText
  0
LINE
  5
1017317
330
A
100
AcDbEntity
  8
0
100
AcDbLine
 10
12346.18630206169
 20
-11769.82954880231
 30
0.0
 11
12346.18630206169
 21
-13845.40120438835
 31
0.0
  0
LINE
  5
1017318
330
A
100
AcDbEntity
  8
0
100
AcDbLine
 10
14126.68630206169
 20
-11769.82954880231
 30
0.0
 11
14126.68630206169
 21
-13845.40120438835
 31
0.0
  0
LINE
  5
1017319
330
A
100
AcDbEntity
  8
0
100
AcDbLine
 10
15907.18630206168
 20
-11769.82954880231
 30
0.0
 11
15907.18630206168
 21
-13845.40120438835
 31
0.0
  0
TEXT
  5
101731A
330
A
100
AcDbEntity
  8
C6
 48
2.0
100
AcDbText
 10
14518.3365636731
 20
-11412.41703814159
 30
0.0
 40
100.0
  1
IFE12-500R1
  7
KANJI
100
AcDbText
  0
TEXT
  5
101731B
330
A
100
AcDbEntity
  8
C6
 48
2.0
100
AcDbText
 10
26981.8365636731
 20
-11415.58703814159
 30
0.0
 40
100.0
  1
IFE34-500R1
  7
KANJI
100
AcDbText
  0
LINE
  5
101731C
330
A
100
AcDbEntity
  8
0
100
AcDbLine
 10
10428.36255827007
 20
-11769.82954880231
 30
0.0
 11
10428.36255827007
 21
-13845.40120438835
 31
0.0
  0
TEXT
  5
101731D
330
A
100
AcDbEntity
  8
C6
 48
2.0
100
AcDbText
 10
28762.3365636731
 20
-11415.58703814159
 30
0.0
 40
100.0
  1
IFE38-500R1
  7
KANJI
100
AcDbText
  0
LINE
  5
101731E
330
A
100
AcDbEntity
  8
0
100
AcDbLine
 10
21248.68630206169
 20
-11769.82954880231
 30
0.0
 11
21248.68630206169
 21
-13845.40120438835
 31
0.0
  0
TEXT
  5
101731F
330
A
100
AcDbEntity
  8
C6
 48
2.0
100
AcDbText
 10
21640.33656367312
 20
-11415.58703814159
 30
0.0
 40
100.0
  1
IFE25-500R1
  7
KANJI
100
AcDbText
  0
TEXT
  5
1017320
330
A
100
AcDbEntity
  8
C6
 48
2.0
100
AcDbText
 10
12737.83656367311
 20
-11412.41703814159
 30
0.0
 40
100.0
  1
IFE9-500R1
  7
KANJI
100
AcDbText
  0
TEXT
  5
1017321
330
A
100
AcDbEntity
  8
C6
 48
2.0
100
AcDbText
 10
10820.0128198815
 20
-11412.41703814159
 30
0.0
 40
100.0
  1
IF6-500R1
  7
KANJI
100
AcDbText
  0
LINE
  5
10175BB
330
A
100
AcDbEntity
  8
0
100
AcDbLine
 10
11084.7472089779
 20
-12362.55595023339
 30
0.0
 11
11091.0972089779
 21
-12362.55595023339
 31
0.0
  0
LINE
  5
10175BC
330
A
100
AcDbEntity
  8
0
100
AcDbLine
 10
11081.1722089779
 20
-12462.55595023339
 30
0.0
 11
11094.6722089779
 21
-12462.55595023339
 31
0.0
  0
LINE
  5
10175BD
330
A
100
AcDbEntity
  8
0
100
AcDbLine
 10
11748.7472089779
 20
-12362.55595023339
 30
0.0
 11
11755.0972089779
 21
-12362.55595023339
 31
0.0
  0
LINE
  5
10175BE
330
A
100
AcDbEntity
  8
0
  6
CENTER
100
AcDbLine
 10
11087.9222089779
 20
-12362.55595023339
 30
0.0
 11
11087.9222089779
 21
-13562.5559502334
 31
0.0
  0
LINE
  5
10175BF
330
A
100
AcDbEntity
  8
0
100
AcDbLine
 10
11084.7472089779
 20
-12362.55595023339
 30
0.0
 11
11084.7472089779
 21
-12462.55595023339
 31
0.0
  0
LINE
  5
10175C0
330
A
100
AcDbEntity
  8
0
100
AcDbLine
 10
11084.7472089779
 20
-13462.5559502334
 30
0.0
 11
11084.7472089779
 21
-13562.5559502334
 31
0.0
  0
LINE
  5
10175C1
330
A
100
AcDbEntity
  8
0
100
AcDbLine
 10
11091.0972089779
 20
-12362.55595023339
 30
0.0
 11
11091.0972089779
 21
-12462.55595023339
 31
0.0
  0
LINE
  5
10175C2
330
A
100
AcDbEntity
  8
0
100
AcDbLine
 10
11091.0972089779
 20
-13462.5559502334
 30
0.0
 11
11091.0972089779
 21
-13562.5559502334
 31
0.0
  0
LINE
  5
10175C3
330
A
100
AcDbEntity
  8
0
100
AcDbLine
 10
11091.0972089779
 20
-12362.55595023339
 30
0.0
 11
11091.0972089779
 21
-12462.55595023339
 31
0.0
  0
LINE
  5
10175C4
330
A
100
AcDbEntity
  8
0
100
AcDbLine
 10
11091.0972089779
 20
-13462.5559502334
 30
0.0
 11
11091.0972089779
 21
-13562.5559502334
 31
0.0
  0
LINE
  5
10175C5
330
A
100
AcDbEntity
  8
0
100
AcDbLine
 10
11081.1722089779
 20
-12462.55595023339
 30
0.0
 11
11081.1722089779
 21
-13462.5559502334
 31
0.0
  0
LINE
  5
10175C6
330
A
100
AcDbEntity
  8
0
100
AcDbLine
 10
11094.6722089779
 20
-12462.55595023339
 30
0.0
 11
11094.6722089779
 21
-13462.55595023339
 31
0.0
  0
LINE
  5
10175C7
330
A
100
AcDbEntity
  8
0
100
AcDbLine
 10
11748.7472089779
 20
-13562.5559502334
 30
0.0
 11
11748.7472089779
 21
-13462.5559502334
 31
0.0
  0
LINE
  5
10175C8
330
A
100
AcDbEntity
  8
0
100
AcDbLine
 10
11755.0972089779
 20
-13562.5559502334
 30
0.0
 11
11755.0972089779
 21
-13462.5559502334
 31
0.0
  0
LINE
  5
10175C9
330
A
100
AcDbEntity
  8
0
100
AcDbLine
 10
11084.7472089779
 20
-13562.5559502334
 30
0.0
 11
11091.0972089779
 21
-13562.5559502334
 31
0.0
  0
LINE
  5
10175CA
330
A
100
AcDbEntity
  8
0
100
AcDbLine
 10
11081.1722089779
 20
-13462.5559502334
 30
0.0
 11
11094.6722089779
 21
-13462.5559502334
 31
0.0
  0
LINE
  5
10175CB
330
A
100
AcDbEntity
  8
0
100
AcDbLine
 10
11748.7472089779
 20
-12362.55595023339
 30
0.0
 11
11748.7472089779
 21
-12462.55595023339
 31
0.0
  0
LINE
  5
10175CC
330
A
100
AcDbEntity
  8
0
100
AcDbLine
 10
11755.0972089779
 20
-12362.55595023339
 30
0.0
 11
11755.0972089779
 21
-12462.55595023339
 31
0.0
  0
ARC
  5
10175CD
330
A
100
AcDbEntity
  8
0
  6
CENTER
100
AcDbCircle
 10
11741.9222089779
 20
-12962.5559502334
 30
0.0
 40
292.0
100
AcDbArc
 50
301.1394843855439
 51
58.86051561445611
  0
ARC
  5
10175CE
330
A
100
AcDbEntity
  8
0
100
AcDbCircle
 10
11741.9222089779
 20
-12962.5559502334
 30
0.0
 40
285.25
100
AcDbArc
 50
301.1394843855439
 51
58.86051561445611
  0
ARC
  5
10175CF
330
A
100
AcDbEntity
  8
0
100
AcDbCircle
 10
11741.9222089779
 20
-12962.5559502334
 30
0.0
 40
298.75
100
AcDbArc
 50
301.1394843855439
 51
58.86051561445611
  0
ARC
  5
10175D0
330
A
100
AcDbEntity
  8
0
100
AcDbCircle
 10
12043.92231424477
 20
-13462.40803049542
 30
0.0
 40
298.7501418865132
100
AcDbArc
 50
121.1394915320899
 51
180.0283687799976
  0
ARC
  5
10175D1
330
A
100
AcDbEntity
  8
0
100
AcDbCircle
 10
12043.92231921952
 20
-13462.40803532394
 30
0.0
 40
285.2501485918601
100
AcDbArc
 50
121.139492224009
 51
180.0297104154189
  0
ARC
  5
10175D2
330
A
100
AcDbEntity
  8
0
100
AcDbCircle
 10
12043.92231921952
 20
-12462.70386514287
 30
0.0
 40
285.2501485918548
100
AcDbArc
 50
179.970289584581
 51
238.8605077759909
  0
ARC
  5
10175D3
330
A
100
AcDbEntity
  8
0
100
AcDbCircle
 10
12043.92231424476
 20
-12462.70386997138
 30
0.0
 40
298.7501418865114
100
AcDbArc
 50
179.9716312200023
 51
238.8605084679101
  0
LINE
  5
10175D4
330
A
100
AcDbEntity
  8
0
100
AcDbLine
 10
11748.7472089779
 20
-13562.5559502334
 30
0.0
 11
11755.0972089779
 21
-13562.5559502334
 31
0.0
  0
LINE
  5
10175D5
330
A
100
AcDbEntity
  8
0
100
AcDbLine
 10
11751.9222089779
 20
-12462.55595023339
 30
0.0
 11
11758.6722089779
 21
-12462.55595023339
 31
0.0
  0
LINE
  5
10175D6
330
A
100
AcDbEntity
  8
0
100
AcDbLine
 10
11751.9222089779
 20
-12462.55595023339
 30
0.0
 11
11745.1722089779
 21
-12462.55595023339
 31
0.0
  0
LINE
  5
10175D7
330
A
100
AcDbEntity
  8
0
100
AcDbLine
 10
11751.9222089779
 20
-13462.5559502334
 30
0.0
 11
11758.6722089779
 21
-13462.5559502334
 31
0.0
  0
LINE
  5
10175D8
330
A
100
AcDbEntity
  8
0
100
AcDbLine
 10
11751.9222089779
 20
-13462.5559502334
 30
0.0
 11
11745.1722089779
 21
-13462.5559502334
 31
0.0
  0
LWPOLYLINE
  5
10175D9
330
A
100
AcDbEntity
  8
0
  6
CENTER
100
AcDbPolyline
 90
        3
 70
     0
 43
0.0
 10
11751.9222089779
 20
-12362.55595023339
 10
11751.9222089779
 20
-12462.70397214389
 42
0.2626273308013276
 10
11892.92220897795
 20
-12712.62996118868
  0
LWPOLYLINE
  5
10175DA
330
A
100
AcDbEntity
  8
0
  6
CENTER
100
AcDbPolyline
 90
        3
 70
     0
 43
0.0
 10
11892.92220897795
 20
-13212.48193927813
 42
0.2626273308013276
 10
11751.9222089779
 20
-13462.40792832292
 10
11751.9222089779
 20
-13562.5559502334
  0
LINE
  5
1017819
330
A
100
AcDbEntity
  8
0
100
AcDbLine
 10
13000.98595276952
 20
-12362.55595023339
 30
0.0
 11
13010.50595276952
 21
-12362.55595023339
 31
0.0
  0
LINE
  5
101781A
330
A
100
AcDbEntity
  8
0
100
AcDbLine
 10
12996.99595276952
 20
-12462.55595023339
 30
0.0
 11
13014.49595276952
 21
-12462.55595023339
 31
0.0
  0
LINE
  5
101781B
330
A
100
AcDbEntity
  8
0
100
AcDbLine
 10
13664.98595276952
 20
-12362.55595023339
 30
0.0
 11
13674.50595276952
 21
-12362.55595023339
 31
0.0
  0
LINE
  5
101781C
330
A
100
AcDbEntity
  8
0
  6
CENTER
100
AcDbLine
 10
13005.74595276952
 20
-12362.55595023339
 30
0.0
 11
13005.74595276952
 21
-13562.55595023341
 31
0.0
  0
LINE
  5
101781D
330
A
100
AcDbEntity
  8
0
100
AcDbLine
 10
13000.98595276952
 20
-12362.55595023339
 30
0.0
 11
13000.98595276952
 21
-12462.55595023339
 31
0.0
  0
LINE
  5
101781E
330
A
100
AcDbEntity
  8
0
100
AcDbLine
 10
13000.98595276952
 20
-13462.55595023341
 30
0.0
 11
13000.98595276952
 21
-13562.55595023341
 31
0.0
  0
LINE
  5
101781F
330
A
100
AcDbEntity
  8
0
100
AcDbLine
 10
13010.50595276952
 20
-12362.55595023339
 30
0.0
 11
13010.50595276952
 21
-12462.55595023339
 31
0.0
  0
LINE
  5
1017820
330
A
100
AcDbEntity
  8
0
100
AcDbLine
 10
13010.50595276952
 20
-13462.55595023341
 30
0.0
 11
13010.50595276952
 21
-13562.55595023341
 31
0.0
  0
LINE
  5
1017821
330
A
100
AcDbEntity
  8
0
100
AcDbLine
 10
12996.99595276952
 20
-12462.55595023339
 30
0.0
 11
12996.99595276952
 21
-13462.55595023341
 31
0.0
  0
LINE
  5
1017822
330
A
100
AcDbEntity
  8
0
100
AcDbLine
 10
13014.49595276952
 20
-12462.55595023339
 30
0.0
 11
13014.49595276952
 21
-13462.55595023341
 31
0.0
  0
LINE
  5
1017823
330
A
100
AcDbEntity
  8
0
100
AcDbLine
 10
13664.98595276952
 20
-13562.55595023341
 30
0.0
 11
13664.98595276952
 21
-13462.55595023341
 31
0.0
  0
LINE
  5
1017824
330
A
100
AcDbEntity
  8
0
100
AcDbLine
 10
13674.50595276952
 20
-13562.55595023341
 30
0.0
 11
13674.50595276952
 21
-13462.55595023341
 31
0.0
  0
LINE
  5
1017825
330
A
100
AcDbEntity
  8
0
100
AcDbLine
 10
13000.98595276952
 20
-13562.5559502334
 30
0.0
 11
13010.50595276952
 21
-13562.55595023341
 31
0.0
  0
LINE
  5
1017826
330
A
100
AcDbEntity
  8
0
100
AcDbLine
 10
12996.99595276952
 20
-13462.55595023341
 30
0.0
 11
13014.49595276952
 21
-13462.5559502334
 31
0.0
  0
LINE
  5
1017827
330
A
100
AcDbEntity
  8
0
100
AcDbLine
 10
13664.98595276952
 20
-12362.55595023339
 30
0.0
 11
13664.98595276952
 21
-12462.55595023339
 31
0.0
  0
LINE
  5
1017828
330
A
100
AcDbEntity
  8
0
100
AcDbLine
 10
13674.50595276952
 20
-12362.55595023339
 30
0.0
 11
13674.50595276952
 21
-12462.55595023339
 31
0.0
  0
ARC
  5
101782A
330
A
100
AcDbEntity
  8
0
  6
CENTER
100
AcDbCircle
 10
13659.74595276952
 20
-12962.55595023341
 30
0.0
 40
292.0
100
AcDbArc
 50
301.1394843855439
 51
58.86051561445611
  0
ARC
  5
101782B
330
A
100
AcDbEntity
  8
0
100
AcDbCircle
 10
13659.74595276952
 20
-12962.55595023341
 30
0.0
 40
283.25
100
AcDbArc
 50
301.1394843855439
 51
58.86051561445611
  0
ARC
  5
101782C
330
A
100
AcDbEntity
  8
0
100
AcDbCircle
 10
13659.74595276952
 20
-12962.55595023341
 30
0.0
 40
300.75
100
AcDbArc
 50
301.1394843855439
 51
58.86051561445611
  0
ARC
  5
101782D
330
A
100
AcDbEntity
  8
0
100
AcDbCircle
 10
13961.7460573373
 20
-13462.4080298169
 30
0.0
 40
300.7501409442436
100
AcDbArc
 50
121.1394914374037
 51
180.028180255873
  0
ARC
  5
101782E
330
A
100
AcDbEntity
  8
0
100
AcDbCircle
 10
13961.74606378839
 20
-13462.40803607836
 30
0.0
 40
283.2501496395031
100
AcDbArc
 50
121.1394923350139
 51
180.0299200449128
  0
ARC
  5
101782F
330
A
100
AcDbEntity
  8
0
100
AcDbCircle
 10
13961.7460573373
 20
-12462.7038706499
 30
0.0
 40
300.7501409442436
100
AcDbArc
 50
179.9718197441269
 51
238.8605085625963
  0
ARC
  5
1017830
330
A
100
AcDbEntity
  8
0
100
AcDbCircle
 10
13961.74606378839
 20
-12462.70386438845
 30
0.0
 40
283.2501496395074
100
AcDbArc
 50
179.9700799550872
 51
238.860507664986
  0
LINE
  5
1017831
330
A
100
AcDbEntity
  8
0
100
AcDbLine
 10
13664.98595276952
 20
-13562.55595023341
 30
0.0
 11
13674.50595276952
 21
-13562.55595023341
 31
0.0
  0
LINE
  5
1017832
330
A
100
AcDbEntity
  8
0
  6
CENTER
100
AcDbLine
 10
13669.74595276952
 20
-13462.55595023341
 30
0.0
 11
13678.49595276952
 21
-13462.55595023341
 31
0.0
  0
LINE
  5
1017833
330
A
100
AcDbEntity
  8
0
  6
CENTER
100
AcDbLine
 10
13669.74595276952
 20
-13462.55595023341
 30
0.0
 11
13660.99595276952
 21
-13462.55595023341
 31
0.0
  0
LINE
  5
1017834
330
A
100
AcDbEntity
  8
0
  6
CENTER
100
AcDbLine
 10
13669.74595276952
 20
-12462.55595023339
 30
0.0
 11
13678.49595276952
 21
-12462.55595023339
 31
0.0
  0
LINE
  5
1017835
330
A
100
AcDbEntity
  8
0
  6
CENTER
100
AcDbLine
 10
13669.74595276952
 20
-12462.55595023339
 30
0.0
 11
13660.99595276952
 21
-12462.55595023339
 31
0.0
  0
LWPOLYLINE
  5
1017836
330
A
100
AcDbEntity
  8
0
  6
CENTER
100
AcDbPolyline
 90
        3
 70
     0
 43
0.0
 10
13669.74595276952
 20
-12362.55595023339
 10
13669.74595276952
 20
-12462.70397214389
 42
0.2626273308013469
 10
13810.74595276959
 20
-12712.62996118869
  0
LWPOLYLINE
  5
1017837
330
A
100
AcDbEntity
  8
0
  6
CENTER
100
AcDbPolyline
 90
        3
 70
     0
 43
0.0
 10
13810.74595276959
 20
-13212.48193927812
 42
0.2626273308013469
 10
13669.74595276952
 20
-13462.40792832292
 10
13669.74595276952
 20
-13562.55595023341
  0
LINE
  5
10179C7
330
A
100
AcDbEntity
  8
0
100
AcDbLine
 10
14779.89595276952
 20
-12362.55595023339
 30
0.0
 11
14792.59595276952
 21
-12362.55595023339
 31
0.0
  0
LINE
  5
10179C8
330
A
100
AcDbEntity
  8
0
100
AcDbLine
 10
14776.74595276952
 20
-12462.55595023339
 30
0.0
 11
14795.74595276952
 21
-12462.55595023339
 31
0.0
  0
LINE
  5
10179C9
330
A
100
AcDbEntity
  8
0
100
AcDbLine
 10
15443.89595276952
 20
-12362.55595023338
 30
0.0
 11
15456.59595276952
 21
-12362.55595023339
 31
0.0
  0
LINE
  5
10179CA
330
A
100
AcDbEntity
  8
0
  6
CENTER
100
AcDbLine
 10
14786.24595276952
 20
-12362.55595023339
 30
0.0
 11
14786.24595276952
 21
-13562.55595023341
 31
0.0
  0
LINE
  5
10179CB
330
A
100
AcDbEntity
  8
0
100
AcDbLine
 10
14779.89595276952
 20
-12362.55595023339
 30
0.0
 11
14779.89595276952
 21
-12462.55595023339
 31
0.0
  0
LINE
  5
10179CC
330
A
100
AcDbEntity
  8
0
100
AcDbLine
 10
14779.89595276952
 20
-13462.55595023341
 30
0.0
 11
14779.89595276952
 21
-13562.55595023341
 31
0.0
  0
LINE
  5
10179CD
330
A
100
AcDbEntity
  8
0
100
AcDbLine
 10
14792.59595276952
 20
-12362.55595023339
 30
0.0
 11
14792.59595276952
 21
-12462.55595023339
 31
0.0
  0
LINE
  5
10179CE
330
A
100
AcDbEntity
  8
0
100
AcDbLine
 10
14792.59595276952
 20
-13462.55595023341
 30
0.0
 11
14792.59595276952
 21
-13562.55595023341
 31
0.0
  0
LINE
  5
10179CF
330
A
100
AcDbEntity
  8
0
100
AcDbLine
 10
14776.74595276952
 20
-12462.55595023339
 30
0.0
 11
14776.74595276952
 21
-13462.55595023341
 31
0.0
  0
LINE
  5
10179D0
330
A
100
AcDbEntity
  8
0
100
AcDbLine
 10
14795.74595276952
 20
-12462.55595023339
 30
0.0
 11
14795.74595276952
 21
-13462.55595023341
 31
0.0
  0
LINE
  5
10179D1
330
A
100
AcDbEntity
  8
0
100
AcDbLine
 10
15443.89595276952
 20
-13562.55595023341
 30
0.0
 11
15443.89595276952
 21
-13462.55595023341
 31
0.0
  0
LINE
  5
10179D2
330
A
100
AcDbEntity
  8
0
100
AcDbLine
 10
15456.59595276952
 20
-13562.55595023341
 30
0.0
 11
15456.59595276952
 21
-13462.55595023341
 31
0.0
  0
LINE
  5
10179D3
330
A
100
AcDbEntity
  8
0
100
AcDbLine
 10
14779.89595276952
 20
-13562.55595023341
 30
0.0
 11
14792.59595276952
 21
-13562.55595023341
 31
0.0
  0
LINE
  5
10179D4
330
A
100
AcDbEntity
  8
0
100
AcDbLine
 10
14776.74595276952
 20
-13462.55595023341
 30
0.0
 11
14795.74595276952
 21
-13462.55595023341
 31
0.0
  0
LINE
  5
10179D5
330
A
100
AcDbEntity
  8
0
100
AcDbLine
 10
15443.89595276952
 20
-12362.55595023339
 30
0.0
 11
15443.89595276952
 21
-12462.55595023339
 31
0.0
  0
LINE
  5
10179D6
330
A
100
AcDbEntity
  8
0
100
AcDbLine
 10
15456.59595276952
 20
-12362.55595023339
 30
0.0
 11
15456.59595276952
 21
-12462.55595023339
 31
0.0
  0
ARC
  5
10179D8
330
A
100
AcDbEntity
  8
0
  6
CENTER
100
AcDbCircle
 10
15440.24595276952
 20
-12962.55595023341
 30
0.0
 40
292.0
100
AcDbArc
 50
301.1394843855439
 51
58.86051561445611
  0
ARC
  5
10179D9
330
A
100
AcDbEntity
  8
0
100
AcDbCircle
 10
15440.24595276952
 20
-12962.55595023341
 30
0.0
 40
282.5
100
AcDbArc
 50
301.1394843855439
 51
58.86051561445611
  0
ARC
  5
10179DA
330
A
100
AcDbEntity
  8
0
100
AcDbCircle
 10
15440.24595276952
 20
-12962.55595023341
 30
0.0
 40
301.5
100
AcDbArc
 50
301.1394843855439
 51
58.86051561445611
  0
ARC
  5
10179DB
330
A
100
AcDbEntity
  8
0
100
AcDbCircle
 10
15742.24605707754
 20
-13462.40802956477
 30
0.0
 40
301.500140594118
100
AcDbArc
 50
121.13949140238
 51
180.0281102036952
  0
ARC
  5
10179DC
330
A
100
AcDbEntity
  8
0
100
AcDbCircle
 10
15742.24606408271
 20
-13462.40803636403
 30
0.0
 40
282.5001500362091
100
AcDbArc
 50
121.1394923772315
 51
180.0299994206514
  0
ARC
  5
10179DD
330
A
100
AcDbEntity
  8
0
100
AcDbCircle
 10
15742.24605707754
 20
-12462.70387090203
 30
0.0
 40
301.5001405941143
100
AcDbArc
 50
179.9718897963048
 51
238.86050859762
  0
ARC
  5
10179DE
330
A
100
AcDbEntity
  8
0
100
AcDbCircle
 10
15742.24606408272
 20
-12462.70386410278
 30
0.0
 40
282.5001500362157
100
AcDbArc
 50
179.9700005793486
 51
238.8605076227684
  0
LINE
  5
10179DF
330
A
100
AcDbEntity
  8
0
100
AcDbLine
 10
15443.89595276952
 20
-13562.55595023341
 30
0.0
 11
15456.59595276952
 21
-13562.55595023341
 31
0.0
  0
LINE
  5
10179E0
330
A
100
AcDbEntity
  8
0
  6
CENTER
100
AcDbLine
 10
15450.24595276952
 20
-12462.55595023339
 30
0.0
 11
15459.74595276952
 21
-12462.55595023339
 31
0.0
  0
LINE
  5
10179E1
330
A
100
AcDbEntity
  8
0
  6
CENTER
100
AcDbLine
 10
15450.24595276952
 20
-12462.55595023339
 30
0.0
 11
15440.74595276952
 21
-12462.55595023339
 31
0.0
  0
LINE
  5
10179E2
330
A
100
AcDbEntity
  8
0
  6
CENTER
100
AcDbLine
 10
15450.24595276952
 20
-13462.55595023341
 30
0.0
 11
15459.74595276952
 21
-13462.55595023341
 31
0.0
  0
LINE
  5
10179E3
330
A
100
AcDbEntity
  8
0
  6
CENTER
100
AcDbLine
 10
15450.24595276952
 20
-13462.55595023341
 30
0.0
 11
15440.74595276952
 21
-13462.55595023341
 31
0.0
  0
LWPOLYLINE
  5
10179E4
330
A
100
AcDbEntity
  8
0
  6
CENTER
100
AcDbPolyline
 90
        3
 70
     0
 43
0.0
 10
15450.24595276952
 20
-12362.55595023339
 10
15450.24595276952
 20
-12462.70397214389
 42
0.2626273308013467
 10
15591.24595276959
 20
-12712.62996118869
  0
LWPOLYLINE
  5
10179E5
330
A
100
AcDbEntity
  8
0
  6
CENTER
100
AcDbPolyline
 90
        3
 70
     0
 43
0.0
 10
15591.24595276959
 20
-13212.48193927812
 42
0.2626273308013467
 10
15450.24595276952
 20
-13462.40792832292
 10
15450.24595276952
 20
-13562.55595023341
  0
LINE
  5
1017AAA
330
A
100
AcDbEntity
  8
0
100
AcDbLine
 10
16558.80595276951
 20
-12362.55595023339
 30
0.0
 11
16574.68595276951
 21
-12362.55595023339
 31
0.0
  0
LINE
  5
1017AAB
330
A
100
AcDbEntity
  8
0
100
AcDbLine
 10
16552.24595276951
 20
-12462.55595023339
 30
0.0
 11
16581.24595276951
 21
-12462.55595023339
 31
0.0
  0
LINE
  5
1017AAC
330
A
100
AcDbEntity
  8
0
100
AcDbLine
 10
17222.80595276951
 20
-12362.55595023339
 30
0.0
 11
17238.68595276951
 21
-12362.55595023339
 31
0.0
  0
LINE
  5
1017AAD
330
A
100
AcDbEntity
  8
0
100
AcDbLine
 10
17227.57095276951
 20
-12462.55595023339
 30
0.0
 11
17233.92095276951
 21
-12462.55595023339
 31
0.0
  0
LINE
  5
1017AAE
330
A
100
AcDbEntity
  8
0
  6
CENTER
100
AcDbLine
 10
16566.74595276951
 20
-12362.55595023339
 30
0.0
 11
16566.74595276951
 21
-13562.55595023341
 31
0.0
  0
LINE
  5
1017AAF
330
A
100
AcDbEntity
  8
0
100
AcDbLine
 10
16558.80595276951
 20
-12362.55595023339
 30
0.0
 11
16558.80595276951
 21
-12462.55595023339
 31
0.0
  0
LINE
  5
1017AB0
330
A
100
AcDbEntity
  8
0
100
AcDbLine
 10
16558.80595276951
 20
-13462.55595023341
 30
0.0
 11
16558.80595276951
 21
-13562.55595023341
 31
0.0
  0
LINE
  5
1017AB1
330
A
100
AcDbEntity
  8
0
100
AcDbLine
 10
16574.68595276951
 20
-12362.55595023339
 30
0.0
 11
16574.68595276951
 21
-12462.55595023339
 31
0.0
  0
LINE
  5
1017AB2
330
A
100
AcDbEntity
  8
0
100
AcDbLine
 10
16574.68595276951
 20
-13462.55595023341
 30
0.0
 11
16574.68595276951
 21
-13562.55595023341
 31
0.0
  0
LINE
  5
1017AB3
330
A
100
AcDbEntity
  8
0
100
AcDbLine
 10
16552.24595276951
 20
-12462.55595023339
 30
0.0
 11
16552.24595276951
 21
-13462.55595023341
 31
0.0
  0
LINE
  5
1017AB4
330
A
100
AcDbEntity
  8
0
100
AcDbLine
 10
16581.24595276951
 20
-12462.55595023339
 30
0.0
 11
16581.24595276951
 21
-13462.55595023341
 31
0.0
  0
LINE
  5
1017AB5
330
A
100
AcDbEntity
  8
0
100
AcDbLine
 10
17222.80595276951
 20
-13562.55595023341
 30
0.0
 11
17222.80595276951
 21
-13462.55595023341
 31
0.0
  0
LINE
  5
1017AB6
330
A
100
AcDbEntity
  8
0
100
AcDbLine
 10
17238.68595276951
 20
-13562.55595023341
 30
0.0
 11
17238.68595276951
 21
-13462.55595023341
 31
0.0
  0
LINE
  5
1017AB7
330
A
100
AcDbEntity
  8
0
100
AcDbLine
 10
16558.80595276951
 20
-13562.55595023341
 30
0.0
 11
16574.68595276951
 21
-13562.55595023341
 31
0.0
  0
LINE
  5
1017AB8
330
A
100
AcDbEntity
  8
0
100
AcDbLine
 10
16552.24595276951
 20
-13462.55595023341
 30
0.0
 11
16581.24595276951
 21
-13462.55595023341
 31
0.0
  0
LINE
  5
1017AB9
330
A
100
AcDbEntity
  8
0
100
AcDbLine
 10
17222.80595276951
 20
-12362.55595023339
 30
0.0
 11
17222.80595276951
 21
-12462.55595023339
 31
0.0
  0
LINE
  5
1017ABA
330
A
100
AcDbEntity
  8
0
100
AcDbLine
 10
17238.68595276951
 20
-12362.55595023339
 30
0.0
 11
17238.68595276951
 21
-12462.55595023339
 31
0.0
  0
ARC
  5
1017ABC
330
A
100
AcDbEntity
  8
0
  6
CENTER
100
AcDbCircle
 10
17220.74595276951
 20
-12962.55595023341
 30
0.0
 40
292.0
100
AcDbArc
 50
301.1394843855439
 51
58.86051561445611
  0
ARC
  5
1017ABD
330
A
100
AcDbEntity
  8
0
100
AcDbCircle
 10
17220.74595276951
 20
-12962.55595023341
 30
0.0
 40
277.5
100
AcDbArc
 50
301.1394843855439
 51
58.86051561445611
  0
ARC
  5
1017ABE
330
A
100
AcDbEntity
  8
0
100
AcDbCircle
 10
17220.74595276951
 20
-12962.55595023341
 30
0.0
 40
306.5
100
AcDbArc
 50
301.1394843855439
 51
58.86051561445611
  0
ARC
  5
1017ABF
330
A
100
AcDbEntity
  8
0
100
AcDbCircle
 10
17522.74605537823
 20
-13462.40802791541
 30
0.0
 40
306.5001383036617
100
AcDbArc
 50
121.1394911754194
 51
180.0276519445964
  0
ARC
  5
1017AC0
330
A
100
AcDbEntity
  8
0
100
AcDbCircle
 10
17522.74606608537
 20
-13462.40803830782
 30
0.0
 40
277.5001527355533
100
AcDbArc
 50
121.139492667644
 51
180.030539548868
  0
ARC
  5
1017AC1
330
A
100
AcDbEntity
  8
0
100
AcDbCircle
 10
17522.74605537824
 20
-12462.70387255139
 30
0.0
 40
306.5001383036716
100
AcDbArc
 50
179.9723480554033
 51
238.8605088245806
  0
ARC
  5
1017AC2
330
A
100
AcDbEntity
  8
0
100
AcDbCircle
 10
17522.74606608537
 20
-12462.70386215898
 30
0.0
 40
277.5001527355545
100
AcDbArc
 50
179.9694604511319
 51
238.860507332356
  0
LINE
  5
1017AC3
330
A
100
AcDbEntity
  8
0
100
AcDbLine
 10
17222.80595276951
 20
-13562.55595023341
 30
0.0
 11
17238.68595276951
 21
-13562.55595023341
 31
0.0
  0
LINE
  5
1017AC4
330
A
100
AcDbEntity
  8
0
  6
CENTER
100
AcDbLine
 10
17230.74595276951
 20
-13462.55595023341
 30
0.0
 11
17245.24595276951
 21
-13462.55595023341
 31
0.0
  0
LINE
  5
1017AC5
330
A
100
AcDbEntity
  8
0
  6
CENTER
100
AcDbLine
 10
17230.74595276951
 20
-13462.55595023341
 30
0.0
 11
17216.24595276951
 21
-13462.55595023341
 31
0.0
  0
LINE
  5
1017AC6
330
A
100
AcDbEntity
  8
0
  6
CENTER
100
AcDbLine
 10
17230.74595276951
 20
-12462.55595023339
 30
0.0
 11
17245.24595276951
 21
-12462.55595023339
 31
0.0
  0
LINE
  5
1017AC7
330
A
100
AcDbEntity
  8
0
  6
CENTER
100
AcDbLine
 10
17230.74595276951
 20
-12462.55595023339
 30
0.0
 11
17216.24595276951
 21
-12462.55595023339
 31
0.0
  0
LWPOLYLINE
  5
1017AC8
330
A
100
AcDbEntity
  8
0
  6
CENTER
100
AcDbPolyline
 90
        3
 70
     0
 43
0.0
 10
17230.74595276951
 20
-12362.55595023339
 10
17230.74595276951
 20
-12462.70397214389
 42
0.2626273308013467
 10
17371.74595276958
 20
-12712.62996118869
  0
LWPOLYLINE
  5
1017AC9
330
A
100
AcDbEntity
  8
0
  6
CENTER
100
AcDbPolyline
 90
        3
 70
     0
 43
0.0
 10
17371.74595276958
 20
-13212.48193927812
 42
0.2626273308013467
 10
17230.74595276951
 20
-13462.40792832292
 10
17230.74595276951
 20
-13562.55595023341
  0
LINE
  5
1017BA8
330
A
100
AcDbEntity
  8
0
100
AcDbLine
 10
18337.72095276952
 20
-12362.55595023338
 30
0.0
 11
18356.77095276952
 21
-12362.55595023339
 31
0.0
  0
LINE
  5
1017BA9
330
A
100
AcDbEntity
  8
0
100
AcDbLine
 10
18332.74595276952
 20
-12462.55595023339
 30
0.0
 11
18361.74595276952
 21
-12462.55595023339
 31
0.0
  0
LINE
  5
1017BAA
330
A
100
AcDbEntity
  8
0
100
AcDbLine
 10
19001.72095276952
 20
-12362.55595023339
 30
0.0
 11
19020.77095276952
 21
-12362.55595023339
 31
0.0
  0
LINE
  5
1017BAB
330
A
100
AcDbEntity
  8
0
100
AcDbLine
 10
19008.07095276952
 20
-12462.55595023339
 30
0.0
 11
19014.42095276952
 21
-12462.55595023339
 31
0.0
  0
LINE
  5
1017BAC
330
A
100
AcDbEntity
  8
0
  6
CENTER
100
AcDbLine
 10
18347.24595276951
 20
-12362.55595023339
 30
0.0
 11
18347.24595276951
 21
-13562.55595023341
 31
0.0
  0
LINE
  5
1017BAD
330
A
100
AcDbEntity
  8
0
100
AcDbLine
 10
18337.72095276952
 20
-12362.55595023339
 30
0.0
 11
18337.72095276952
 21
-12462.55595023339
 31
0.0
  0
LINE
  5
1017BAE
330
A
100
AcDbEntity
  8
0
100
AcDbLine
 10
18337.72095276952
 20
-13462.55595023341
 30
0.0
 11
18337.72095276952
 21
-13562.55595023341
 31
0.0
  0
LINE
  5
1017BAF
330
A
100
AcDbEntity
  8
0
100
AcDbLine
 10
18356.77095276952
 20
-12362.55595023339
 30
0.0
 11
18356.77095276952
 21
-12462.55595023339
 31
0.0
  0
LINE
  5
1017BB0
330
A
100
AcDbEntity
  8
0
100
AcDbLine
 10
18356.77095276952
 20
-13462.55595023341
 30
0.0
 11
18356.77095276952
 21
-13562.55595023341
 31
0.0
  0
LINE
  5
1017BB1
330
A
100
AcDbEntity
  8
0
100
AcDbLine
 10
18332.74595276952
 20
-12462.55595023339
 30
0.0
 11
18332.74595276952
 21
-13462.55595023341
 31
0.0
  0
LINE
  5
1017BB2
330
A
100
AcDbEntity
  8
0
100
AcDbLine
 10
18361.74595276952
 20
-12462.55595023339
 30
0.0
 11
18361.74595276952
 21
-13462.55595023341
 31
0.0
  0
LINE
  5
1017BB3
330
A
100
AcDbEntity
  8
0
100
AcDbLine
 10
18337.72095276952
 20
-13562.55595023341
 30
0.0
 11
18356.77095276952
 21
-13562.55595023341
 31
0.0
  0
LINE
  5
1017BB4
330
A
100
AcDbEntity
  8
0
100
AcDbLine
 10
18332.74595276952
 20
-13462.55595023341
 30
0.0
 11
18361.74595276952
 21
-13462.55595023341
 31
0.0
  0
ARC
  5
1017BB6
330
A
100
AcDbEntity
  8
0
  6
CENTER
100
AcDbCircle
 10
19001.24595276952
 20
-12962.55595023341
 30
0.0
 40
292.0
100
AcDbArc
 50
301.1394843855439
 51
58.86051561445611
  0
ARC
  5
1017BB7
330
A
100
AcDbEntity
  8
0
100
AcDbCircle
 10
19001.24595276952
 20
-12962.55595023341
 30
0.0
 40
277.5
100
AcDbArc
 50
301.1394843855439
 51
58.86051561445611
  0
ARC
  5
1017BB8
330
A
100
AcDbEntity
  8
0
100
AcDbCircle
 10
19001.24595276952
 20
-12962.55595023341
 30
0.0
 40
306.5
100
AcDbArc
 50
301.1394843855439
 51
58.86051561445611
  0
ARC
  5
1017BB9
330
A
100
AcDbEntity
  8
0
100
AcDbCircle
 10
19303.24605537824
 20
-13462.40802791541
 30
0.0
 40
306.5001383036617
100
AcDbArc
 50
121.1394911754194
 51
180.0276519445964
  0
ARC
  5
1017BBA
330
A
100
AcDbEntity
  8
0
100
AcDbCircle
 10
19303.24606608538
 20
-13462.40803830782
 30
0.0
 40
277.5001527355533
100
AcDbArc
 50
121.139492667644
 51
180.030539548868
  0
ARC
  5
1017BBB
330
A
100
AcDbEntity
  8
0
100
AcDbCircle
 10
19303.24605537824
 20
-12462.70387255139
 30
0.0
 40
306.5001383036716
100
AcDbArc
 50
179.9723480554033
 51
238.8605088245806
  0
ARC
  5
1017BBC
330
A
100
AcDbEntity
  8
0
100
AcDbCircle
 10
19303.24606608538
 20
-12462.70386215898
 30
0.0
 40
277.5001527355545
100
AcDbArc
 50
179.9694604511319
 51
238.860507332356
  0
LINE
  5
1017BBD
330
A
100
AcDbEntity
  8
0
100
AcDbLine
 10
19001.72095276952
 20
-13562.55595023341
 30
0.0
 11
19020.77095276952
 21
-13562.55595023341
 31
0.0
  0
LINE
  5
1017BBE
330
A
100
AcDbEntity
  8
0
  6
CENTER
100
AcDbLine
 10
19011.24595276952
 20
-13462.55595023341
 30
0.0
 11
19025.74595276951
 21
-13462.55595023341
 31
0.0
  0
LINE
  5
1017BBF
330
A
100
AcDbEntity
  8
0
  6
CENTER
100
AcDbLine
 10
19011.24595276952
 20
-13462.55595023341
 30
0.0
 11
18996.74595276952
 21
-13462.55595023341
 31
0.0
  0
LINE
  5
1017BC0
330
A
100
AcDbEntity
  8
0
  6
CENTER
100
AcDbLine
 10
19011.24595276952
 20
-12462.55595023339
 30
0.0
 11
19025.74595276951
 21
-12462.55595023339
 31
0.0
  0
LINE
  5
1017BC1
330
A
100
AcDbEntity
  8
0
  6
CENTER
100
AcDbLine
 10
19011.24595276952
 20
-12462.55595023339
 30
0.0
 11
18996.74595276952
 21
-12462.55595023339
 31
0.0
  0
LWPOLYLINE
  5
1017BC2
330
A
100
AcDbEntity
  8
0
  6
CENTER
100
AcDbPolyline
 90
        3
 70
     0
 43
0.0
 10
19011.24595276952
 20
-12362.55595023339
 10
19011.24595276952
 20
-12462.70397214389
 42
0.2626273308013467
 10
19152.24595276959
 20
-12712.62996118869
  0
LWPOLYLINE
  5
1017BC3
330
A
100
AcDbEntity
  8
0
100
AcDbPolyline
 90
        2
 70
     0
 43
0.0
 10
19001.72095276952
 20
-12362.55595023339
 10
19001.72095276952
 20
-12462.55595023339
  0
LWPOLYLINE
  5
1017BC4
330
A
100
AcDbEntity
  8
0
100
AcDbPolyline
 90
        2
 70
     0
 43
0.0
 10
19020.77095276952
 20
-12362.55595023339
 10
19020.77095276952
 20
-12462.55595023339
  0
LWPOLYLINE
  5
1017BC5
330
A
100
AcDbEntity
  8
0
  6
CENTER
100
AcDbPolyline
 90
        3
 70
     0
 43
0.0
 10
19152.24595276959
 20
-13212.48193927812
 42
0.2626273308013467
 10
19011.24595276952
 20
-13462.40792832292
 10
19011.24595276952
 20
-13562.55595023341
  0
LWPOLYLINE
  5
1017BC6
330
A
100
AcDbEntity
  8
0
100
AcDbPolyline
 90
        2
 70
     0
 43
0.0
 10
19001.72095276952
 20
-13462.55595023341
 10
19001.72095276952
 20
-13562.55595023341
  0
LWPOLYLINE
  5
1017BC7
330
A
100
AcDbEntity
  8
0
100
AcDbPolyline
 90
        2
 70
     0
 43
0.0
 10
19020.77095276952
 20
-13462.55595023341
 10
19020.77095276952
 20
-13562.55595023341
  0
LINE
  5
1017D43
330
A
100
AcDbEntity
  8
0
100
AcDbLine
 10
20116.63595276951
 20
-12362.55595023338
 30
0.0
 11
20138.85595276951
 21
-12362.55595023339
 31
0.0
  0
LINE
  5
1017D44
330
A
100
AcDbEntity
  8
0
100
AcDbLine
 10
20113.24595276951
 20
-12462.55595023339
 30
0.0
 11
20142.24595276951
 21
-12462.55595023339
 31
0.0
  0
LINE
  5
1017D45
330
A
100
AcDbEntity
  8
0
100
AcDbLine
 10
20780.63595276951
 20
-12362.55595023339
 30
0.0
 11
20802.85595276952
 21
-12362.55595023339
 31
0.0
  0
LINE
  5
1017D46
330
A
100
AcDbEntity
  8
0
100
AcDbLine
 10
20788.57095276951
 20
-12462.55595023339
 30
0.0
 11
20794.92095276951
 21
-12462.55595023339
 31
0.0
  0
LINE
  5
1017D47
330
A
100
AcDbEntity
  8
0
  6
CENTER
100
AcDbLine
 10
20127.74595276952
 20
-12362.55595023339
 30
0.0
 11
20127.74595276952
 21
-13562.55595023341
 31
0.0
  0
LINE
  5
1017D48
330
A
100
AcDbEntity
  8
0
100
AcDbLine
 10
20116.63595276951
 20
-12362.55595023339
 30
0.0
 11
20116.63595276951
 21
-12462.55595023339
 31
0.0
  0
LINE
  5
1017D49
330
A
100
AcDbEntity
  8
0
100
AcDbLine
 10
20116.63595276951
 20
-13462.55595023341
 30
0.0
 11
20116.63595276951
 21
-13562.55595023341
 31
0.0
  0
LINE
  5
1017D4A
330
A
100
AcDbEntity
  8
0
100
AcDbLine
 10
20138.85595276951
 20
-12362.55595023339
 30
0.0
 11
20138.85595276951
 21
-12462.55595023339
 31
0.0
  0
LINE
  5
1017D4B
330
A
100
AcDbEntity
  8
0
100
AcDbLine
 10
20138.85595276951
 20
-13462.55595023341
 30
0.0
 11
20138.85595276951
 21
-13562.55595023341
 31
0.0
  0
LINE
  5
1017D4C
330
A
100
AcDbEntity
  8
0
100
AcDbLine
 10
20113.24595276951
 20
-12462.55595023339
 30
0.0
 11
20113.24595276951
 21
-13462.55595023341
 31
0.0
  0
LINE
  5
1017D4D
330
A
100
AcDbEntity
  8
0
100
AcDbLine
 10
20142.24595276951
 20
-12462.55595023339
 30
0.0
 11
20142.24595276951
 21
-13462.55595023341
 31
0.0
  0
LINE
  5
1017D4E
330
A
100
AcDbEntity
  8
0
100
AcDbLine
 10
20116.63595276951
 20
-13562.55595023341
 30
0.0
 11
20138.85595276951
 21
-13562.55595023341
 31
0.0
  0
LINE
  5
1017D4F
330
A
100
AcDbEntity
  8
0
100
AcDbLine
 10
20113.24595276951
 20
-13462.55595023341
 30
0.0
 11
20142.24595276951
 21
-13462.55595023341
 31
0.0
  0
ARC
  5
1017D51
330
A
100
AcDbEntity
  8
0
  6
CENTER
100
AcDbCircle
 10
20781.74595276951
 20
-12962.55595023341
 30
0.0
 40
292.0
100
AcDbArc
 50
301.1394843855439
 51
58.86051561445611
  0
ARC
  5
1017D52
330
A
100
AcDbEntity
  8
0
100
AcDbCircle
 10
20781.74595276951
 20
-12962.55595023341
 30
0.0
 40
277.5
100
AcDbArc
 50
301.1394843855439
 51
58.86051561445611
  0
ARC
  5
1017D53
330
A
100
AcDbEntity
  8
0
100
AcDbCircle
 10
20781.74595276951
 20
-12962.55595023341
 30
0.0
 40
306.5
100
AcDbArc
 50
301.1394843855439
 51
58.86051561445611
  0
ARC
  5
1017D54
330
A
100
AcDbEntity
  8
0
100
AcDbCircle
 10
21083.74605537823
 20
-13462.40802791541
 30
0.0
 40
306.5001383036617
100
AcDbArc
 50
121.1394911754194
 51
180.0276519445964
  0
ARC
  5
1017D55
330
A
100
AcDbEntity
  8
0
100
AcDbCircle
 10
21083.74606608537
 20
-13462.40803830782
 30
0.0
 40
277.5001527355533
100
AcDbArc
 50
121.139492667644
 51
180.030539548868
  0
ARC
  5
1017D56
330
A
100
AcDbEntity
  8
0
100
AcDbCircle
 10
21083.74605537824
 20
-12462.70387255139
 30
0.0
 40
306.5001383036716
100
AcDbArc
 50
179.9723480554033
 51
238.8605088245806
  0
ARC
  5
1017D57
330
A
100
AcDbEntity
  8
0
100
AcDbCircle
 10
21083.74606608538
 20
-12462.70386215898
 30
0.0
 40
277.5001527355545
100
AcDbArc
 50
179.9694604511319
 51
238.860507332356
  0
LINE
  5
1017D58
330
A
100
AcDbEntity
  8
0
100
AcDbLine
 10
20780.63595276951
 20
-13562.55595023341
 30
0.0
 11
20802.85595276952
 21
-13562.55595023341
 31
0.0
  0
LINE
  5
1017D59
330
A
100
AcDbEntity
  8
0
  6
CENTER
100
AcDbLine
 10
20791.74595276951
 20
-13462.55595023341
 30
0.0
 11
20806.24595276951
 21
-13462.55595023341
 31
0.0
  0
LINE
  5
1017D5A
330
A
100
AcDbEntity
  8
0
  6
CENTER
100
AcDbLine
 10
20791.74595276951
 20
-13462.55595023341
 30
0.0
 11
20777.24595276952
 21
-13462.55595023341
 31
0.0
  0
LINE
  5
1017D5B
330
A
100
AcDbEntity
  8
0
  6
CENTER
100
AcDbLine
 10
20791.74595276951
 20
-12462.55595023339
 30
0.0
 11
20806.24595276951
 21
-12462.55595023339
 31
0.0
  0
LINE
  5
1017D5C
330
A
100
AcDbEntity
  8
0
  6
CENTER
100
AcDbLine
 10
20791.74595276951
 20
-12462.55595023339
 30
0.0
 11
20777.24595276952
 21
-12462.55595023339
 31
0.0
  0
LWPOLYLINE
  5
1017D5D
330
A
100
AcDbEntity
  8
0
  6
CENTER
100
AcDbPolyline
 90
        3
 70
     0
 43
0.0
 10
20791.74595276951
 20
-12362.55595023339
 10
20791.74595276951
 20
-12462.70397214389
 42
0.2626273308013467
 10
20932.74595276958
 20
-12712.62996118869
  0
LWPOLYLINE
  5
1017D5E
330
A
100
AcDbEntity
  8
0
100
AcDbPolyline
 90
        2
 70
     0
 43
0.0
 10
20780.63595276951
 20
-12362.55595023339
 10
20780.63595276951
 20
-12462.55595023339
  0
LWPOLYLINE
  5
1017D5F
330
A
100
AcDbEntity
  8
0
100
AcDbPolyline
 90
        2
 70
     0
 43
0.0
 10
20802.85595276952
 20
-12362.55595023339
 10
20802.85595276952
 20
-12462.55595023339
  0
LWPOLYLINE
  5
1017D60
330
A
100
AcDbEntity
  8
0
  6
CENTER
100
AcDbPolyline
 90
        3
 70
     0
 43
0.0
 10
20932.74595276958
 20
-13212.48193927812
 42
0.2626273308013467
 10
20791.74595276951
 20
-13462.40792832292
 10
20791.74595276951
 20
-13562.55595023341
  0
LWPOLYLINE
  5
1017D61
330
A
100
AcDbEntity
  8
0
100
AcDbPolyline
 90
        2
 70
     0
 43
0.0
 10
20780.63595276951
 20
-13462.55595023341
 10
20780.63595276951
 20
-13562.55595023341
  0
LWPOLYLINE
  5
1017D62
330
A
100
AcDbEntity
  8
0
100
AcDbPolyline
 90
        2
 70
     0
 43
0.0
 10
20802.85595276951
 20
-13462.55595023341
 10
20802.85595276952
 20
-13562.55595023341
  0
LINE
  5
1017FC8
330
A
100
AcDbEntity
  8
0
100
AcDbLine
 10
21895.54595276952
 20
-12362.55595023338
 30
0.0
 11
21920.94595276952
 21
-12362.55595023339
 31
0.0
  0
LINE
  5
1017FC9
330
A
100
AcDbEntity
  8
0
100
AcDbLine
 10
21889.74595276952
 20
-12462.55595023339
 30
0.0
 11
21926.74595276952
 21
-12462.55595023339
 31
0.0
  0
LINE
  5
1017FCA
330
A
100
AcDbEntity
  8
0
100
AcDbLine
 10
22559.54595276952
 20
-12362.55595023339
 30
0.0
 11
22584.94595276952
 21
-12362.55595023339
 31
0.0
  0
LINE
  5
1017FCB
330
A
100
AcDbEntity
  8
0
  6
CENTER
100
AcDbLine
 10
21908.24595276952
 20
-12362.55595023339
 30
0.0
 11
21908.24595276952
 21
-13562.5559502334
 31
0.0
  0
LINE
  5
1017FCC
330
A
100
AcDbEntity
  8
0
100
AcDbLine
 10
21895.54595276952
 20
-12362.55595023339
 30
0.0
 11
21895.54595276952
 21
-12462.55595023339
 31
0.0
  0
LINE
  5
1017FCD
330
A
100
AcDbEntity
  8
0
100
AcDbLine
 10
21895.54595276952
 20
-13462.5559502334
 30
0.0
 11
21895.54595276952
 21
-13562.5559502334
 31
0.0
  0
LINE
  5
1017FCE
330
A
100
AcDbEntity
  8
0
100
AcDbLine
 10
21920.94595276952
 20
-12362.55595023339
 30
0.0
 11
21920.94595276952
 21
-12462.55595023339
 31
0.0
  0
LINE
  5
1017FCF
330
A
100
AcDbEntity
  8
0
100
AcDbLine
 10
21920.94595276952
 20
-13462.5559502334
 30
0.0
 11
21920.94595276952
 21
-13562.5559502334
 31
0.0
  0
LINE
  5
1017FD0
330
A
100
AcDbEntity
  8
0
100
AcDbLine
 10
21889.74595276952
 20
-12462.55595023339
 30
0.0
 11
21889.74595276952
 21
-13462.5559502334
 31
0.0
  0
LINE
  5
1017FD1
330
A
100
AcDbEntity
  8
0
100
AcDbLine
 10
21926.74595276952
 20
-12462.55595023339
 30
0.0
 11
21926.74595276952
 21
-13462.5559502334
 31
0.0
  0
LINE
  5
1017FD2
330
A
100
AcDbEntity
  8
0
100
AcDbLine
 10
22559.54595276952
 20
-13562.5559502334
 30
0.0
 11
22559.54595276952
 21
-13462.5559502334
 31
0.0
  0
LINE
  5
1017FD3
330
A
100
AcDbEntity
  8
0
100
AcDbLine
 10
22584.94595276952
 20
-13562.5559502334
 30
0.0
 11
22584.94595276952
 21
-13462.5559502334
 31
0.0
  0
LINE
  5
1017FD4
330
A
100
AcDbEntity
  8
0
100
AcDbLine
 10
21895.54595276952
 20
-13562.5559502334
 30
0.0
 11
21920.94595276952
 21
-13562.5559502334
 31
0.0
  0
LINE
  5
1017FD5
330
A
100
AcDbEntity
  8
0
100
AcDbLine
 10
21889.74595276952
 20
-13462.5559502334
 30
0.0
 11
21926.74595276952
 21
-13462.5559502334
 31
0.0
  0
LINE
  5
1017FD6
330
A
100
AcDbEntity
  8
0
100
AcDbLine
 10
22559.54595276952
 20
-12362.55595023339
 30
0.0
 11
22559.54595276952
 21
-12462.55595023339
 31
0.0
  0
LINE
  5
1017FD7
330
A
100
AcDbEntity
  8
0
100
AcDbLine
 10
22584.94595276952
 20
-12362.55595023339
 30
0.0
 11
22584.94595276952
 21
-12462.55595023339
 31
0.0
  0
ARC
  5
1017FD8
330
A
100
AcDbEntity
  8
0
100
AcDbCircle
 10
22562.24595276952
 20
-12962.5559502334
 30
0.0
 40
273.5
100
AcDbArc
 50
301.1394843855169
 51
58.86051561448306
  0
ARC
  5
1017FD9
330
A
100
AcDbEntity
  8
0
100
AcDbCircle
 10
22562.24595276952
 20
-12962.5559502334
 30
0.0
 40
310.5
100
AcDbArc
 50
301.1394843855169
 51
58.86051561448306
  0
ARC
  5
1017FDA
330
A
100
AcDbEntity
  8
0
100
AcDbCircle
 10
22864.24605405814
 20
-13462.40802663412
 30
0.0
 40
310.5001365243377
100
AcDbArc
 50
121.139491001785
 51
180.0272959565886
  0
ARC
  5
1017FDB
330
A
100
AcDbEntity
  8
0
100
AcDbCircle
 10
22864.24606774015
 20
-13462.40803991394
 30
0.0
 40
273.500154965966
100
AcDbArc
 50
121.139492911442
 51
180.0309858598355
  0
ARC
  5
1017FDC
330
A
100
AcDbEntity
  8
0
100
AcDbCircle
 10
22864.24605405815
 20
-12462.70387383267
 30
0.0
 40
310.5001365243453
100
AcDbArc
 50
179.9727040434113
 51
238.860508998215
  0
ARC
  5
1017FDD
330
A
100
AcDbEntity
  8
0
100
AcDbCircle
 10
22864.24606774014
 20
-12462.70386055286
 30
0.0
 40
273.50015496596
100
AcDbArc
 50
179.9690141401644
 51
238.8605070885581
  0
LINE
  5
1017FDE
330
A
100
AcDbEntity
  8
0
100
AcDbLine
 10
22559.54595276952
 20
-13562.5559502334
 30
0.0
 11
22584.94595276952
 21
-13562.5559502334
 31
0.0
  0
LINE
  5
1017FDF
330
A
100
AcDbEntity
  8
0
  6
CENTER
100
AcDbLine
 10
22572.24595276952
 20
-12462.55595023339
 30
0.0
 11
22590.74595276952
 21
-12462.55595023339
 31
0.0
  0
LINE
  5
1017FE0
330
A
100
AcDbEntity
  8
0
  6
CENTER
100
AcDbLine
 10
22572.24595276952
 20
-12462.55595023339
 30
0.0
 11
22553.74595276952
 21
-12462.55595023339
 31
0.0
  0
LINE
  5
1017FE1
330
A
100
AcDbEntity
  8
0
  6
CENTER
100
AcDbLine
 10
22572.24595276952
 20
-13462.5559502334
 30
0.0
 11
22590.74595276952
 21
-13462.5559502334
 31
0.0
  0
LINE
  5
1017FE2
330
A
100
AcDbEntity
  8
0
  6
CENTER
100
AcDbLine
 10
22572.24595276952
 20
-13462.5559502334
 30
0.0
 11
22553.74595276952
 21
-13462.5559502334
 31
0.0
  0
LWPOLYLINE
  5
1017FE3
330
A
100
AcDbEntity
  8
0
  6
CENTER
100
AcDbPolyline
 90
        6
 70
     0
 43
0.0
 10
22572.24595276952
 20
-12362.55595023339
 10
22572.24595276952
 20
-12462.70397214388
 42
0.2626273308012709
 10
22713.24595276952
 20
-12712.62996118864
 42
-0.564167018159723
 10
22713.24595276952
 20
-13212.48193927816
 42
0.2626273308012708
 10
22572.24595276952
 20
-13462.40792832291
 10
22572.24595276952
 20
-13562.5559502334
  0
LINE
  5
10181FD
330
A
100
AcDbEntity
  8
0
100
AcDbLine
 10
23674.45595276952
 20
-12362.55595023338
 30
0.0
 11
23703.03595276952
 21
-12362.55595023339
 31
0.0
  0
LINE
  5
10181FE
330
A
100
AcDbEntity
  8
0
100
AcDbLine
 10
23665.74595276952
 20
-12462.55595023339
 30
0.0
 11
23711.74595276952
 21
-12462.55595023339
 31
0.0
  0
LINE
  5
10181FF
330
A
100
AcDbEntity
  8
0
100
AcDbLine
 10
24338.45595276951
 20
-12362.55595023338
 30
0.0
 11
24367.03595276952
 21
-12362.55595023339
 31
0.0
  0
LINE
  5
1018200
330
A
100
AcDbEntity
  8
0
  6
CENTER
100
AcDbLine
 10
23688.74595276952
 20
-12362.55595023339
 30
0.0
 11
23688.74595276952
 21
-13562.55595023341
 31
0.0
  0
LINE
  5
1018201
330
A
100
AcDbEntity
  8
0
100
AcDbLine
 10
23674.45595276952
 20
-12362.55595023339
 30
0.0
 11
23674.45595276952
 21
-12462.55595023339
 31
0.0
  0
LINE
  5
1018202
330
A
100
AcDbEntity
  8
0
100
AcDbLine
 10
23674.45595276952
 20
-13462.55595023341
 30
0.0
 11
23674.45595276952
 21
-13562.55595023341
 31
0.0
  0
LINE
  5
1018203
330
A
100
AcDbEntity
  8
0
100
AcDbLine
 10
23703.03595276952
 20
-12362.55595023339
 30
0.0
 11
23703.03595276952
 21
-12462.55595023339
 31
0.0
  0
LINE
  5
1018204
330
A
100
AcDbEntity
  8
0
100
AcDbLine
 10
23703.03595276952
 20
-13462.55595023341
 30
0.0
 11
23703.03595276952
 21
-13562.55595023341
 31
0.0
  0
LINE
  5
1018205
330
A
100
AcDbEntity
  8
0
100
AcDbLine
 10
23665.74595276952
 20
-12462.55595023339
 30
0.0
 11
23665.74595276952
 21
-13462.55595023341
 31
0.0
  0
LINE
  5
1018206
330
A
100
AcDbEntity
  8
0
100
AcDbLine
 10
23711.74595276952
 20
-12462.55595023339
 30
0.0
 11
23711.74595276952
 21
-13462.55595023341
 31
0.0
  0
LINE
  5
1018207
330
A
100
AcDbEntity
  8
0
100
AcDbLine
 10
24338.45595276951
 20
-13562.55595023341
 30
0.0
 11
24338.45595276951
 21
-13462.55595023341
 31
0.0
  0
LINE
  5
1018208
330
A
100
AcDbEntity
  8
0
100
AcDbLine
 10
24367.03595276952
 20
-13562.55595023341
 30
0.0
 11
24367.03595276952
 21
-13462.55595023341
 31
0.0
  0
LINE
  5
1018209
330
A
100
AcDbEntity
  8
0
100
AcDbLine
 10
23674.45595276952
 20
-13562.55595023341
 30
0.0
 11
23703.03595276952
 21
-13562.55595023341
 31
0.0
  0
LINE
  5
101820A
330
A
100
AcDbEntity
  8
0
100
AcDbLine
 10
23665.74595276952
 20
-13462.55595023341
 30
0.0
 11
23711.74595276952
 21
-13462.55595023341
 31
0.0
  0
LINE
  5
101820B
330
A
100
AcDbEntity
  8
0
100
AcDbLine
 10
24338.45595276951
 20
-12362.55595023339
 30
0.0
 11
24338.45595276951
 21
-12462.55595023339
 31
0.0
  0
LINE
  5
101820C
330
A
100
AcDbEntity
  8
0
100
AcDbLine
 10
24367.03595276952
 20
-12362.55595023339
 30
0.0
 11
24367.03595276952
 21
-12462.55595023339
 31
0.0
  0
ARC
  5
101820D
330
A
100
AcDbEntity
  8
0
  6
CENTER
100
AcDbCircle
 10
24342.74595276952
 20
-12962.55595023341
 30
0.0
 40
292.0
100
AcDbArc
 50
301.1394843855439
 51
58.86051561445611
  0
ARC
  5
101820E
330
A
100
AcDbEntity
  8
0
100
AcDbCircle
 10
24342.74595276952
 20
-12962.55595023341
 30
0.0
 40
269.0
100
AcDbArc
 50
301.1394843855439
 51
58.86051561445611
  0
ARC
  5
101820F
330
A
100
AcDbEntity
  8
0
100
AcDbCircle
 10
24342.74595276952
 20
-12962.55595023341
 30
0.0
 40
315.0
100
AcDbArc
 50
301.1394843855439
 51
58.86051561445611
  0
ARC
  5
1018210
330
A
100
AcDbEntity
  8
0
100
AcDbCircle
 10
24644.74605261307
 20
-13462.40802523152
 30
0.0
 40
315.0001345765565
100
AcDbArc
 50
121.1394908142626
 51
180.0269062697402
  0
ARC
  5
1018211
330
A
100
AcDbEntity
  8
0
100
AcDbCircle
 10
24644.74606966051
 20
-13462.40804177786
 30
0.0
 40
269.000157554374
100
AcDbArc
 50
121.1394931989052
 51
180.0315038130759
  0
ARC
  5
1018212
330
A
100
AcDbEntity
  8
0
100
AcDbCircle
 10
24644.74605261306
 20
-12462.70387523528
 30
0.0
 40
315.0001345765554
100
AcDbArc
 50
179.9730937302597
 51
238.8605091857374
  0
ARC
  5
1018213
330
A
100
AcDbEntity
  8
0
100
AcDbCircle
 10
24644.74606966051
 20
-12462.70385868895
 30
0.0
 40
269.0001575543724
100
AcDbArc
 50
179.9684961869241
 51
238.8605068010948
  0
LINE
  5
1018214
330
A
100
AcDbEntity
  8
0
100
AcDbLine
 10
24338.45595276951
 20
-13562.55595023341
 30
0.0
 11
24367.03595276952
 21
-13562.55595023341
 31
0.0
  0
LINE
  5
1018215
330
A
100
AcDbEntity
  8
0
  6
CENTER
100
AcDbLine
 10
24352.74595276952
 20
-12462.55595023339
 30
0.0
 11
24375.74595276952
 21
-12462.55595023339
 31
0.0
  0
LINE
  5
1018216
330
A
100
AcDbEntity
  8
0
  6
CENTER
100
AcDbLine
 10
24352.74595276952
 20
-12462.55595023339
 30
0.0
 11
24329.74595276952
 21
-12462.55595023339
 31
0.0
  0
LINE
  5
1018217
330
A
100
AcDbEntity
  8
0
  6
CENTER
100
AcDbLine
 10
24352.74595276952
 20
-13462.55595023341
 30
0.0
 11
24375.74595276952
 21
-13462.55595023341
 31
0.0
  0
LINE
  5
1018218
330
A
100
AcDbEntity
  8
0
  6
CENTER
100
AcDbLine
 10
24352.74595276952
 20
-13462.55595023341
 30
0.0
 11
24329.74595276952
 21
-13462.55595023341
 31
0.0
  0
LWPOLYLINE
  5
1018219
330
A
100
AcDbEntity
  8
0
  6
CENTER
100
AcDbPolyline
 90
        3
 70
     0
 43
0.0
 10
24352.74595276952
 20
-13562.55595023341
 10
24352.74595276952
 20
-13462.40792832292
 42
-0.2626273308013467
 10
24493.74595276959
 20
-13212.48193927812
  0
LWPOLYLINE
  5
101821A
330
A
100
AcDbEntity
  8
0
  6
CENTER
100
AcDbPolyline
 90
        3
 70
     0
 43
0.0
 10
24352.74595276952
 20
-12362.55595023339
 10
24352.74595276952
 20
-12462.70397214389
 42
0.2626273308013467
 10
24493.74595276959
 20
-12712.62996118869
  0
LINE
  5
101848F
330
A
100
AcDbEntity
  8
0
100
AcDbLine
 10
25453.37095276952
 20
-12362.55595023338
 30
0.0
 11
25485.12095276952
 21
-12362.55595023339
 31
0.0
  0
LINE
  5
1018490
330
A
100
AcDbEntity
  8
0
100
AcDbLine
 10
25446.24595276952
 20
-12462.55595023339
 30
0.0
 11
25492.24595276952
 21
-12462.55595023339
 31
0.0
  0
LINE
  5
1018491
330
A
100
AcDbEntity
  8
0
100
AcDbLine
 10
26117.37095276952
 20
-12362.55595023338
 30
0.0
 11
26149.12095276952
 21
-12362.55595023339
 31
0.0
  0
LINE
  5
1018492
330
A
100
AcDbEntity
  8
0
  6
CENTER
100
AcDbLine
 10
25469.24595276952
 20
-12362.55595023339
 30
0.0
 11
25469.24595276952
 21
-13562.55595023341
 31
0.0
  0
LINE
  5
1018493
330
A
100
AcDbEntity
  8
0
100
AcDbLine
 10
25453.37095276952
 20
-12362.55595023339
 30
0.0
 11
25453.37095276952
 21
-12462.55595023339
 31
0.0
  0
LINE
  5
1018494
330
A
100
AcDbEntity
  8
0
100
AcDbLine
 10
25453.37095276952
 20
-13462.55595023341
 30
0.0
 11
25453.37095276952
 21
-13562.55595023341
 31
0.0
  0
LINE
  5
1018495
330
A
100
AcDbEntity
  8
0
100
AcDbLine
 10
25485.12095276952
 20
-12362.55595023339
 30
0.0
 11
25485.12095276952
 21
-12462.55595023339
 31
0.0
  0
LINE
  5
1018496
330
A
100
AcDbEntity
  8
0
100
AcDbLine
 10
25485.12095276952
 20
-13462.55595023341
 30
0.0
 11
25485.12095276952
 21
-13562.55595023341
 31
0.0
  0
LINE
  5
1018497
330
A
100
AcDbEntity
  8
0
100
AcDbLine
 10
25446.24595276952
 20
-12462.55595023339
 30
0.0
 11
25446.24595276952
 21
-13462.55595023341
 31
0.0
  0
LINE
  5
1018498
330
A
100
AcDbEntity
  8
0
100
AcDbLine
 10
25492.24595276952
 20
-12462.55595023339
 30
0.0
 11
25492.24595276952
 21
-13462.55595023341
 31
0.0
  0
LINE
  5
1018499
330
A
100
AcDbEntity
  8
0
100
AcDbLine
 10
25453.37095276952
 20
-13562.55595023341
 30
0.0
 11
25485.12095276952
 21
-13562.55595023341
 31
0.0
  0
LINE
  5
101849A
330
A
100
AcDbEntity
  8
0
100
AcDbLine
 10
25446.24595276952
 20
-13462.55595023341
 30
0.0
 11
25492.24595276952
 21
-13462.55595023341
 31
0.0
  0
ARC
  5
101849B
330
A
100
AcDbEntity
  8
0
  6
CENTER
100
AcDbCircle
 10
26123.24595276952
 20
-12962.55595023341
 30
0.0
 40
292.0
100
AcDbArc
 50
301.1394843855439
 51
58.86051561445611
  0
ARC
  5
101849C
330
A
100
AcDbEntity
  8
0
100
AcDbCircle
 10
26123.24595276952
 20
-12962.55595023341
 30
0.0
 40
269.0
100
AcDbArc
 50
301.1394843855439
 51
58.86051561445611
  0
ARC
  5
101849D
330
A
100
AcDbEntity
  8
0
100
AcDbCircle
 10
26123.24595276952
 20
-12962.55595023341
 30
0.0
 40
315.0
100
AcDbArc
 50
301.1394843855439
 51
58.86051561445611
  0
ARC
  5
101849E
330
A
100
AcDbEntity
  8
0
100
AcDbCircle
 10
26425.24605261307
 20
-13462.40802523152
 30
0.0
 40
315.0001345765565
100
AcDbArc
 50
121.1394908142626
 51
180.0269062697402
  0
ARC
  5
101849F
330
A
100
AcDbEntity
  8
0
100
AcDbCircle
 10
26425.24606966051
 20
-13462.40804177786
 30
0.0
 40
269.000157554374
100
AcDbArc
 50
121.1394931989052
 51
180.0315038130759
  0
ARC
  5
10184A0
330
A
100
AcDbEntity
  8
0
100
AcDbCircle
 10
26425.24605261306
 20
-12462.70387523528
 30
0.0
 40
315.0001345765554
100
AcDbArc
 50
179.9730937302597
 51
238.8605091857374
  0
ARC
  5
10184A1
330
A
100
AcDbEntity
  8
0
100
AcDbCircle
 10
26425.24606966051
 20
-12462.70385868895
 30
0.0
 40
269.0001575543724
100
AcDbArc
 50
179.9684961869241
 51
238.8605068010948
  0
LINE
  5
10184A2
330
A
100
AcDbEntity
  8
0
100
AcDbLine
 10
26117.37095276952
 20
-13562.55595023341
 30
0.0
 11
26149.12095276952
 21
-13562.55595023341
 31
0.0
  0
LINE
  5
10184A3
330
A
100
AcDbEntity
  8
0
  6
CENTER
100
AcDbLine
 10
26133.24595276952
 20
-12462.55595023339
 30
0.0
 11
26156.24595276952
 21
-12462.55595023339
 31
0.0
  0
LINE
  5
10184A4
330
A
100
AcDbEntity
  8
0
  6
CENTER
100
AcDbLine
 10
26133.24595276952
 20
-12462.55595023339
 30
0.0
 11
26110.24595276952
 21
-12462.55595023339
 31
0.0
  0
LINE
  5
10184A5
330
A
100
AcDbEntity
  8
0
  6
CENTER
100
AcDbLine
 10
26133.24595276952
 20
-13462.55595023341
 30
0.0
 11
26156.24595276952
 21
-13462.55595023341
 31
0.0
  0
LINE
  5
10184A6
330
A
100
AcDbEntity
  8
0
  6
CENTER
100
AcDbLine
 10
26133.24595276952
 20
-13462.55595023341
 30
0.0
 11
26110.24595276952
 21
-13462.55595023341
 31
0.0
  0
LWPOLYLINE
  5
10184A7
330
A
100
AcDbEntity
  8
0
  6
CENTER
100
AcDbPolyline
 90
        3
 70
     0
 43
0.0
 10
26133.24595276952
 20
-13562.55595023341
 10
26133.24595276952
 20
-13462.40792832292
 42
-0.2626273308013467
 10
26274.24595276959
 20
-13212.48193927812
  0
LWPOLYLINE
  5
10184A8
330
A
100
AcDbEntity
  8
0
100
AcDbPolyline
 90
        2
 70
     0
 43
0.0
 10
26117.37095276952
 20
-13562.55595023341
 10
26117.37095276952
 20
-13462.55595023341
  0
LWPOLYLINE
  5
10184A9
330
A
100
AcDbEntity
  8
0
100
AcDbPolyline
 90
        2
 70
     0
 43
0.0
 10
26149.12095276952
 20
-13562.55595023341
 10
26149.12095276952
 20
-13462.55595023341
  0
LWPOLYLINE
  5
10184AA
330
A
100
AcDbEntity
  8
0
  6
CENTER
100
AcDbPolyline
 90
        3
 70
     0
 43
0.0
 10
26133.24595276952
 20
-12362.55595023339
 10
26133.24595276952
 20
-12462.70397214389
 42
0.2626273308013467
 10
26274.24595276959
 20
-12712.62996118869
  0
LWPOLYLINE
  5
10184AB
330
A
100
AcDbEntity
  8
0
100
AcDbPolyline
 90
        2
 70
     0
 43
0.0
 10
26117.37095276952
 20
-12362.55595023339
 10
26117.37095276952
 20
-12462.55595023339
  0
LWPOLYLINE
  5
10184AC
330
A
100
AcDbEntity
  8
0
100
AcDbPolyline
 90
        2
 70
     0
 43
0.0
 10
26149.12095276952
 20
-12362.55595023339
 10
26149.12095276952
 20
-12462.55595023339
  0
LINE
  5
1018689
330
A
100
AcDbEntity
  8
0
100
AcDbLine
 10
27232.28595276951
 20
-12362.55595023338
 30
0.0
 11
27267.2059527695
 21
-12362.55595023339
 31
0.0
  0
LINE
  5
101868A
330
A
100
AcDbEntity
  8
0
100
AcDbLine
 10
27226.7459527695
 20
-12462.55595023339
 30
0.0
 11
27272.7459527695
 21
-12462.55595023339
 31
0.0
  0
LINE
  5
101868B
330
A
100
AcDbEntity
  8
0
100
AcDbLine
 10
27896.2859527695
 20
-12362.55595023338
 30
0.0
 11
27931.2059527695
 21
-12362.55595023339
 31
0.0
  0
LINE
  5
101868C
330
A
100
AcDbEntity
  8
0
  6
CENTER
100
AcDbLine
 10
27249.7459527695
 20
-12362.55595023339
 30
0.0
 11
27249.7459527695
 21
-13562.55595023341
 31
0.0
  0
LINE
  5
101868D
330
A
100
AcDbEntity
  8
0
100
AcDbLine
 10
27232.28595276951
 20
-12362.55595023339
 30
0.0
 11
27232.28595276951
 21
-12462.55595023339
 31
0.0
  0
LINE
  5
101868E
330
A
100
AcDbEntity
  8
0
100
AcDbLine
 10
27232.28595276951
 20
-13462.55595023341
 30
0.0
 11
27232.28595276951
 21
-13562.55595023341
 31
0.0
  0
LINE
  5
101868F
330
A
100
AcDbEntity
  8
0
100
AcDbLine
 10
27267.2059527695
 20
-12362.55595023339
 30
0.0
 11
27267.2059527695
 21
-12462.55595023339
 31
0.0
  0
LINE
  5
1018690
330
A
100
AcDbEntity
  8
0
100
AcDbLine
 10
27267.2059527695
 20
-13462.55595023341
 30
0.0
 11
27267.2059527695
 21
-13562.55595023341
 31
0.0
  0
LINE
  5
1018691
330
A
100
AcDbEntity
  8
0
100
AcDbLine
 10
27226.7459527695
 20
-12462.55595023339
 30
0.0
 11
27226.7459527695
 21
-13462.55595023341
 31
0.0
  0
LINE
  5
1018692
330
A
100
AcDbEntity
  8
0
100
AcDbLine
 10
27272.7459527695
 20
-12462.55595023339
 30
0.0
 11
27272.7459527695
 21
-13462.55595023341
 31
0.0
  0
LINE
  5
1018693
330
A
100
AcDbEntity
  8
0
100
AcDbLine
 10
27232.28595276951
 20
-13562.55595023342
 30
0.0
 11
27267.2059527695
 21
-13562.55595023341
 31
0.0
  0
LINE
  5
1018694
330
A
100
AcDbEntity
  8
0
100
AcDbLine
 10
27226.7459527695
 20
-13462.55595023341
 30
0.0
 11
27272.7459527695
 21
-13462.55595023341
 31
0.0
  0
ARC
  5
1018695
330
A
100
AcDbEntity
  8
0
  6
CENTER
100
AcDbCircle
 10
27903.7459527695
 20
-12962.55595023341
 30
0.0
 40
292.0
100
AcDbArc
 50
301.1394843855439
 51
58.86051561445611
  0
ARC
  5
1018696
330
A
100
AcDbEntity
  8
0
100
AcDbCircle
 10
27903.7459527695
 20
-12962.55595023341
 30
0.0
 40
269.0
100
AcDbArc
 50
301.1394843855439
 51
58.86051561445611
  0
ARC
  5
1018697
330
A
100
AcDbEntity
  8
0
100
AcDbCircle
 10
27903.7459527695
 20
-12962.55595023341
 30
0.0
 40
315.0
100
AcDbArc
 50
301.1394843855439
 51
58.86051561445611
  0
ARC
  5
1018698
330
A
100
AcDbEntity
  8
0
100
AcDbCircle
 10
28205.74605261305
 20
-13462.40802523152
 30
0.0
 40
315.0001345765565
100
AcDbArc
 50
121.1394908142626
 51
180.0269062697402
  0
ARC
  5
1018699
330
A
100
AcDbEntity
  8
0
100
AcDbCircle
 10
28205.74606966049
 20
-13462.40804177786
 30
0.0
 40
269.000157554374
100
AcDbArc
 50
121.1394931989052
 51
180.0315038130759
  0
ARC
  5
101869A
330
A
100
AcDbEntity
  8
0
100
AcDbCircle
 10
28205.74605261304
 20
-12462.70387523528
 30
0.0
 40
315.0001345765554
100
AcDbArc
 50
179.9730937302597
 51
238.8605091857374
  0
ARC
  5
101869B
330
A
100
AcDbEntity
  8
0
100
AcDbCircle
 10
28205.74606966049
 20
-12462.70385868895
 30
0.0
 40
269.0001575543724
100
AcDbArc
 50
179.9684961869241
 51
238.8605068010948
  0
LINE
  5
101869C
330
A
100
AcDbEntity
  8
0
100
AcDbLine
 10
27896.2859527695
 20
-13562.55595023341
 30
0.0
 11
27931.2059527695
 21
-13562.55595023341
 31
0.0
  0
LINE
  5
101869D
330
A
100
AcDbEntity
  8
0
  6
CENTER
100
AcDbLine
 10
27913.7459527695
 20
-12462.55595023339
 30
0.0
 11
27936.74595276951
 21
-12462.55595023339
 31
0.0
  0
LINE
  5
101869E
330
A
100
AcDbEntity
  8
0
  6
CENTER
100
AcDbLine
 10
27913.7459527695
 20
-12462.55595023339
 30
0.0
 11
27890.7459527695
 21
-12462.55595023339
 31
0.0
  0
LINE
  5
101869F
330
A
100
AcDbEntity
  8
0
  6
CENTER
100
AcDbLine
 10
27913.7459527695
 20
-13462.55595023341
 30
0.0
 11
27936.74595276951
 21
-13462.55595023341
 31
0.0
  0
LINE
  5
10186A0
330
A
100
AcDbEntity
  8
0
  6
CENTER
100
AcDbLine
 10
27913.7459527695
 20
-13462.55595023341
 30
0.0
 11
27890.7459527695
 21
-13462.55595023341
 31
0.0
  0
LWPOLYLINE
  5
10186A1
330
A
100
AcDbEntity
  8
0
  6
CENTER
100
AcDbPolyline
 90
        3
 70
     0
 43
0.0
 10
27913.7459527695
 20
-13562.55595023341
 10
27913.7459527695
 20
-13462.40792832292
 42
-0.2626273308013467
 10
28054.74595276957
 20
-13212.48193927812
  0
LWPOLYLINE
  5
10186A2
330
A
100
AcDbEntity
  8
0
100
AcDbPolyline
 90
        2
 70
     0
 43
0.0
 10
27896.2859527695
 20
-13562.55595023341
 10
27896.2859527695
 20
-13462.55595023341
  0
LWPOLYLINE
  5
10186A3
330
A
100
AcDbEntity
  8
0
100
AcDbPolyline
 90
        2
 70
     0
 43
0.0
 10
27931.2059527695
 20
-13562.55595023341
 10
27931.2059527695
 20
-13462.55595023341
  0
LWPOLYLINE
  5
10186A4
330
A
100
AcDbEntity
  8
0
  6
CENTER
100
AcDbPolyline
 90
        3
 70
     0
 43
0.0
 10
27913.7459527695
 20
-12362.55595023339
 10
27913.7459527695
 20
-12462.70397214389
 42
0.2626273308013467
 10
28054.74595276957
 20
-12712.62996118869
  0
LWPOLYLINE
  5
10186A5
330
A
100
AcDbEntity
  8
0
100
AcDbPolyline
 90
        2
 70
     0
 43
0.0
 10
27896.2859527695
 20
-12362.55595023339
 10
27896.2859527695
 20
-12462.55595023339
  0
LWPOLYLINE
  5
10186A6
330
A
100
AcDbEntity
  8
0
100
AcDbPolyline
 90
        2
 70
     0
 43
0.0
 10
27931.2059527695
 20
-12362.55595023339
 10
27931.2059527695
 20
-12462.55595023339
  0
LINE
  5
10186A7
330
A
100
AcDbEntity
  8
0
100
AcDbLine
 10
31931.68630206168
 20
-11769.82954880231
 30
0.0
 11
31931.68630206168
 21
-13845.40120438835
 31
0.0
  0
TEXT
  5
10186A8
330
A
100
AcDbEntity
  8
C6
 48
2.0
100
AcDbText
 10
30542.8365636731
 20
-11415.58703814159
 30
0.0
 40
100.0
  1
IFE41-500R1
  7
KANJI
100
AcDbText
  0
LINE
  5
10186A9
330
A
100
AcDbEntity
  8
0
100
AcDbLine
 10
33712.18630206168
 20
-11769.82954880231
 30
0.0
 11
33712.18630206168
 21
-13845.40120438835
 31
0.0
  0
TEXT
  5
10186AA
330
A
100
AcDbEntity
  8
C6
 48
2.0
100
AcDbText
 10
32323.3365636731
 20
-11415.58703814159
 30
0.0
 40
100.0
  1
IFE44-500R1
  7
KANJI
100
AcDbText
  0
LINE
  5
10189FE
330
A
100
AcDbEntity
  8
0
100
AcDbLine
 10
29011.19595276951
 20
-12362.55595023339
 30
0.0
 11
29049.29595276951
 21
-12362.55595023339
 31
0.0
  0
LINE
  5
10189FF
330
A
100
AcDbEntity
  8
0
100
AcDbLine
 10
28999.24595276951
 20
-12462.55595023338
 30
0.0
 11
29061.24595276951
 21
-12462.55595023339
 31
0.0
  0
LINE
  5
1018A00
330
A
100
AcDbEntity
  8
0
100
AcDbLine
 10
29675.19595276951
 20
-12362.55595023338
 30
0.0
 11
29713.29595276952
 21
-12362.55595023339
 31
0.0
  0
LINE
  5
1018A01
330
A
100
AcDbEntity
  8
0
100
AcDbLine
 10
29691.07095276951
 20
-12462.55595023339
 30
0.0
 11
29697.42095276951
 21
-12462.55595023339
 31
0.0
  0
LINE
  5
1018A02
330
A
100
AcDbEntity
  8
0
  6
CENTER
100
AcDbLine
 10
29030.24595276951
 20
-12362.55595023339
 30
0.0
 11
29030.24595276951
 21
-13562.55595023341
 31
0.0
  0
LINE
  5
1018A03
330
A
100
AcDbEntity
  8
0
100
AcDbLine
 10
29049.29595276951
 20
-12362.55595023339
 30
0.0
 11
29049.29595276951
 21
-12462.55595023339
 31
0.0
  0
LINE
  5
1018A04
330
A
100
AcDbEntity
  8
0
100
AcDbLine
 10
29049.29595276951
 20
-13462.55595023341
 30
0.0
 11
29049.29595276951
 21
-13562.55595023341
 31
0.0
  0
LINE
  5
1018A05
330
A
100
AcDbEntity
  8
0
100
AcDbLine
 10
29011.19595276951
 20
-12362.55595023339
 30
0.0
 11
29011.19595276951
 21
-12462.55595023338
 31
0.0
  0
LINE
  5
1018A06
330
A
100
AcDbEntity
  8
0
100
AcDbLine
 10
29011.19595276951
 20
-13462.55595023341
 30
0.0
 11
29011.19595276951
 21
-13562.55595023341
 31
0.0
  0
LINE
  5
1018A07
330
A
100
AcDbEntity
  8
0
100
AcDbLine
 10
28999.24595276951
 20
-12462.55595023338
 30
0.0
 11
28999.24595276951
 21
-13462.55595023341
 31
0.0
  0
LINE
  5
1018A08
330
A
100
AcDbEntity
  8
0
100
AcDbLine
 10
29061.24595276951
 20
-12462.55595023339
 30
0.0
 11
29061.24595276951
 21
-13462.55595023341
 31
0.0
  0
LINE
  5
1018A09
330
A
100
AcDbEntity
  8
0
100
AcDbLine
 10
29675.19595276951
 20
-13562.55595023341
 30
0.0
 11
29675.19595276951
 21
-13462.55595023341
 31
0.0
  0
LINE
  5
1018A0A
330
A
100
AcDbEntity
  8
0
100
AcDbLine
 10
29713.29595276952
 20
-13562.55595023341
 30
0.0
 11
29713.29595276952
 21
-13462.55595023341
 31
0.0
  0
LINE
  5
1018A0B
330
A
100
AcDbEntity
  8
0
100
AcDbLine
 10
29011.19595276951
 20
-13562.55595023341
 30
0.0
 11
29049.29595276951
 21
-13562.55595023341
 31
0.0
  0
LINE
  5
1018A0C
330
A
100
AcDbEntity
  8
0
100
AcDbLine
 10
28999.24595276951
 20
-13462.55595023341
 30
0.0
 11
29061.24595276951
 21
-13462.55595023341
 31
0.0
  0
LINE
  5
1018A0D
330
A
100
AcDbEntity
  8
0
100
AcDbLine
 10
29675.19595276951
 20
-12362.55595023339
 30
0.0
 11
29675.19595276951
 21
-12462.55595023339
 31
0.0
  0
LINE
  5
1018A0E
330
A
100
AcDbEntity
  8
0
100
AcDbLine
 10
29713.29595276952
 20
-12362.55595023339
 30
0.0
 11
29713.29595276952
 21
-12462.55595023339
 31
0.0
  0
ARC
  5
1018A10
330
A
100
AcDbEntity
  8
0
  6
CENTER
100
AcDbCircle
 10
29684.24595276951
 20
-12962.55595023341
 30
0.0
 40
292.0
100
AcDbArc
 50
301.1394843855439
 51
58.86051561445611
  0
ARC
  5
1018A11
330
A
100
AcDbEntity
  8
0
100
AcDbCircle
 10
29684.24595276951
 20
-12962.55595023341
 30
0.0
 40
261.0
100
AcDbArc
 50
301.1394843855439
 51
58.86051561445611
  0
ARC
  5
1018A12
330
A
100
AcDbEntity
  8
0
100
AcDbCircle
 10
29684.24595276951
 20
-12962.55595023341
 30
0.0
 40
323.0
100
AcDbArc
 50
301.1394843855439
 51
58.86051561445611
  0
ARC
  5
1018A13
330
A
100
AcDbEntity
  8
0
100
AcDbCircle
 10
29986.2460732377
 20
-13462.4080452499
 30
0.0
 40
261.0001623759934
100
AcDbArc
 50
121.1394937470927
 51
180.0324686839597
  0
ARC
  5
1018A14
330
A
100
AcDbEntity
  8
0
100
AcDbCircle
 10
29986.2460501433
 20
-13462.40802283437
 30
0.0
 40
323.0001312476382
100
AcDbArc
 50
121.1394904998635
 51
180.0262402863081
  0
ARC
  5
1018A15
330
A
100
AcDbEntity
  8
0
100
AcDbCircle
 10
29986.24605014329
 20
-12462.70387763244
 30
0.0
 40
323.0001312476314
100
AcDbArc
 50
179.9737597136918
 51
238.8605095001364
  0
ARC
  5
1018A16
330
A
100
AcDbEntity
  8
0
100
AcDbCircle
 10
29986.24607323772
 20
-12462.70385521691
 30
0.0
 40
261.0001623760025
100
AcDbArc
 50
179.9675313160402
 51
238.8605062529073
  0
LINE
  5
1018A17
330
A
100
AcDbEntity
  8
0
100
AcDbLine
 10
29675.1959527695
 20
-13562.55595023341
 30
0.0
 11
29713.29595276952
 21
-13562.55595023341
 31
0.0
  0
LINE
  5
1018A18
330
A
100
AcDbEntity
  8
0
100
AcDbLine
 10
29691.07095276951
 20
-13462.55595023341
 30
0.0
 11
29697.42095276951
 21
-13462.55595023341
 31
0.0
  0
LINE
  5
1018A19
330
A
100
AcDbEntity
  8
0
  6
CENTER
100
AcDbLine
 10
29694.24595276951
 20
-12462.55595023339
 30
0.0
 11
29725.24595276951
 21
-12462.55595023339
 31
0.0
  0
LINE
  5
1018A1A
330
A
100
AcDbEntity
  8
0
  6
CENTER
100
AcDbLine
 10
29694.24595276951
 20
-12462.55595023339
 30
0.0
 11
29663.24595276951
 21
-12462.55595023339
 31
0.0
  0
LINE
  5
1018A1B
330
A
100
AcDbEntity
  8
0
  6
CENTER
100
AcDbLine
 10
29725.24595276951
 20
-13462.55595023341
 30
0.0
 11
29721.60920236806
 21
-13462.55595023341
 31
0.0
  0
LINE
  5
1018A1C
330
A
100
AcDbEntity
  8
0
  6
CENTER
100
AcDbLine
 10
29694.24595276951
 20
-13462.55595023341
 30
0.0
 11
29725.24595276951
 21
-13462.55595023341
 31
0.0
  0
LINE
  5
1018A1D
330
A
100
AcDbEntity
  8
0
  6
CENTER
100
AcDbLine
 10
29694.24595276951
 20
-13462.55595023341
 30
0.0
 11
29663.24595276951
 21
-13462.55595023341
 31
0.0
  0
LWPOLYLINE
  5
1018A1E
330
A
100
AcDbEntity
  8
0
  6
CENTER
100
AcDbPolyline
 90
        3
 70
     0
 43
0.0
 10
29694.24595276951
 20
-12362.55595023339
 10
29694.24595276951
 20
-12462.70397214389
 42
0.2626273308013467
 10
29835.24595276958
 20
-12712.62996118869
  0
LWPOLYLINE
  5
1018A1F
330
A
100
AcDbEntity
  8
0
  6
CENTER
100
AcDbPolyline
 90
        3
 70
     0
 43
0.0
 10
29835.24595276958
 20
-13212.48193927812
 42
0.2626273308013467
 10
29694.24595276951
 20
-13462.40792832292
 10
29694.24595276951
 20
-13562.55595023341
  0
LINE
  5
1018C98
330
A
100
AcDbEntity
  8
0
100
AcDbLine
 10
30790.10595276951
 20
-12362.55595023339
 30
0.0
 11
30831.38595276952
 21
-12362.55595023339
 31
0.0
  0
LINE
  5
1018C99
330
A
100
AcDbEntity
  8
0
100
AcDbLine
 10
30779.74595276951
 20
-12462.55595023338
 30
0.0
 11
30841.74595276951
 21
-12462.55595023339
 31
0.0
  0
LINE
  5
1018C9A
330
A
100
AcDbEntity
  8
0
100
AcDbLine
 10
31454.10595276951
 20
-12362.55595023338
 30
0.0
 11
31495.38595276951
 21
-12362.55595023339
 31
0.0
  0
LINE
  5
1018C9B
330
A
100
AcDbEntity
  8
0
100
AcDbLine
 10
31471.57095276951
 20
-12462.55595023339
 30
0.0
 11
31477.92095276952
 21
-12462.55595023339
 31
0.0
  0
LINE
  5
1018C9C
330
A
100
AcDbEntity
  8
0
  6
CENTER
100
AcDbLine
 10
30810.74595276951
 20
-12362.55595023339
 30
0.0
 11
30810.74595276951
 21
-13562.55595023341
 31
0.0
  0
LINE
  5
1018C9D
330
A
100
AcDbEntity
  8
0
100
AcDbLine
 10
30790.10595276951
 20
-12362.55595023339
 30
0.0
 11
30790.10595276951
 21
-12462.55595023338
 31
0.0
  0
LINE
  5
1018C9E
330
A
100
AcDbEntity
  8
0
100
AcDbLine
 10
30790.10595276951
 20
-13462.55595023341
 30
0.0
 11
30790.10595276951
 21
-13562.55595023341
 31
0.0
  0
LINE
  5
1018C9F
330
A
100
AcDbEntity
  8
0
100
AcDbLine
 10
30831.38595276952
 20
-12362.55595023339
 30
0.0
 11
30831.38595276952
 21
-12462.55595023339
 31
0.0
  0
LINE
  5
1018CA0
330
A
100
AcDbEntity
  8
0
100
AcDbLine
 10
30831.38595276952
 20
-13462.55595023341
 30
0.0
 11
30831.38595276952
 21
-13562.55595023341
 31
0.0
  0
LINE
  5
1018CA1
330
A
100
AcDbEntity
  8
0
100
AcDbLine
 10
30779.74595276951
 20
-12462.55595023338
 30
0.0
 11
30779.74595276951
 21
-13462.55595023341
 31
0.0
  0
LINE
  5
1018CA2
330
A
100
AcDbEntity
  8
0
100
AcDbLine
 10
30841.74595276951
 20
-12462.55595023339
 30
0.0
 11
30841.74595276951
 21
-13462.55595023341
 31
0.0
  0
LINE
  5
1018CA3
330
A
100
AcDbEntity
  8
0
100
AcDbLine
 10
30790.10595276951
 20
-13562.55595023341
 30
0.0
 11
30831.38595276952
 21
-13562.55595023341
 31
0.0
  0
LINE
  5
1018CA4
330
A
100
AcDbEntity
  8
0
100
AcDbLine
 10
30779.74595276951
 20
-13462.55595023341
 30
0.0
 11
30841.74595276951
 21
-13462.55595023341
 31
0.0
  0
ARC
  5
1018CA5
330
A
100
AcDbEntity
  8
0
  6
CENTER
100
AcDbCircle
 10
31464.74595276951
 20
-12962.55595023341
 30
0.0
 40
292.0
100
AcDbArc
 50
301.1394843855439
 51
58.86051561445611
  0
ARC
  5
1018CA6
330
A
100
AcDbEntity
  8
0
100
AcDbCircle
 10
31464.74595276951
 20
-12962.55595023341
 30
0.0
 40
261.0
100
AcDbArc
 50
301.1394843855439
 51
58.86051561445611
  0
ARC
  5
1018CA7
330
A
100
AcDbEntity
  8
0
100
AcDbCircle
 10
31464.74595276951
 20
-12962.55595023341
 30
0.0
 40
323.0
100
AcDbArc
 50
301.1394843855439
 51
58.86051561445611
  0
ARC
  5
1018CA8
330
A
100
AcDbEntity
  8
0
100
AcDbCircle
 10
31766.7460732377
 20
-13462.4080452499
 30
0.0
 40
261.0001623759934
100
AcDbArc
 50
121.1394937470927
 51
180.0324686839597
  0
ARC
  5
1018CA9
330
A
100
AcDbEntity
  8
0
100
AcDbCircle
 10
31766.7460501433
 20
-13462.40802283437
 30
0.0
 40
323.0001312476382
100
AcDbArc
 50
121.1394904998635
 51
180.0262402863081
  0
ARC
  5
1018CAA
330
A
100
AcDbEntity
  8
0
100
AcDbCircle
 10
31766.74605014329
 20
-12462.70387763244
 30
0.0
 40
323.0001312476314
100
AcDbArc
 50
179.9737597136918
 51
238.8605095001364
  0
ARC
  5
1018CAB
330
A
100
AcDbEntity
  8
0
100
AcDbCircle
 10
31766.74607323771
 20
-12462.70385521691
 30
0.0
 40
261.0001623760025
100
AcDbArc
 50
179.9675313160402
 51
238.8605062529073
  0
LINE
  5
1018CAC
330
A
100
AcDbEntity
  8
0
100
AcDbLine
 10
31454.10595276951
 20
-13562.55595023341
 30
0.0
 11
31495.38595276951
 21
-13562.55595023341
 31
0.0
  0
LINE
  5
1018CAD
330
A
100
AcDbEntity
  8
0
100
AcDbLine
 10
31471.57095276951
 20
-13462.55595023341
 30
0.0
 11
31477.92095276952
 21
-13462.55595023341
 31
0.0
  0
LINE
  5
1018CAE
330
A
100
AcDbEntity
  8
0
  6
CENTER
100
AcDbLine
 10
31474.74595276951
 20
-12462.55595023339
 30
0.0
 11
31505.74595276951
 21
-12462.55595023339
 31
0.0
  0
LINE
  5
1018CAF
330
A
100
AcDbEntity
  8
0
  6
CENTER
100
AcDbLine
 10
31474.74595276951
 20
-12462.55595023339
 30
0.0
 11
31443.74595276951
 21
-12462.55595023339
 31
0.0
  0
LINE
  5
1018CB0
330
A
100
AcDbEntity
  8
0
  6
CENTER
100
AcDbLine
 10
31505.74595276951
 20
-13462.55595023341
 30
0.0
 11
31502.10920236806
 21
-13462.55595023341
 31
0.0
  0
LINE
  5
1018CB1
330
A
100
AcDbEntity
  8
0
  6
CENTER
100
AcDbLine
 10
31474.74595276951
 20
-13462.55595023341
 30
0.0
 11
31505.74595276951
 21
-13462.55595023341
 31
0.0
  0
LINE
  5
1018CB2
330
A
100
AcDbEntity
  8
0
  6
CENTER
100
AcDbLine
 10
31474.74595276951
 20
-13462.55595023341
 30
0.0
 11
31443.74595276951
 21
-13462.55595023341
 31
0.0
  0
LWPOLYLINE
  5
1018CB3
330
A
100
AcDbEntity
  8
0
  6
CENTER
100
AcDbPolyline
 90
        3
 70
     0
 43
0.0
 10
31474.74595276951
 20
-12362.55595023339
 10
31474.74595276951
 20
-12462.70397214389
 42
0.2626273308013467
 10
31615.74595276958
 20
-12712.62996118869
  0
LWPOLYLINE
  5
1018CB4
330
A
100
AcDbEntity
  8
0
100
AcDbPolyline
 90
        2
 70
     0
 43
0.0
 10
31454.10595276951
 20
-12362.55595023339
 10
31454.10595276951
 20
-12462.70397214389
  0
LWPOLYLINE
  5
1018CB5
330
A
100
AcDbEntity
  8
0
100
AcDbPolyline
 90
        2
 70
     0
 43
0.0
 10
31495.38595276951
 20
-12362.55595023339
 10
31495.38595276951
 20
-12462.70397214389
  0
LWPOLYLINE
  5
1018CB6
330
A
100
AcDbEntity
  8
0
  6
CENTER
100
AcDbPolyline
 90
        3
 70
     0
 43
0.0
 10
31615.74595276958
 20
-13212.48193927812
 42
0.2626273308013467
 10
31474.74595276951
 20
-13462.40792832292
 10
31474.74595276951
 20
-13562.55595023341
  0
LWPOLYLINE
  5
1018CB7
330
A
100
AcDbEntity
  8
0
100
AcDbPolyline
 90
        2
 70
     0
 43
0.0
 10
31454.10595276951
 20
-13462.40792832292
 10
31454.10595276951
 20
-13562.55595023341
  0
LWPOLYLINE
  5
1018CB8
330
A
100
AcDbEntity
  8
0
100
AcDbPolyline
 90
        2
 70
     0
 43
0.0
 10
31495.38595276951
 20
-13462.40792832292
 10
31495.38595276951
 20
-13562.55595023341
  0
LINE
  5
1018E37
330
A
100
AcDbEntity
  8
0
100
AcDbLine
 10
32569.02095276951
 20
-12362.55595023339
 30
0.0
 11
32613.47095276951
 21
-12362.55595023339
 31
0.0
  0
LINE
  5
1018E38
330
A
100
AcDbEntity
  8
0
100
AcDbLine
 10
32560.24595276951
 20
-12462.55595023338
 30
0.0
 11
32622.24595276951
 21
-12462.55595023339
 31
0.0
  0
LINE
  5
1018E39
330
A
100
AcDbEntity
  8
0
100
AcDbLine
 10
33233.02095276951
 20
-12362.55595023338
 30
0.0
 11
33277.47095276951
 21
-12362.55595023339
 31
0.0
  0
LINE
  5
1018E3A
330
A
100
AcDbEntity
  8
0
100
AcDbLine
 10
33252.07095276951
 20
-12462.55595023339
 30
0.0
 11
33258.4209527695
 21
-12462.55595023339
 31
0.0
  0
LINE
  5
1018E3B
330
A
100
AcDbEntity
  8
0
  6
CENTER
100
AcDbLine
 10
32591.24595276951
 20
-12362.55595023339
 30
0.0
 11
32591.24595276951
 21
-13562.55595023341
 31
0.0
  0
LINE
  5
1018E3C
330
A
100
AcDbEntity
  8
0
100
AcDbLine
 10
32569.02095276951
 20
-12362.55595023339
 30
0.0
 11
32569.02095276951
 21
-12462.55595023338
 31
0.0
  0
LINE
  5
1018E3D
330
A
100
AcDbEntity
  8
0
100
AcDbLine
 10
32569.02095276951
 20
-13462.55595023341
 30
0.0
 11
32569.02095276951
 21
-13562.55595023341
 31
0.0
  0
LINE
  5
1018E3E
330
A
100
AcDbEntity
  8
0
100
AcDbLine
 10
32613.47095276951
 20
-12362.55595023339
 30
0.0
 11
32613.47095276951
 21
-12462.55595023339
 31
0.0
  0
LINE
  5
1018E3F
330
A
100
AcDbEntity
  8
0
100
AcDbLine
 10
32613.47095276951
 20
-13462.55595023341
 30
0.0
 11
32613.47095276951
 21
-13562.55595023341
 31
0.0
  0
LINE
  5
1018E40
330
A
100
AcDbEntity
  8
0
100
AcDbLine
 10
32560.24595276951
 20
-12462.55595023338
 30
0.0
 11
32560.24595276951
 21
-13462.55595023341
 31
0.0
  0
LINE
  5
1018E41
330
A
100
AcDbEntity
  8
0
100
AcDbLine
 10
32622.24595276951
 20
-12462.55595023339
 30
0.0
 11
32622.24595276951
 21
-13462.55595023341
 31
0.0
  0
LINE
  5
1018E42
330
A
100
AcDbEntity
  8
0
100
AcDbLine
 10
32569.02095276951
 20
-13562.55595023342
 30
0.0
 11
32613.47095276951
 21
-13562.55595023341
 31
0.0
  0
LINE
  5
1018E43
330
A
100
AcDbEntity
  8
0
100
AcDbLine
 10
32560.24595276951
 20
-13462.55595023341
 30
0.0
 11
32622.24595276951
 21
-13462.55595023341
 31
0.0
  0
ARC
  5
1018E44
330
A
100
AcDbEntity
  8
0
  6
CENTER
100
AcDbCircle
 10
33245.24595276951
 20
-12962.55595023341
 30
0.0
 40
292.0
100
AcDbArc
 50
301.1394843855439
 51
58.86051561445611
  0
ARC
  5
1018E45
330
A
100
AcDbEntity
  8
0
100
AcDbCircle
 10
33245.24595276951
 20
-12962.55595023341
 30
0.0
 40
261.0
100
AcDbArc
 50
301.1394843855439
 51
58.86051561445611
  0
ARC
  5
1018E46
330
A
100
AcDbEntity
  8
0
100
AcDbCircle
 10
33245.24595276951
 20
-12962.55595023341
 30
0.0
 40
323.0
100
AcDbArc
 50
301.1394843855439
 51
58.86051561445611
  0
ARC
  5
1018E47
330
A
100
AcDbEntity
  8
0
100
AcDbCircle
 10
33547.2460732377
 20
-13462.4080452499
 30
0.0
 40
261.0001623759934
100
AcDbArc
 50
121.1394937470927
 51
180.0324686839597
  0
ARC
  5
1018E48
330
A
100
AcDbEntity
  8
0
100
AcDbCircle
 10
33547.2460501433
 20
-13462.40802283437
 30
0.0
 40
323.0001312476382
100
AcDbArc
 50
121.1394904998635
 51
180.0262402863081
  0
ARC
  5
1018E49
330
A
100
AcDbEntity
  8
0
100
AcDbCircle
 10
33547.2460501433
 20
-12462.70387763244
 30
0.0
 40
323.0001312476314
100
AcDbArc
 50
179.9737597136918
 51
238.8605095001364
  0
ARC
  5
1018E4A
330
A
100
AcDbEntity
  8
0
100
AcDbCircle
 10
33547.24607323772
 20
-12462.70385521691
 30
0.0
 40
261.0001623760025
100
AcDbArc
 50
179.9675313160402
 51
238.8605062529073
  0
LINE
  5
1018E4B
330
A
100
AcDbEntity
  8
0
100
AcDbLine
 10
33233.02095276951
 20
-13562.55595023341
 30
0.0
 11
33277.47095276951
 21
-13562.55595023341
 31
0.0
  0
LINE
  5
1018E4C
330
A
100
AcDbEntity
  8
0
100
AcDbLine
 10
33252.07095276951
 20
-13462.55595023341
 30
0.0
 11
33258.4209527695
 21
-13462.55595023341
 31
0.0
  0
LINE
  5
1018E4D
330
A
100
AcDbEntity
  8
0
  6
CENTER
100
AcDbLine
 10
33255.24595276951
 20
-12462.55595023339
 30
0.0
 11
33286.24595276951
 21
-12462.55595023339
 31
0.0
  0
LINE
  5
1018E4E
330
A
100
AcDbEntity
  8
0
  6
CENTER
100
AcDbLine
 10
33255.24595276951
 20
-12462.55595023339
 30
0.0
 11
33224.24595276951
 21
-12462.55595023339
 31
0.0
  0
LINE
  5
1018E4F
330
A
100
AcDbEntity
  8
0
  6
CENTER
100
AcDbLine
 10
33286.24595276951
 20
-13462.55595023341
 30
0.0
 11
33282.60920236806
 21
-13462.55595023341
 31
0.0
  0
LINE
  5
1018E50
330
A
100
AcDbEntity
  8
0
  6
CENTER
100
AcDbLine
 10
33255.24595276951
 20
-13462.55595023341
 30
0.0
 11
33286.24595276951
 21
-13462.55595023341
 31
0.0
  0
LINE
  5
1018E51
330
A
100
AcDbEntity
  8
0
  6
CENTER
100
AcDbLine
 10
33255.24595276951
 20
-13462.55595023341
 30
0.0
 11
33224.24595276951
 21
-13462.55595023341
 31
0.0
  0
LWPOLYLINE
  5
1018E52
330
A
100
AcDbEntity
  8
0
  6
CENTER
100
AcDbPolyline
 90
        3
 70
     0
 43
0.0
 10
33255.24595276951
 20
-12362.55595023339
 10
33255.24595276951
 20
-12462.70397214389
 42
0.2626273308013467
 10
33396.24595276958
 20
-12712.62996118869
  0
LWPOLYLINE
  5
1018E53
330
A
100
AcDbEntity
  8
0
100
AcDbPolyline
 90
        2
 70
     0
 43
0.0
 10
33233.02095276951
 20
-12362.55595023339
 10
33233.02095276951
 20
-12462.55595023339
  0
LWPOLYLINE
  5
1018E54
330
A
100
AcDbEntity
  8
0
100
AcDbPolyline
 90
        2
 70
     0
 43
0.0
 10
33277.47095276951
 20
-12362.55595023339
 10
33277.47095276951
 20
-12462.55595023339
  0
LWPOLYLINE
  5
1018E55
330
A
100
AcDbEntity
  8
0
  6
CENTER
100
AcDbPolyline
 90
        3
 70
     0
 43
0.0
 10
33396.24595276958
 20
-13212.48193927812
 42
0.2626273308013467
 10
33255.24595276951
 20
-13462.40792832292
 10
33255.24595276951
 20
-13562.55595023341
  0
LWPOLYLINE
  5
1018E56
330
A
100
AcDbEntity
  8
0
100
AcDbPolyline
 90
        2
 70
     0
 43
0.0
 10
33233.02095276951
 20
-13462.55595023341
 10
33233.02095276951
 20
-13562.55595023341
  0
LWPOLYLINE
  5
1018E57
330
A
100
AcDbEntity
  8
0
100
AcDbPolyline
 90
        2
 70
     0
 43
0.0
 10
33277.47095276951
 20
-13462.55595023341
 10
33277.47095276951
 20
-13562.55595023341
  0
ENDSEC
  0
SECTION
  2
OBJECTS
  0
DICTIONARY
  5
19
330
0
100
AcDbDictionary
281
     1
  3
ACAD_CIP_PREVIOUS_PRODUCT_INFO
350
1017159
  3
ACAD_COLOR
350
2F42
  3
ACAD_DETAILVIEWSTYLE
350
1017154
  3
ACAD_GROUP
350
1A
  3
ACAD_LAYOUT
350
4EC
  3
ACAD_MATERIAL
350
2F41
  3
ACAD_MLEADERSTYLE
350
16D5A
  3
ACAD_MLINESTYLE
350
1B
  3
ACAD_PLOTSETTINGS
350
4ED
  3
ACAD_PLOTSTYLENAME
350
4EA
  3
ACAD_SCALELIST
350
16D48
  3
ACAD_SECTIONVIEWSTYLE
350
1017152
  3
ACAD_TABLESTYLE
350
2F43
  3
ACAD_VISUALSTYLE
350
16D2F
  3
ACDB_RECOMPOSE_DATA
350
1018F64
  3
AcDbVariableDictionary
350
334C
  3
AcDsDecomposeData
350
1018F6A
  0
DICTIONARY
  5
16DF9
330
2
100
AcDbDictionary
280
     1
281
     1
  3
ACAD_LAYERSTATES
360
16DFA
  0
DICTIONARY
  5
16D62
330
14
100
AcDbDictionary
280
     1
281
     1
  3
ADSK_XREC_LAYER_RECONCILED
360
16D63
  0
DICTIONARY
  5
16D6C
330
3568
100
AcDbDictionary
280
     1
281
     1
  3
ADSK_XREC_LAYER_RECONCILED
360
16D6D
  0
DICTIONARY
  5
5293
330
A
100
AcDbDictionary
280
     1
281
     1
  3
ACAD_SORTENTS
360
5294
  0
XRECORD
  5
1017159
102
{ACAD_REACTORS
330
19
102
}
330
19
100
AcDbXrecord
280
     1
300
ACDLT
300
2017
300
ACDLT_F_S
  0
DICTIONARY
  5
2F42
102
{ACAD_REACTORS
330
19
102
}
330
19
100
AcDbDictionary
281
     1
  0
DICTIONARY
  5
1017154
102
{ACAD_REACTORS
330
19
102
}
330
19
100
AcDbDictionary
281
     1
  3
Metric50
350
1017155
  0
DICTIONARY
  5
1A
102
{ACAD_REACTORS
330
19
102
}
330
19
100
AcDbDictionary
281
     1
  0
DICTIONARY
  5
4EC
102
{ACAD_REACTORS
330
19
102
}
330
19
100
AcDbDictionary
281
     1
  3
Model
350
4EE
  3
ﾚｲｱｳﾄ1
350
4EF
  0
DICTIONARY
  5
2F41
102
{ACAD_REACTORS
330
19
102
}
330
19
100
AcDbDictionary
281
     1
  3
ByBlock
350
16D1F
  3
ByLayer
350
16D17
  3
Global
350
16D27
  0
DICTIONARY
  5
16D5A
102
{ACAD_REACTORS
330
19
102
}
330
19
100
AcDbDictionary
281
     1
  3
Standard
350
16D5B
  0
DICTIONARY
  5
1B
102
{ACAD_REACTORS
330
19
102
}
330
19
100
AcDbDictionary
281
     1
  3
STANDARD
350
1C
  0
DICTIONARY
  5
4ED
102
{ACAD_REACTORS
330
19
102
}
330
19
100
AcDbDictionary
281
     1
  0
ACDBDICTIONARYWDFLT
  5
4EA
102
{ACAD_REACTORS
330
19
102
}
330
19
100
AcDbDictionary
281
     1
  3
Normal
350
4EB
100
AcDbDictionaryWithDefault
340
4EB
  0
DICTIONARY
  5
16D48
102
{ACAD_REACTORS
330
19
102
}
330
19
100
AcDbDictionary
281
     1
  3
A0
350
16D49
  3
A1
350
16D4A
  3
A2
350
16D4B
  3
A3
350
16D4C
  3
A4
350
16D4D
  3
A5
350
16D4E
  3
A6
350
16D4F
  3
A7
350
16D50
  3
A8
350
16D51
  3
A9
350
16D52
  3
B0
350
16D53
  3
B1
350
16D54
  3
B2
350
16D55
  3
B3
350
16D56
  3
B4
350
16D57
  3
B5
350
16D58
  3
B6
350
16D59
  0
DICTIONARY
  5
1017152
102
{ACAD_REACTORS
330
19
102
}
330
19
100
AcDbDictionary
281
     1
  3
Metric50
350
1017153
  0
DICTIONARY
  5
2F43
102
{ACAD_REACTORS
330
19
102
}
330
19
100
AcDbDictionary
281
     1
  3
Standard
350
2F44
  0
DICTIONARY
  5
16D2F
102
{ACAD_REACTORS
330
19
102
}
330
19
100
AcDbDictionary
281
     1
  3
2dWireframe
350
16D35
  3
Basic
350
16D34
  3
Brighten
350
16D3B
  3
ColorChange
350
16D3F
  3
Conceptual
350
16D38
  3
Dim
350
16D3A
  3
EdgeColorOff
350
16D47
  3
Facepattern
350
16D3E
  3
Flat
350
16D30
  3
FlatWithEdges
350
16D31
  3
Gouraud
350
16D32
  3
GouraudWithEdges
350
16D33
  3
Hidden
350
16D37
  3
JitterOff
350
16D45
  3
Linepattern
350
16D3D
  3
OverhangOff
350
16D46
  3
Realistic
350
16D39
  3
Shaded
350
16D44
  3
Shaded with edges
350
16D43
  3
Shades of Gray
350
16D40
  3
Sketchy
350
16D41
  3
Thicken
350
16D3C
  3
Wireframe
350
16D36
  3
X-Ray
350
16D42
  0
XRECORD
  5
1018F64
102
{ACAD_REACTORS
330
19
102
}
330
19
100
AcDbXrecord
280
     1
 90
        1
330
2F44
  0
DICTIONARY
  5
334C
102
{ACAD_REACTORS
330
19
102
}
330
19
100
AcDbDictionary
281
     1
  3
CANNOSCALE
350
17103
  3
CMLEADERSTYLE
350
17102
  3
CTABLESTYLE
350
334D
  3
CVIEWDETAILSTYLE
350
1017323
  3
CVIEWSECTIONSTYLE
350
1017324
  3
DIMASSOC
350
334E
  3
INDEXCTL
350
17105
  3
LAYEREVAL
350
1017327
  3
LAYERNOTIFY
350
1017328
  3
LIGHTINGUNITS
350
1017326
  3
MSLTSCALE
350
1017325
  3
PROJECTNAME
350
334F
  3
SORTENTS
350
17104
  0
DICTIONARY
  5
1018F6A
102
{ACAD_REACTORS
330
19
102
}
330
19
100
AcDbDictionary
281
     1
  3
AcDsRecords
350
1018F6C
  3
AcDsSchemas
350
1018F6B
1001
ACAD
1070
     2
  0
DICTIONARY
  5
16DFA
102
{ACAD_REACTORS
330
16DF9
102
}
330
16DF9
100
AcDbDictionary
281
     1
  0
XRECORD
  5
16D63
102
{ACAD_REACTORS
330
16D62
102
}
330
16D62
100
AcDbXrecord
280
     1
290
     1
  0
XRECORD
  5
16D6D
102
{ACAD_REACTORS
330
16D6C
102
}
330
16D6C
100
AcDbXrecord
280
     1
290
     1
  0
SORTENTSTABLE
  5
5294
102
{ACAD_REACTORS
330
5293
102
}
330
5293
100
AcDbSortentsTable
330
A
331
1018A18
  5
1018C99
331
1018691
  5
1018691
331
1018A1C
  5
1018C9D
331
1018695
  5
1018695
331
1018C98
  5
1018CA1
331
1018699
  5
1018699
331
101869D
  5
101869D
331
1018C9C
  5
1018CA5
331
1017831
  5
10179D0
331
1017835
  5
10179D4
331
10175BE
  5
10175CE
331
10175C2
  5
10175D2
331
10175C6
  5
10175D6
331
1017FD8
  5
1017FD8
331
1017FDC
  5
1017FDC
331
1018493
  5
101849B
331
1018497
  5
101849F
331
1017FE0
  5
1017FE0
331
1017AB3
  5
1017BAA
331
1017D46
  5
1017D57
331
1017AB7
  5
1017BAE
331
1017ABF
  5
1017BB6
331
1018CA0
  5
1018CA9
331
10186A1
  5
10186A1
331
1018CA4
  5
1018CAD
331
10186A5
  5
10186A5
331
10186A9
  5
10186A9
331
10175CA
  5
10175DA
331
10175CE
  5
101781C
331
10175D2
  5
1017820
331
10175D6
  5
1017824
331
1017D49
  5
1017D5A
331
1017D4D
  5
1017D5E
331
1018200
  5
1018210
331
1017D51
  5
1017D61
331
1018204
  5
1018214
331
1017D55
  5
1017DAA
331
1017AC3
  5
1017BBA
331
10179C8
  5
10179D9
331
1017AC7
  5
1017BBE
331
10179CC
  5
10179DD
331
101849A
  5
10184A2
331
101849E
  5
10184A6
331
10184A2
  5
10184AA
331
1018A01
  5
1018A13
331
10184A6
  5
1018538
331
1018A05
  5
1018A17
331
1018CAA
  5
1018CB3
331
1018CAE
  5
1018CB7
331
1018CB2
  5
1018D00
331
1018CB6
  5
1018D49
331
101730B
  5
101730B
331
10175DA
  5
1017828
331
101730F
  5
101730F
331
101781A
  5
101782B
331
1017313
  5
1017313
331
101781E
  5
101782F
331
1017317
  5
1017317
331
1017D59
  5
1017DAE
331
1018208
  5
1018218
331
101820C
  5
10182A6
331
1017D5D
  5
1017DB2
331
1018210
  5
10182AA
331
1017D61
  5
1017DB6
331
1018214
  5
1018490
331
10179D0
  5
10179E1
331
1017BAB
  5
1017BC4
331
10179D4
  5
10179E5
331
10179D8
  5
1017A2D
331
1017BAF
  5
1017C52
331
1017BB3
  5
1017C56
331
10179DC
  5
1017A41
331
1017BB7
  5
1017C59
331
1018A09
  5
1018A1B
331
10184AA
  5
101853C
331
1018A0D
  5
1018A1F
331
1018A11
  5
1018B7B
331
101868A
  5
101868A
331
101868E
  5
101868E
331
1018A15
  5
1018B84
331
101731B
  5
101731B
331
1017822
  5
1017833
331
1017826
  5
1017837
331
101731F
  5
101731F
331
101782A
  5
10179C9
331
101782E
  5
10179CD
331
1017FC9
  5
1017FC9
331
1018218
  5
1018494
331
1017FCD
  5
1017FCD
331
1017FD1
  5
1017FD1
331
1017FD5
  5
1017FD5
331
10179E0
  5
1017A47
331
1017BBB
  5
1017D46
331
10179E4
  5
1017A7C
331
1017BBF
  5
1017D4A
331
1017AAC
  5
1017ACF
331
1017BC3
  5
1017D4E
331
1017BC7
  5
1017D53
331
1018A19
  5
1018C9A
331
1018692
  5
1018692
331
1018A1D
  5
1018C9E
331
1018696
  5
1018696
331
1018C99
  5
1018CA2
331
101869A
  5
101869A
331
101869E
  5
101869E
331
1018C9D
  5
1018CA6
331
10175BB
  5
10175CB
331
1017832
  5
10179D1
331
1017836
  5
10179D5
331
10175BF
  5
10175CF
331
10175C3
  5
10175D3
331
10175C7
  5
10175D7
331
1017FD9
  5
1017FD9
331
1018490
  5
1018498
331
1018494
  5
101849C
331
1017FDD
  5
1017FDD
331
1017FE1
  5
1017FE1
331
1017AB0
  5
1017AD8
331
1017D43
  5
1017D54
331
1017AB4
  5
1017BAB
331
1017D47
  5
1017D58
331
1017AB8
  5
1017BAF
331
1017ABC
  5
1017BB2
331
1018CA1
  5
1018CAA
331
10186A2
  5
10186A2
331
1018CA5
  5
1018CAE
331
10186A6
  5
10186A6
331
10186AA
  5
10186AA
331
10175CB
  5
1017819
331
10175CF
  5
101781D
331
10175D3
  5
1017821
331
10175D7
  5
1017825
331
1017D4A
  5
1017D5B
331
10181FD
  5
101820D
331
1017D4E
  5
1017D5F
331
1018201
  5
1018211
331
1017D52
  5
1017D62
331
1017D56
  5
1017DAB
331
1018205
  5
1018215
331
1017AC0
  5
1017BB7
331
1017AC4
  5
1017BBB
331
10179C9
  5
10179DA
331
1017AC8
  5
1017BBF
331
10179CD
  5
10179DE
331
101849B
  5
10184A3
331
10189FE
  5
1018A10
331
101849F
  5
10184A7
331
10184A3
  5
10184AB
331
1018A02
  5
1018A14
331
1018A06
  5
1018A18
331
10184A7
  5
1018539
331
1018CAB
  5
1018CB4
331
1018CAF
  5
1018CB8
331
1018CB3
  5
1018D01
331
1018CB7
  5
1018D4A
331
101730C
  5
101730C
331
1017310
  5
1017310
331
101781B
  5
101782C
331
1017314
  5
1017314
331
101781F
  5
1017830
331
1017D5A
  5
1017DAF
331
1018209
  5
1018219
331
101820D
  5
10182A7
331
1017D5E
  5
1017DB3
331
1018211
  5
10182AB
331
1017D62
  5
1017DB7
331
1018215
  5
1018491
331
1017BA8
  5
1017BC1
331
10179D1
  5
10179E2
331
1017BAC
  5
1017BC5
331
10179D5
  5
1017A2B
331
10179D9
  5
1017A2E
331
1017BB0
  5
1017C53
331
1017BB4
  5
1017C57
331
10179DD
  5
1017A43
331
1018A0A
  5
1018A1C
331
10184AB
  5
101853D
331
1018A0E
  5
1018B79
331
101868B
  5
101868B
331
1018A12
  5
1018B7C
331
101868F
  5
101868F
331
1018A16
  5
1018B85
331
1017318
  5
1017318
331
101731C
  5
101731C
331
1017823
  5
1017834
331
1017827
  5
10179C7
331
1017320
  5
1017320
331
101782B
  5
10179CA
331
101782F
  5
10179CE
331
1017FCA
  5
1017FCA
331
1018219
  5
1018495
331
1017FCE
  5
1017FCE
331
1017FD2
  5
1017FD2
331
1017FD6
  5
1017FD6
331
1017BB8
  5
1017D43
331
10179E1
  5
1017A48
331
1017BBC
  5
1017D47
331
10179E5
  5
1017A7E
331
1017BC0
  5
1017D4B
331
1017BC4
  5
1017D4F
331
1017AAD
  5
1017AD0
331
1018A1A
  5
1018C9B
331
1018693
  5
1018693
331
1018A1E
  5
1018C9F
331
1018697
  5
1018697
331
1018C9A
  5
1018CA3
331
101869B
  5
101869B
331
101869F
  5
101869F
331
1018C9E
  5
1018CA7
331
10175BC
  5
10175CC
331
1017833
  5
10179D2
331
1017837
  5
10179D6
331
10175C0
  5
10175D0
331
10175C4
  5
10175D4
331
1017FDA
  5
1017FDA
331
1018491
  5
1018499
331
1018495
  5
101849D
331
1017FDE
  5
1017FDE
331
1017FE2
  5
1017FE2
331
1017AB1
  5
1017BA8
331
1017D44
  5
1017D55
331
1017AB5
  5
1017BAC
331
1017AB9
  5
1017BB0
331
1017ABD
  5
1017BB3
331
1018CA2
  5
1018CAB
331
10186A3
  5
10186A3
331
1018CA6
  5
1018CAF
331
10186A7
  5
10186A7
331
10175C8
  5
10175D8
331
10175CC
  5
101781A
331
10175D0
  5
101781E
331
10175D4
  5
1017822
331
1017D4B
  5
1017D5C
331
10181FE
  5
101820E
331
1017D4F
  5
1017D60
331
1018202
  5
1018212
331
1017D53
  5
1017DA8
331
1017D57
  5
1017DAC
331
1018206
  5
1018216
331
1017AC1
  5
1017BB8
331
1017AC5
  5
1017BBC
331
10179CA
  5
10179DB
331
1017AC9
  5
1017BC0
331
10179CE
  5
10179DF
331
1018498
  5
10184A0
331
101849C
  5
10184A4
331
10189FF
  5
1018A11
331
10184A0
  5
10184A8
331
10184A4
  5
10184AC
331
1018A03
  5
1018A15
331
1018A07
  5
1018A19
331
1018CA8
  5
1018CB1
331
1018CAC
  5
1018CB5
331
1018CB0
  5
1018CFE
331
1018CB4
  5
1018D02
331
10175D8
  5
1017826
331
101730D
  5
101730D
331
1017311
  5
1017311
331
101781C
  5
101782D
331
1017315
  5
1017315
331
101820A
  5
101821A
331
1017D5B
  5
1017DB0
331
101820E
  5
10182A8
331
1017D5F
  5
1017DB4
331
1018212
  5
10182AC
331
1018216
  5
1018492
331
1017BA9
  5
1017BC2
331
10179D2
  5
10179E3
331
1017BAD
  5
1017BC6
331
10179D6
  5
1017A2C
331
10179DA
  5
1017A2F
331
1017BB1
  5
1017C54
331
10179DE
  5
1017A44
331
10184A8
  5
101853A
331
1018A0B
  5
1018A1D
331
10184AC
  5
101853E
331
101868C
  5
101868C
331
1018A13
  5
1018B7D
331
1018A17
  5
1018C98
331
1018CB8
  5
1018D4B
331
1017319
  5
1017319
331
1017820
  5
1017831
331
1017824
  5
1017835
331
101731D
  5
101731D
331
1017828
  5
10179C8
331
1017321
  5
1017321
331
101782C
  5
10179CB
331
1017FCB
  5
1017FCB
331
101821A
  5
1018496
331
1017FCF
  5
1017FCF
331
1017FD3
  5
1017FD3
331
1017FD7
  5
1017FD7
331
1017BB9
  5
1017D44
331
10179E2
  5
1017A4A
331
1017BBD
  5
1017D48
331
1017AAA
  5
1017ACD
331
1017BC1
  5
1017D4C
331
1017BC5
  5
1017D51
331
1017AAE
  5
1017AD1
331
1018690
  5
1018690
331
1018A1B
  5
1018C9C
331
1018694
  5
1018694
331
1018A1F
  5
1018CA0
331
1018698
  5
1018698
331
101869C
  5
101869C
331
1018C9B
  5
1018CA4
331
1018C9F
  5
1018CA8
331
1017830
  5
10179CF
331
10175BD
  5
10175CD
331
1017834
  5
10179D3
331
10175C1
  5
10175D1
331
10175C5
  5
10175D5
331
1017FDB
  5
1017FDB
331
1018492
  5
101849A
331
1018496
  5
101849E
331
1017FDF
  5
1017FDF
331
1017FE3
  5
1017FE3
331
1017AB2
  5
1017BA9
331
1017D45
  5
1017D56
331
1017AB6
  5
1017BAD
331
1017ABA
  5
1017BB1
331
1017ABE
  5
1017BB4
331
10186A0
  5
10186A0
331
1018CA3
  5
1018CAC
331
10186A4
  5
10186A4
331
1018CA7
  5
1018CB0
331
10186A8
  5
10186A8
331
10175C9
  5
10175D9
331
10175CD
  5
101781B
331
10175D1
  5
101781F
331
10175D5
  5
1017823
331
1017D48
  5
1017D59
331
1017D4C
  5
1017D5D
331
10181FF
  5
101820F
331
1018203
  5
1018213
331
1017D54
  5
1017DA9
331
1018207
  5
1018217
331
1017AC2
  5
1017BB9
331
10179C7
  5
10179D8
331
1017AC6
  5
1017BBD
331
10179CB
  5
10179DC
331
10179CF
  5
10179E0
331
1018499
  5
10184A1
331
101849D
  5
10184A5
331
1018A00
  5
1018A12
331
10184A1
  5
10184A9
331
10184A5
  5
1018537
331
1018A04
  5
1018A16
331
1018CA9
  5
1018CB2
331
1018CAD
  5
1018CB6
331
1018CB1
  5
1018CFF
331
1018CB5
  5
1018D03
331
10175D9
  5
1017827
331
101730E
  5
101730E
331
1017819
  5
101782A
331
1017312
  5
1017312
331
101781D
  5
101782E
331
1017316
  5
1017316
331
1017D58
  5
1017DAD
331
101820B
  5
10182A5
331
1017D5C
  5
1017DB1
331
101820F
  5
10182A9
331
1017D60
  5
1017DB5
331
1018213
  5
101848F
331
1018217
  5
1018493
331
1017BAA
  5
1017BC3
331
10179D3
  5
10179E4
331
1017BAE
  5
1017BC7
331
10179DB
  5
1017A40
331
1017BB2
  5
1017C55
331
1017BB6
  5
1017C58
331
10179DF
  5
1017A46
331
1018A08
  5
1018A1A
331
10184A9
  5
101853B
331
1018A0C
  5
1018A1E
331
1018A10
  5
1018B7A
331
1018689
  5
1018689
331
101868D
  5
101868D
331
1018A14
  5
1018B7E
331
101731A
  5
101731A
331
1017821
  5
1017832
331
1017825
  5
1017836
331
101731E
  5
101731E
331
101782D
  5
10179CC
331
1017FC8
  5
1017FC8
331
1017FCC
  5
1017FCC
331
1017FD0
  5
1017FD0
331
1017FD4
  5
1017FD4
331
101848F
  5
1018497
331
1017BBA
  5
1017D45
331
10179E3
  5
1017A4C
331
1017BBE
  5
1017D49
331
1017AAB
  5
1017ACE
331
1017BC2
  5
1017D4D
331
1017BC6
  5
1017D52
331
1017AAF
  5
1017AD7
  0
ACDBDETAILVIEWSTYLE
  5
1017155
102
{ACAD_XDICTIONARY
360
1018F9F
102
}
102
{ACAD_REACTORS
330
1017154
102
}
330
1017154
100
AcDbModelDocViewStyle
 70
     0
  3
Metric50
290
     0
100
AcDbDetailViewStyle
 70
     0
 71
     0
 90
        3
 71
     1
340
4E7
 62
   256
 40
5.0
340
0
 62
   256
 40
5.0
300

 40
0.0
280
     1
 71
     2
340
13
 90
       25
 62
   256
 71
     3
340
4E7
 62
   256
 40
5.0
 90
        0
 40
15.0
 90
        1
300
%<\AcVar ViewDetailId>% (%<\AcVar ViewScale \f "%sn">%)
 71
     4
340
13
 90
       25
 62
   256
340
13
 90
       25
 62
   256
280
     0
  0
LAYOUT
  5
4EE
102
{ACAD_REACTORS
330
4EC
102
}
330
4EC
100
AcDbPlotSettings
  1

  2
Canon LASER SHOT LBP-1710
  4
A3
  6

 40
5.873749732971191
 41
5.873747825622557
 42
5.873748779296875
 43
5.873748779296875
 44
296.9259948730469
 45
419.9466552734373
 46
-4.5
 47
-4.49
 48
993.6028128978476
 49
-225.7964931124821
140
1619.370166979213
141
215.4799722210864
142
1.0
143
1.5
 70
 11940
 72
     1
 73
     1
 74
     4
  7
INABA-CAD-Canon.ctb
 75
     0
147
0.6666666666666666
 76
     0
 77
     2
 78
   300
148
-993.6028128978476
149
225.7964931124821
100
AcDbLayout
  1
Model
 70
     1
 71
     0
 10
0.0
 20
0.0
 11
12.0
 21
9.0
 12
0.0
 22
0.0
 32
0.0
 14
0.0
 24
0.0
 34
0.0
 15
0.0
 25
0.0
 35
0.0
146
0.0
 13
0.0
 23
0.0
 33
0.0
 16
1.0
 26
0.0
 36
0.0
 17
0.0
 27
1.0
 37
0.0
 76
     0
330
A
331
16D10
  0
LAYOUT
  5
4EF
102
{ACAD_REACTORS
330
4EC
102
}
330
4EC
100
AcDbPlotSettings
  1

  2
Canon LASER SHOT LBP-1710(業務側)
  4

  6

 40
0.0
 41
0.0
 42
0.0
 43
0.0
 44
0.0
 45
0.0
 46
0.0
 47
0.0
 48
0.0
 49
0.0
140
0.0
141
0.0
142
1.0
143
1.0
 70
   688
 72
     0
 73
     0
 74
     5
  7
INABA-CAD-Canon.ctb
 75
    16
147
1.0
 76
     0
 77
     2
 78
   300
148
0.0
149
0.0
100
AcDbLayout
  1
ﾚｲｱｳﾄ1
 70
     0
 71
     1
 10
0.0
 20
0.0
 11
12.0
 21
9.0
 12
0.0
 22
0.0
 32
0.0
 14
1.000000000000000E+20
 24
1.000000000000000E+20
 34
1.000000000000000E+20
 15
-1.000000000000000E+20
 25
-1.000000000000000E+20
 35
-1.000000000000000E+20
146
0.0
 13
0.0
 23
0.0
 33
0.0
 16
1.0
 26
0.0
 36
0.0
 17
0.0
 27
1.0
 37
0.0
 76
     0
330
B
  0
MATERIAL
  5
16D1F
102
{ACAD_XDICTIONARY
360
16D20
102
}
102
{ACAD_REACTORS
330
2F41
102
}
330
2F41
100
AcDbMaterial
  1
ByBlock
 72
     0
 43
0.0208333333333333
 43
0.0
 43
0.0
 43
0.0
 43
0.0
 43
0.0208333333333333
 43
0.0
 43
0.0
 43
0.0
 43
0.0
 43
1.0
 43
0.0
 43
0.0
 43
0.0
 43
0.0
 43
1.0
 77
     0
 47
0.0208333333333333
 47
0.0
 47
0.0
 47
0.0
 47
0.0
 47
0.0208333333333333
 47
0.0
 47
0.0
 47
0.0
 47
0.0
 47
1.0
 47
0.0
 47
0.0
 47
0.0
 47
0.0
 47
1.0
171
     0
 49
0.0208333333333333
 49
0.0
 49
0.0
 49
0.0
 49
0.0
 49
0.0208333333333333
 49
0.0
 49
0.0
 49
0.0
 49
0.0
 49
1.0
 49
0.0
 49
0.0
 49
0.0
 49
0.0
 49
1.0
175
     0
142
0.0208333333333333
142
0.0
142
0.0
142
0.0
142
0.0
142
0.0208333333333333
142
0.0
142
0.0
142
0.0
142
0.0
142
1.0
142
0.0
142
0.0
142
0.0
142
0.0
142
1.0
179
     0
144
0.0208333333333333
144
0.0
144
0.0
144
0.0
144
0.0
144
0.0208333333333333
144
0.0
144
0.0
144
0.0
144
0.0
144
1.0
144
0.0
144
0.0
144
0.0
144
0.0
144
1.0
147
0.0208333333333333
147
0.0
147
0.0
147
0.0
147
0.0
147
0.0208333333333333
147
0.0
147
0.0
147
0.0
147
0.0
147
1.0
147
0.0
147
0.0
147
0.0
147
0.0
147
1.0
  0
MATERIAL
  5
16D17
102
{ACAD_XDICTIONARY
360
16D18
102
}
102
{ACAD_REACTORS
330
2F41
102
}
330
2F41
100
AcDbMaterial
  1
ByLayer
 72
     0
 43
0.0208333333333333
 43
0.0
 43
0.0
 43
0.0
 43
0.0
 43
0.0208333333333333
 43
0.0
 43
0.0
 43
0.0
 43
0.0
 43
1.0
 43
0.0
 43
0.0
 43
0.0
 43
0.0
 43
1.0
 77
     0
 47
0.0208333333333333
 47
0.0
 47
0.0
 47
0.0
 47
0.0
 47
0.0208333333333333
 47
0.0
 47
0.0
 47
0.0
 47
0.0
 47
1.0
 47
0.0
 47
0.0
 47
0.0
 47
0.0
 47
1.0
171
     0
 49
0.0208333333333333
 49
0.0
 49
0.0
 49
0.0
 49
0.0
 49
0.0208333333333333
 49
0.0
 49
0.0
 49
0.0
 49
0.0
 49
1.0
 49
0.0
 49
0.0
 49
0.0
 49
0.0
 49
1.0
175
     0
142
0.0208333333333333
142
0.0
142
0.0
142
0.0
142
0.0
142
0.0208333333333333
142
0.0
142
0.0
142
0.0
142
0.0
142
1.0
142
0.0
142
0.0
142
0.0
142
0.0
142
1.0
179
     0
144
0.0208333333333333
144
0.0
144
0.0
144
0.0
144
0.0
144
0.0208333333333333
144
0.0
144
0.0
144
0.0
144
0.0
144
1.0
144
0.0
144
0.0
144
0.0
144
0.0
144
1.0
147
0.0208333333333333
147
0.0
147
0.0
147
0.0
147
0.0
147
0.0208333333333333
147
0.0
147
0.0
147
0.0
147
0.0
147
1.0
147
0.0
147
0.0
147
0.0
147
0.0
147
1.0
  0
MATERIAL
  5
16D27
102
{ACAD_XDICTIONARY
360
16D28
102
}
102
{ACAD_REACTORS
330
2F41
102
}
330
2F41
100
AcDbMaterial
  1
Global
 72
     0
 43
0.0208333333333333
 43
0.0
 43
0.0
 43
0.0
 43
0.0
 43
0.0208333333333333
 43
0.0
 43
0.0
 43
0.0
 43
0.0
 43
1.0
 43
0.0
 43
0.0
 43
0.0
 43
0.0
 43
1.0
 77
     0
 47
0.0208333333333333
 47
0.0
 47
0.0
 47
0.0
 47
0.0
 47
0.0208333333333333
 47
0.0
 47
0.0
 47
0.0
 47
0.0
 47
1.0
 47
0.0
 47
0.0
 47
0.0
 47
0.0
 47
1.0
171
     0
 49
0.0208333333333333
 49
0.0
 49
0.0
 49
0.0
 49
0.0
 49
0.0208333333333333
 49
0.0
 49
0.0
 49
0.0
 49
0.0
 49
1.0
 49
0.0
 49
0.0
 49
0.0
 49
0.0
 49
1.0
175
     0
142
0.0208333333333333
142
0.0
142
0.0
142
0.0
142
0.0
142
0.0208333333333333
142
0.0
142
0.0
142
0.0
142
0.0
142
1.0
142
0.0
142
0.0
142
0.0
142
0.0
142
1.0
179
     0
144
0.0208333333333333
144
0.0
144
0.0
144
0.0
144
0.0
144
0.0208333333333333
144
0.0
144
0.0
144
0.0
144
0.0
144
1.0
144
0.0
144
0.0
144
0.0
144
0.0
144
1.0
147
0.0208333333333333
147
0.0
147
0.0
147
0.0
147
0.0
147
0.0208333333333333
147
0.0
147
0.0
147
0.0
147
0.0
147
1.0
147
0.0
147
0.0
147
0.0
147
0.0
147
1.0
  0
MLEADERSTYLE
  5
16D5B
102
{ACAD_REACTORS
330
16D5A
102
}
330
16D5A
100
AcDbMLeaderStyle
179
     2
170
     2
171
     1
172
     0
 90
        2
 40
0.0
 41
0.0
173
     1
 91
-1056964608
340
11
 92
       -2
290
     1
 42
2.0
291
     1
 43
0.36
  3
Standard
 44
4.0
300

342
17
174
     1
178
     6
175
     1
176
     0
 93
-1056964608
 45
4.0
292
     0
297
     0
 46
4.0
 94
-1056964608
 47
1.0
 49
1.0
140
1.0
293
     1
141
0.0
294
     1
177
     0
142
1.0
295
     0
296
     0
143
0.125
271
     0
272
     9
273
     9
1001
ACAD_MLEADERVER
1070
     2
  0
MLINESTYLE
  5
1C
102
{ACAD_REACTORS
330
1B
102
}
330
1B
100
AcDbMlineStyle
  2
STANDARD
 70
     0
  3

 62
     0
 51
90.0
 52
90.0
 71
     2
 49
0.5
 62
   256
  6
BYLAYER
 49
-0.5
 62
   256
  6
BYLAYER
  0
ACDBPLACEHOLDER
  5
4EB
102
{ACAD_REACTORS
330
4EA
102
}
330
4EA
  0
SCALE
  5
16D49
102
{ACAD_REACTORS
330
16D48
102
}
330
16D48
100
AcDbScale
 70
     0
300
1:1
140
1.0
141
1.0
290
     1
  0
SCALE
  5
16D4A
102
{ACAD_REACTORS
330
16D48
102
}
330
16D48
100
AcDbScale
 70
     0
300
1:2
140
1.0
141
2.0
290
     0
  0
SCALE
  5
16D4B
102
{ACAD_REACTORS
330
16D48
102
}
330
16D48
100
AcDbScale
 70
     0
300
1:4
140
1.0
141
4.0
290
     0
  0
SCALE
  5
16D4C
102
{ACAD_REACTORS
330
16D48
102
}
330
16D48
100
AcDbScale
 70
     0
300
1:5
140
1.0
141
5.0
290
     0
  0
SCALE
  5
16D4D
102
{ACAD_REACTORS
330
16D48
102
}
330
16D48
100
AcDbScale
 70
     0
300
1:8
140
1.0
141
8.0
290
     0
  0
SCALE
  5
16D4E
102
{ACAD_REACTORS
330
16D48
102
}
330
16D48
100
AcDbScale
 70
     0
300
1:10
140
1.0
141
10.0
290
     0
  0
SCALE
  5
16D4F
102
{ACAD_REACTORS
330
16D48
102
}
330
16D48
100
AcDbScale
 70
     0
300
1:16
140
1.0
141
16.0
290
     0
  0
SCALE
  5
16D50
102
{ACAD_REACTORS
330
16D48
102
}
330
16D48
100
AcDbScale
 70
     0
300
1:20
140
1.0
141
20.0
290
     0
  0
SCALE
  5
16D51
102
{ACAD_REACTORS
330
16D48
102
}
330
16D48
100
AcDbScale
 70
     0
300
1:30
140
1.0
141
30.0
290
     0
  0
SCALE
  5
16D52
102
{ACAD_REACTORS
330
16D48
102
}
330
16D48
100
AcDbScale
 70
     0
300
1:40
140
1.0
141
40.0
290
     0
  0
SCALE
  5
16D53
102
{ACAD_REACTORS
330
16D48
102
}
330
16D48
100
AcDbScale
 70
     0
300
1:50
140
1.0
141
50.0
290
     0
  0
SCALE
  5
16D54
102
{ACAD_REACTORS
330
16D48
102
}
330
16D48
100
AcDbScale
 70
     0
300
1:100
140
1.0
141
100.0
290
     0
  0
SCALE
  5
16D55
102
{ACAD_REACTORS
330
16D48
102
}
330
16D48
100
AcDbScale
 70
     0
300
2:1
140
2.0
141
1.0
290
     0
  0
SCALE
  5
16D56
102
{ACAD_REACTORS
330
16D48
102
}
330
16D48
100
AcDbScale
 70
     0
300
4:1
140
4.0
141
1.0
290
     0
  0
SCALE
  5
16D57
102
{ACAD_REACTORS
330
16D48
102
}
330
16D48
100
AcDbScale
 70
     0
300
8:1
140
8.0
141
1.0
290
     0
  0
SCALE
  5
16D58
102
{ACAD_REACTORS
330
16D48
102
}
330
16D48
100
AcDbScale
 70
     0
300
10:1
140
10.0
141
1.0
290
     0
  0
SCALE
  5
16D59
102
{ACAD_REACTORS
330
16D48
102
}
330
16D48
100
AcDbScale
 70
     0
300
100:1
140
100.0
141
1.0
290
     0
  0
ACDBSECTIONVIEWSTYLE
  5
1017153
102
{ACAD_XDICTIONARY
360
1018F9D
102
}
102
{ACAD_REACTORS
330
1017152
102
}
330
1017152
100
AcDbModelDocViewStyle
 70
     0
  3
Metric50
290
     0
100
AcDbSectionViewStyle
 70
     0
 71
     0
 90
      102
 71
     1
340
4E7
 62
   256
 40
5.0
340
0
340
0
 62
   256
 40
5.0
300
I, O, Q, S, X, Z
 40
10.0
 90
        0
 40
2.5
 90
        0
 71
     2
340
13
 90
       25
 62
   256
340
13
 90
       50
 62
   256
 40
5.0
 40
2.5
 40
5.0
 71
     3
340
4E7
 62
   256
 40
5.0
 90
        0
 40
15.0
 90
        1
300
%<\AcVar ViewSectionStartId>%-%<\AcVar ViewSectionEndId>% (%<\AcVar ViewScale \f "%sn">%)
 71
     4
 62
   256
 62
   257
300
ANSI31
 40
1.0
 90
        0
290
     0
290
     0
 90
        6
 40
0.0
 40
1.570796326794896
 40
0.2617993877991494
 40
1.308996938995747
 40
-0.2617993877991494
 40
1.832595714594044
  0
TABLESTYLE
  5
2F44
102
{ACAD_XDICTIONARY
360
17107
102
}
102
{ACAD_REACTORS
330
2F43
102
}
330
2F43
100
AcDbTableStyle
280
     0
  3
Standard
 70
     0
 71
     0
 40
1.5
 41
1.5
280
     0
281
     0
  7
MX_NOTE_STANDARD
140
4.5
170
     2
 62
     0
 63
     7
283
     0
 90
        4
 91
        0
  1

274
    -2
284
     1
 64
     0
275
    -2
285
     1
 65
     0
276
    -2
286
     1
 66
     0
277
    -2
287
     1
 67
     0
278
    -2
288
     1
 68
     0
279
    -2
289
     1
 69
     0
  7
MX_NOTE_STANDARD
140
6.0
170
     5
 62
     0
 63
     7
283
     0
 90
        4
 91
        0
  1

274
    -2
284
     1
 64
     0
275
    -2
285
     1
 65
     0
276
    -2
286
     1
 66
     0
277
    -2
287
     1
 67
     0
278
    -2
288
     1
 68
     0
279
    -2
289
     1
 69
     0
  7
MX_NOTE_STANDARD
140
4.5
170
     5
 62
     0
 63
     7
283
     0
 90
        4
 91
        0
  1

274
    -2
284
     1
 64
     0
275
    -2
285
     1
 65
     0
276
    -2
286
     1
 66
     0
277
    -2
287
     1
 67
     0
278
    -2
288
     1
 68
     0
279
    -2
289
     1
 69
     0
  0
VISUALSTYLE
  5
16D35
102
{ACAD_XDICTIONARY
360
1018F77
102
}
102
{ACAD_REACTORS
330
16D2F
102
}
330
16D2F
100
AcDbVisualStyle
  2

 70
     4
177
     2
291
     0
 71
     0
176
     1
 72
     2
176
     1
 73
     0
176
     1
 90
        0
176
     1
 40
0.6
176
     1
 41
30.0
176
     1
 63
     7
176
     1
 74
     1
176
     1
 91
        4
176
     1
 64
     7
176
     1
 65
   257
176
     1
 75
     1
176
     1
175
     1
176
     1
 42
1.0
176
     1
 92
        0
176
     1
 66
   257
176
     1
 43
1.0
176
     1
 76
     1
176
     1
 77
     6
176
     1
 78
     2
176
     1
 67
     7
176
     1
 79
     5
176
     1
170
     0
176
     1
171
     0
176
     1
290
     0
176
     1
 93
        1
176
     1
 44
0.0
176
     1
173
     0
176
     1
1001
ACAD
1000
AcDbSavedByObjectVersion
1070
     0
  0
VISUALSTYLE
  5
16D34
102
{ACAD_XDICTIONARY
360
1018F75
102
}
102
{ACAD_REACTORS
330
16D2F
102
}
330
16D2F
100
AcDbVisualStyle
  2

 70
     7
177
     2
291
     1
 71
     1
176
     1
 72
     0
176
     1
 73
     1
176
     1
 90
        0
176
     1
 40
0.6
176
     1
 41
30.0
176
     1
 63
     7
176
     1
 74
     0
176
     1
 91
        4
176
     1
 64
     7
176
     1
 65
   257
176
     1
 75
     1
176
     1
175
     1
176
     1
 42
1.0
176
     1
 92
        8
176
     1
 66
     7
176
     1
 43
1.0
176
     1
 76
     1
176
     1
 77
     6
176
     1
 78
     2
176
     1
 67
     7
176
     1
 79
     5
176
     1
170
     0
176
     1
171
     0
176
     1
290
     0
176
     1
 93
        1
176
     1
 44
0.0
176
     1
173
     0
176
     1
1001
ACAD
1000
AcDbSavedByObjectVersion
1070
     0
  0
VISUALSTYLE
  5
16D3B
102
{ACAD_XDICTIONARY
360
1018F83
102
}
102
{ACAD_REACTORS
330
16D2F
102
}
330
16D2F
100
AcDbVisualStyle
  2

 70
    12
177
     2
291
     1
 71
     2
176
     1
 72
     2
176
     1
 73
     0
176
     1
 90
        0
176
     1
 40
0.6
176
     1
 41
30.0
176
     1
 63
     7
176
     1
 74
     1
176
     1
 91
        4
176
     1
 64
     7
176
     1
 65
   257
176
     1
 75
     1
176
     1
175
     1
176
     1
 42
1.0
176
     1
 92
        8
176
     1
 66
     7
176
     1
 43
1.0
176
     1
 76
     1
176
     1
 77
     6
176
     1
 78
     2
176
     1
 67
     7
176
     1
 79
     5
176
     1
170
     0
176
     1
171
     0
176
     1
290
     0
176
     1
 93
        1
176
     1
 44
50.0
176
     1
173
     0
176
     1
1001
ACAD
1000
AcDbSavedByObjectVersion
1070
     0
  0
VISUALSTYLE
  5
16D3F
102
{ACAD_XDICTIONARY
360
1018F8B
102
}
102
{ACAD_REACTORS
330
16D2F
102
}
330
16D2F
100
AcDbVisualStyle
  2

 70
    16
177
     2
291
     1
 71
     2
176
     1
 72
     2
176
     1
 73
     3
176
     1
 90
        0
176
     1
 40
0.6
176
     1
 41
30.0
176
     1
 63
     8
176
     1
 74
     1
176
     1
 91
        4
176
     1
 64
     7
176
     1
 65
   257
176
     1
 75
     1
176
     1
175
     1
176
     1
 42
1.0
176
     1
 92
        8
176
     1
 66
     8
176
     1
 43
1.0
176
     1
 76
     1
176
     1
 77
     6
176
     1
 78
     2
176
     1
 67
     7
176
     1
 79
     5
176
     1
170
     0
176
     1
171
     0
176
     1
290
     0
176
     1
 93
        1
176
     1
 44
0.0
176
     1
173
     0
176
     1
1001
ACAD
1000
AcDbSavedByObjectVersion
1070
     0
  0
VISUALSTYLE
  5
16D38
102
{ACAD_XDICTIONARY
360
1018F7D
102
}
102
{ACAD_REACTORS
330
16D2F
102
}
330
16D2F
100
AcDbVisualStyle
  2

 70
     9
177
     2
291
     0
 71
     3
176
     1
 72
     2
176
     1
 73
     0
176
     1
 90
        0
176
     1
 40
0.6
176
     1
 41
30.0
176
     1
 63
     7
176
     1
 74
     2
176
     1
 91
        2
176
     1
 64
     7
176
     1
 65
   257
176
     1
 75
     1
176
     1
175
     1
176
     1
 42
179.0
176
     1
 92
        8
176
     1
 66
     7
176
     1
 43
1.0
176
     1
 76
     1
176
     1
 77
     6
176
     1
 78
     2
176
     1
 67
     7
176
     1
 79
     3
176
     1
170
     0
176
     1
171
     0
176
     1
290
     0
176
     1
 93
        1
176
     1
 44
0.0
176
     1
173
     0
176
     1
1001
ACAD
1000
AcDbSavedByObjectVersion
1070
     0
  0
VISUALSTYLE
  5
16D3A
102
{ACAD_XDICTIONARY
360
1018F81
102
}
102
{ACAD_REACTORS
330
16D2F
102
}
330
16D2F
100
AcDbVisualStyle
  2

 70
    11
177
     2
291
     1
 71
     2
176
     1
 72
     2
176
     1
 73
     0
176
     1
 90
        0
176
     1
 40
0.6
176
     1
 41
30.0
176
     1
 63
     7
176
     1
 74
     1
176
     1
 91
        4
176
     1
 64
     7
176
     1
 65
   257
176
     1
 75
     1
176
     1
175
     1
176
     1
 42
1.0
176
     1
 92
        8
176
     1
 66
     7
176
     1
 43
1.0
176
     1
 76
     1
176
     1
 77
     6
176
     1
 78
     2
176
     1
 67
     7
176
     1
 79
     5
176
     1
170
     0
176
     1
171
     0
176
     1
290
     0
176
     1
 93
        1
176
     1
 44
-50.0
176
     1
173
     0
176
     1
1001
ACAD
1000
AcDbSavedByObjectVersion
1070
     0
  0
VISUALSTYLE
  5
16D47
102
{ACAD_XDICTIONARY
360
1018F9B
102
}
102
{ACAD_REACTORS
330
16D2F
102
}
330
16D2F
100
AcDbVisualStyle
  2

 70
    22
177
     2
291
     1
 71
     2
176
     0
 72
     2
176
     0
 73
     0
176
     0
 90
        0
176
     0
 40
0.6
176
     0
 41
30.0
176
     0
 63
     7
176
     0
 74
     1
176
     0
 91
        4
176
     0
 64
     7
176
     0
 65
   257
176
     0
 75
     1
176
     0
175
     1
176
     0
 42
1.0
176
     0
 92
        8
176
     2
 66
     7
176
     0
 43
1.0
176
     0
 76
     1
176
     0
 77
     6
176
     0
 78
     2
176
     0
 67
     7
176
     0
 79
     5
176
     0
170
     0
176
     0
171
     0
176
     0
290
     0
176
     0
 93
        1
176
     0
 44
0.0
176
     0
173
     0
176
     0
1001
ACAD
1000
AcDbSavedByObjectVersion
1070
     0
  0
VISUALSTYLE
  5
16D3E
102
{ACAD_XDICTIONARY
360
1018F89
102
}
102
{ACAD_REACTORS
330
16D2F
102
}
330
16D2F
100
AcDbVisualStyle
  2

 70
    15
177
     2
291
     1
 71
     2
176
     1
 72
     2
176
     1
 73
     0
176
     1
 90
        0
176
     1
 40
0.6
176
     1
 41
30.0
176
     1
 63
     7
176
     1
 74
     1
176
     1
 91
        4
176
     1
 64
     7
176
     1
 65
   257
176
     1
 75
     1
176
     1
175
     1
176
     1
 42
1.0
176
     1
 92
        8
176
     1
 66
     7
176
     1
 43
1.0
176
     1
 76
     1
176
     1
 77
     6
176
     1
 78
     2
176
     1
 67
     7
176
     1
 79
     5
176
     1
170
     0
176
     1
171
     0
176
     1
290
     0
176
     1
 93
        1
176
     1
 44
0.0
176
     1
173
     0
176
     1
1001
ACAD
1000
AcDbSavedByObjectVersion
1070
     0
  0
VISUALSTYLE
  5
16D30
102
{ACAD_XDICTIONARY
360
1018F6D
102
}
102
{ACAD_REACTORS
330
16D2F
102
}
330
16D2F
100
AcDbVisualStyle
  2

 70
     0
177
     2
291
     1
 71
     2
176
     1
 72
     1
176
     1
 73
     1
176
     1
 90
        2
176
     1
 40
0.6
176
     1
 41
30.0
176
     1
 63
     7
176
     1
 74
     0
176
     1
 91
        0
176
     1
 64
     7
176
     1
 65
   257
176
     1
 75
     1
176
     1
175
     1
176
     1
 42
1.0
176
     1
 92
        8
176
     1
 66
     7
176
     1
 43
1.0
176
     1
 76
     1
176
     1
 77
     6
176
     1
 78
     2
176
     1
 67
     7
176
     1
 79
     5
176
     1
170
     0
176
     1
171
     0
176
     1
290
     0
176
     1
 93
       13
176
     1
 44
0.0
176
     1
173
     0
176
     1
1001
ACAD
1000
AcDbSavedByObjectVersion
1070
     0
  0
VISUALSTYLE
  5
16D31
102
{ACAD_XDICTIONARY
360
1018F6F
102
}
102
{ACAD_REACTORS
330
16D2F
102
}
330
16D2F
100
AcDbVisualStyle
  2

 70
     1
177
     2
291
     1
 71
     2
176
     1
 72
     1
176
     1
 73
     1
176
     1
 90
        2
176
     1
 40
0.6
176
     1
 41
30.0
176
     1
 63
     7
176
     1
 74
     1
176
     1
 91
        0
176
     1
 64
     7
176
     1
 65
   257
176
     1
 75
     1
176
     1
175
     1
176
     1
 42
1.0
176
     1
 92
        0
176
     1
 66
   257
176
     1
 43
1.0
176
     1
 76
     1
176
     1
 77
     6
176
     1
 78
     2
176
     1
 67
     7
176
     1
 79
     5
176
     1
170
     0
176
     1
171
     0
176
     1
290
     0
176
     1
 93
       13
176
     1
 44
0.0
176
     1
173
     0
176
     1
1001
ACAD
1000
AcDbSavedByObjectVersion
1070
     0
  0
VISUALSTYLE
  5
16D32
102
{ACAD_XDICTIONARY
360
1018F71
102
}
102
{ACAD_REACTORS
330
16D2F
102
}
330
16D2F
100
AcDbVisualStyle
  2

 70
     2
177
     2
291
     1
 71
     2
176
     1
 72
     2
176
     1
 73
     1
176
     1
 90
        2
176
     1
 40
0.6
176
     1
 41
30.0
176
     1
 63
     7
176
     1
 74
     0
176
     1
 91
        0
176
     1
 64
     7
176
     1
 65
   257
176
     1
 75
     1
176
     1
175
     1
176
     1
 42
1.0
176
     1
 92
        0
176
     1
 66
     7
176
     1
 43
1.0
176
     1
 76
     1
176
     1
 77
     6
176
     1
 78
     2
176
     1
 67
     7
176
     1
 79
     5
176
     1
170
     0
176
     1
171
     0
176
     1
290
     0
176
     1
 93
       13
176
     1
 44
0.0
176
     1
173
     0
176
     1
1001
ACAD
1000
AcDbSavedByObjectVersion
1070
     0
  0
VISUALSTYLE
  5
16D33
102
{ACAD_XDICTIONARY
360
1018F73
102
}
102
{ACAD_REACTORS
330
16D2F
102
}
330
16D2F
100
AcDbVisualStyle
  2

 70
     3
177
     2
291
     1
 71
     2
176
     1
 72
     2
176
     1
 73
     1
176
     1
 90
        2
176
     1
 40
0.6
176
     1
 41
30.0
176
     1
 63
     7
176
     1
 74
     1
176
     1
 91
        0
176
     1
 64
     7
176
     1
 65
   257
176
     1
 75
     1
176
     1
175
     1
176
     1
 42
1.0
176
     1
 92
        0
176
     1
 66
   257
176
     1
 43
1.0
176
     1
 76
     1
176
     1
 77
     6
176
     1
 78
     2
176
     1
 67
     7
176
     1
 79
     5
176
     1
170
     0
176
     1
171
     0
176
     1
290
     0
176
     1
 93
       13
176
     1
 44
0.0
176
     1
173
     0
176
     1
1001
ACAD
1000
AcDbSavedByObjectVersion
1070
     0
  0
VISUALSTYLE
  5
16D37
102
{ACAD_XDICTIONARY
360
1018F7B
102
}
102
{ACAD_REACTORS
330
16D2F
102
}
330
16D2F
100
AcDbVisualStyle
  2

 70
     6
177
     2
291
     0
 71
     1
176
     1
 72
     2
176
     1
 73
     2
176
     1
 90
        0
176
     1
 40
0.6
176
     1
 41
30.0
176
     1
 63
     7
176
     1
 74
     2
176
     1
 91
        2
176
     1
 64
     7
176
     1
 65
   257
176
     1
 75
     2
176
     1
175
     1
176
     1
 42
40.0
176
     1
 92
        0
176
     1
 66
   257
176
     1
 43
1.0
176
     1
 76
     1
176
     1
 77
     6
176
     1
 78
     2
176
     1
 67
     7
176
     1
 79
     3
176
     1
170
     0
176
     1
171
     0
176
     1
290
     0
176
     1
 93
        1
176
     1
 44
0.0
176
     1
173
     0
176
     1
1001
ACAD
1000
AcDbSavedByObjectVersion
1070
     0
  0
VISUALSTYLE
  5
16D45
102
{ACAD_XDICTIONARY
360
1018F97
102
}
102
{ACAD_REACTORS
330
16D2F
102
}
330
16D2F
100
AcDbVisualStyle
  2

 70
    20
177
     2
291
     1
 71
     2
176
     0
 72
     2
176
     0
 73
     0
176
     0
 90
        0
176
     0
 40
0.6
176
     0
 41
30.0
176
     0
 63
     7
176
     0
 74
     1
176
     0
 91
        4
176
     0
 64
     7
176
     0
 65
   257
176
     0
 75
     1
176
     0
175
     1
176
     0
 42
1.0
176
     0
 92
       10
176
     2
 66
     7
176
     0
 43
1.0
176
     0
 76
     1
176
     0
 77
     6
176
     0
 78
     2
176
     0
 67
     7
176
     0
 79
     5
176
     0
170
     0
176
     0
171
     0
176
     0
290
     0
176
     0
 93
        1
176
     0
 44
0.0
176
     0
173
     0
176
     0
1001
ACAD
1000
AcDbSavedByObjectVersion
1070
     0
  0
VISUALSTYLE
  5
16D3D
102
{ACAD_XDICTIONARY
360
1018F87
102
}
102
{ACAD_REACTORS
330
16D2F
102
}
330
16D2F
100
AcDbVisualStyle
  2

 70
    14
177
     2
291
     1
 71
     2
176
     1
 72
     2
176
     1
 73
     0
176
     1
 90
        0
176
     1
 40
0.6
176
     1
 41
30.0
176
     1
 63
     7
176
     1
 74
     1
176
     1
 91
        4
176
     1
 64
     7
176
     1
 65
   257
176
     1
 75
     7
176
     1
175
     7
176
     1
 42
1.0
176
     1
 92
        8
176
     1
 66
     7
176
     1
 43
1.0
176
     1
 76
     1
176
     1
 77
     6
176
     1
 78
     2
176
     1
 67
     7
176
     1
 79
     5
176
     1
170
     0
176
     1
171
     0
176
     1
290
     0
176
     1
 93
        1
176
     1
 44
0.0
176
     1
173
     0
176
     1
1001
ACAD
1000
AcDbSavedByObjectVersion
1070
     0
  0
VISUALSTYLE
  5
16D46
102
{ACAD_XDICTIONARY
360
1018F99
102
}
102
{ACAD_REACTORS
330
16D2F
102
}
330
16D2F
100
AcDbVisualStyle
  2

 70
    21
177
     2
291
     1
 71
     2
176
     0
 72
     2
176
     0
 73
     0
176
     0
 90
        0
176
     0
 40
0.6
176
     0
 41
30.0
176
     0
 63
     7
176
     0
 74
     1
176
     0
 91
        4
176
     0
 64
     7
176
     0
 65
   257
176
     0
 75
     1
176
     0
175
     1
176
     0
 42
1.0
176
     0
 92
        9
176
     2
 66
     7
176
     0
 43
1.0
176
     0
 76
     1
176
     0
 77
     6
176
     0
 78
     2
176
     0
 67
     7
176
     0
 79
     5
176
     0
170
     0
176
     0
171
     0
176
     0
290
     0
176
     0
 93
        1
176
     0
 44
0.0
176
     0
173
     0
176
     0
1001
ACAD
1000
AcDbSavedByObjectVersion
1070
     0
  0
VISUALSTYLE
  5
16D39
102
{ACAD_XDICTIONARY
360
1018F7F
102
}
102
{ACAD_REACTORS
330
16D2F
102
}
330
16D2F
100
AcDbVisualStyle
  2

 70
     8
177
     2
291
     0
 71
     2
176
     1
 72
     3
176
     1
 73
     0
176
     1
 90
        2
176
     1
 40
0.6
176
     1
 41
30.0
176
     1
 63
     7
176
     1
 74
     0
176
     1
 91
        0
176
     1
 64
     7
176
     1
 65
   257
176
     1
 75
     1
176
     1
175
     1
176
     1
 42
1.0
176
     1
 92
        8
176
     1
 66
   257
176
     1
 43
1.0
176
     1
 76
     1
176
     1
 77
     6
176
     1
 78
     2
176
     1
 67
     7
176
     1
 79
     3
176
     1
170
     0
176
     1
171
     0
176
     1
290
     0
176
     1
 93
       13
176
     1
 44
0.0
176
     1
173
     0
176
     1
1001
ACAD
1000
AcDbSavedByObjectVersion
1070
     0
  0
VISUALSTYLE
  5
16D44
102
{ACAD_XDICTIONARY
360
1018F95
102
}
102
{ACAD_REACTORS
330
16D2F
102
}
330
16D2F
100
AcDbVisualStyle
  2

 70
    27
177
     2
291
     0
 71
     2
176
     1
 72
     2
176
     1
 73
     1
176
     1
 90
        2
176
     1
 40
0.6
176
     1
 41
30.0
176
     1
 63
     7
176
     1
 74
     0
176
     1
 91
        4
176
     1
 64
     7
176
     1
 65
   257
176
     1
 75
     1
176
     1
175
     1
176
     1
 42
1.0
176
     1
 92
        8
176
     1
 66
   257
176
     1
 43
1.0
176
     1
 76
     1
176
     1
 77
     6
176
     1
 78
     2
176
     1
 67
     8
176
     1
 79
     3
176
     1
170
     0
176
     1
171
     0
176
     1
290
     0
176
     1
 93
        5
176
     1
 44
0.0
176
     1
173
     0
176
     1
1001
ACAD
1000
AcDbSavedByObjectVersion
1070
     0
  0
VISUALSTYLE
  5
16D43
102
{ACAD_XDICTIONARY
360
1018F93
102
}
102
{ACAD_REACTORS
330
16D2F
102
}
330
16D2F
100
AcDbVisualStyle
  2

 70
    26
177
     2
291
     0
 71
     2
176
     1
 72
     2
176
     1
 73
     1
176
     1
 90
        2
176
     1
 40
0.6
176
     1
 41
30.0
176
     1
 63
     7
176
     1
 74
     1
176
     1
 91
        2
176
     1
 64
     7
176
     1
 65
   257
176
     1
 75
     2
176
     1
175
     1
176
     1
 42
1.0
176
     1
 92
        8
176
     1
 66
   257
176
     1
 43
1.0
176
     1
 76
     1
176
     1
 77
     6
176
     1
 78
     2
176
     1
 67
     7
176
     1
 79
     3
176
     1
170
     0
176
     1
171
     0
176
     1
290
     0
176
     1
 93
        5
176
     1
 44
0.0
176
     1
173
     0
176
     1
1001
ACAD
1000
AcDbSavedByObjectVersion
1070
     0
  0
VISUALSTYLE
  5
16D40
102
{ACAD_XDICTIONARY
360
1018F8D
102
}
102
{ACAD_REACTORS
330
16D2F
102
}
330
16D2F
100
AcDbVisualStyle
  2

 70
    23
177
     2
291
     0
 71
     2
176
     1
 72
     2
176
     1
 73
     3
176
     1
 90
        0
176
     1
 40
0.6
176
     1
 41
30.0
176
     1
 63
     7
176
     1
 74
     2
176
     1
 91
        2
176
     1
 64
     7
176
     1
 65
     7
176
     1
 75
     1
176
     1
175
     1
176
     1
 42
40.0
176
     1
 92
        8
176
     1
 66
     7
176
     1
 43
1.0
176
     1
 76
     1
176
     1
 77
     6
176
     1
 78
     2
176
     1
 67
     7
176
     1
 79
     3
176
     1
170
     0
176
     1
171
     0
176
     1
290
     0
176
     1
 93
        1
176
     1
 44
0.0
176
     1
173
     0
176
     1
1001
ACAD
1000
AcDbSavedByObjectVersion
1070
     0
  0
VISUALSTYLE
  5
16D41
102
{ACAD_XDICTIONARY
360
1018F8F
102
}
102
{ACAD_REACTORS
330
16D2F
102
}
330
16D2F
100
AcDbVisualStyle
  2

 70
    24
177
     2
291
     0
 71
     1
176
     1
 72
     2
176
     1
 73
     2
176
     1
 90
        0
176
     1
 40
0.6
176
     1
 41
30.0
176
     1
 63
     7
176
     1
 74
     2
176
     1
 91
        2
176
     1
 64
     7
176
     1
 65
     7
176
     1
 75
     1
176
     1
175
     1
176
     1
 42
40.0
176
     1
 92
       11
176
     1
 66
     7
176
     1
 43
1.0
176
     1
 76
     1
176
     1
 77
     6
176
     1
 78
     2
176
     1
 67
     7
176
     1
 79
     6
176
     1
170
     0
176
     1
171
     0
176
     1
290
     0
176
     1
 93
        1
176
     1
 44
0.0
176
     1
173
     0
176
     1
1001
ACAD
1000
AcDbSavedByObjectVersion
1070
     0
  0
VISUALSTYLE
  5
16D3C
102
{ACAD_XDICTIONARY
360
1018F85
102
}
102
{ACAD_REACTORS
330
16D2F
102
}
330
16D2F
100
AcDbVisualStyle
  2

 70
    13
177
     2
291
     1
 71
     2
176
     1
 72
     2
176
     1
 73
     0
176
     1
 90
        0
176
     1
 40
0.6
176
     1
 41
30.0
176
     1
 63
     7
176
     1
 74
     1
176
     1
 91
        4
176
     1
 64
     7
176
     1
 65
   257
176
     1
 75
     1
176
     1
175
     1
176
     1
 42
1.0
176
     1
 92
       12
176
     1
 66
     7
176
     1
 43
1.0
176
     1
 76
     1
176
     1
 77
     6
176
     1
 78
     2
176
     1
 67
     7
176
     1
 79
     5
176
     1
170
     0
176
     1
171
     0
176
     1
290
     0
176
     1
 93
        1
176
     1
 44
0.0
176
     1
173
     0
176
     1
1001
ACAD
1000
AcDbSavedByObjectVersion
1070
     0
  0
VISUALSTYLE
  5
16D36
102
{ACAD_XDICTIONARY
360
1018F79
102
}
102
{ACAD_REACTORS
330
16D2F
102
}
330
16D2F
100
AcDbVisualStyle
  2

 70
     5
177
     2
291
     0
 71
     0
176
     1
 72
     2
176
     1
 73
     0
176
     1
 90
        0
176
     1
 40
0.6
176
     1
 41
30.0
176
     1
 63
     7
176
     1
 74
     1
176
     1
 91
        4
176
     1
 64
     7
176
     1
 65
   257
176
     1
 75
     1
176
     1
175
     1
176
     1
 42
1.0
176
     1
 92
        0
176
     1
 66
   257
176
     1
 43
1.0
176
     1
 76
     1
176
     1
 77
     6
176
     1
 78
     2
176
     1
 67
     7
176
     1
 79
     3
176
     1
170
     0
176
     1
171
     0
176
     1
290
     0
176
     1
 93
        1
176
     1
 44
0.0
176
     1
173
     0
176
     1
1001
ACAD
1000
AcDbSavedByObjectVersion
1070
     0
  0
VISUALSTYLE
  5
16D42
102
{ACAD_XDICTIONARY
360
1018F91
102
}
102
{ACAD_REACTORS
330
16D2F
102
}
330
16D2F
100
AcDbVisualStyle
  2

 70
    25
177
     2
291
     0
 71
     2
176
     1
 72
     2
176
     1
 73
     1
176
     1
 90
        1
176
     1
 40
0.5
176
     1
 41
30.0
176
     1
 63
     7
176
     1
 74
     1
176
     1
 91
        0
176
     1
 64
     7
176
     1
 65
   257
176
     1
 75
     1
176
     1
175
     1
176
     1
 42
1.0
176
     1
 92
        8
176
     1
 66
     7
176
     1
 43
1.0
176
     1
 76
     1
176
     1
 77
     6
176
     1
 78
     2
176
     1
 67
     7
176
     1
 79
     3
176
     1
170
     0
176
     1
171
     0
176
     1
290
     0
176
     1
 93
       13
176
     1
 44
0.0
176
     1
173
     0
176
     1
1001
ACAD
1000
AcDbSavedByObjectVersion
1070
     0
  0
DICTIONARYVAR
  5
17103
102
{ACAD_REACTORS
330
334C
102
}
330
334C
100
DictionaryVariables
280
     0
  1
1:1
  0
DICTIONARYVAR
  5
17102
102
{ACAD_REACTORS
330
334C
102
}
330
334C
100
DictionaryVariables
280
     0
  1
STANDARD
  0
DICTIONARYVAR
  5
334D
102
{ACAD_REACTORS
330
334C
102
}
330
334C
100
DictionaryVariables
280
     0
  1
STANDARD
  0
DICTIONARYVAR
  5
1017323
102
{ACAD_REACTORS
330
334C
102
}
330
334C
100
DictionaryVariables
280
     0
  1
Metric50
  0
DICTIONARYVAR
  5
1017324
102
{ACAD_REACTORS
330
334C
102
}
330
334C
100
DictionaryVariables
280
     0
  1
Metric50
  0
DICTIONARYVAR
  5
334E
102
{ACAD_REACTORS
330
334C
102
}
330
334C
100
DictionaryVariables
280
     0
  1
1
  0
DICTIONARYVAR
  5
17105
102
{ACAD_REACTORS
330
334C
102
}
330
334C
100
DictionaryVariables
280
     0
  1
0
  0
DICTIONARYVAR
  5
1017327
102
{ACAD_REACTORS
330
334C
102
}
330
334C
100
DictionaryVariables
280
     0
  1
1
  0
DICTIONARYVAR
  5
1017328
102
{ACAD_REACTORS
330
334C
102
}
330
334C
100
DictionaryVariables
280
     0
  1
15
  0
DICTIONARYVAR
  5
1017326
102
{ACAD_REACTORS
330
334C
102
}
330
334C
100
DictionaryVariables
280
     0
  1
0
  0
DICTIONARYVAR
  5
1017325
102
{ACAD_REACTORS
330
334C
102
}
330
334C
100
DictionaryVariables
280
     0
  1
0
  0
DICTIONARYVAR
  5
334F
102
{ACAD_REACTORS
330
334C
102
}
330
334C
100
DictionaryVariables
280
     0
  1

  0
DICTIONARYVAR
  5
17104
102
{ACAD_REACTORS
330
334C
102
}
330
334C
100
DictionaryVariables
280
     0
  1
127
  0
DICTIONARY
  5
1018F6C
102
{ACAD_REACTORS
330
1018F6A
102
}
330
1018F6A
100
AcDbDictionary
281
     1
  0
DICTIONARY
  5
1018F6B
102
{ACAD_REACTORS
330
1018F6A
102
}
330
1018F6A
100
AcDbDictionary
281
     1
  3
1246880976
350
1018F65
  3
1246880992
350
1018F66
  3
1246881008
350
1018F67
  3
1246881024
350
1018F68
  3
1246881040
350
1018F69
  0
DICTIONARY
  5
1018F9F
330
1017155
100
AcDbDictionary
280
     1
281
     1
  3
ACAD_XREC_ROUNDTRIP
360
1018FA0
  0
DICTIONARY
  5
16D20
330
16D1F
100
AcDbDictionary
280
     1
281
     1
  3
ACAD_XREC_ROUNDTRIP
360
1711B
  3
BUMPTILE
360
16D22
  3
DIFFUSETILE
360
16D21
  3
OPACITYTILE
360
16D25
  3
REFLECTIONTILE
360
16D24
  3
REFRACTIONTILE
360
16D26
  3
SPECULARTILE
360
16D23
  0
DICTIONARY
  5
16D18
330
16D17
100
AcDbDictionary
280
     1
281
     1
  3
ACAD_XREC_ROUNDTRIP
360
1711A
  3
BUMPTILE
360
16D1A
  3
DIFFUSETILE
360
16D19
  3
OPACITYTILE
360
16D1D
  3
REFLECTIONTILE
360
16D1C
  3
REFRACTIONTILE
360
16D1E
  3
SPECULARTILE
360
16D1B
  0
DICTIONARY
  5
16D28
330
16D27
100
AcDbDictionary
280
     1
281
     1
  3
ACAD_XREC_ROUNDTRIP
360
1711C
  3
BUMPTILE
360
16D2A
  3
DIFFUSETILE
360
16D29
  3
OPACITYTILE
360
16D2D
  3
REFLECTIONTILE
360
16D2C
  3
REFRACTIONTILE
360
16D2E
  3
SPECULARTILE
360
16D2B
  0
DICTIONARY
  5
1018F9D
330
1017153
100
AcDbDictionary
280
     1
281
     1
  3
ACAD_XREC_ROUNDTRIP
360
1018F9E
  0
DICTIONARY
  5
17107
330
2F44
100
AcDbDictionary
280
     1
281
     1
  3
ACAD_ROUNDTRIP_2008_TABLESTYLE_CELLSTYLEMAP
360
1018F63
  0
DICTIONARY
  5
1018F77
330
16D35
100
AcDbDictionary
280
     1
281
     1
  3
ACAD_XREC_ROUNDTRIP
360
1018F78
  0
DICTIONARY
  5
1018F75
330
16D34
100
AcDbDictionary
280
     1
281
     1
  3
ACAD_XREC_ROUNDTRIP
360
1018F76
  0
DICTIONARY
  5
1018F83
330
16D3B
100
AcDbDictionary
280
     1
281
     1
  3
ACAD_XREC_ROUNDTRIP
360
1018F84
  0
DICTIONARY
  5
1018F8B
330
16D3F
100
AcDbDictionary
280
     1
281
     1
  3
ACAD_XREC_ROUNDTRIP
360
1018F8C
  0
DICTIONARY
  5
1018F7D
330
16D38
100
AcDbDictionary
280
     1
281
     1
  3
ACAD_XREC_ROUNDTRIP
360
1018F7E
  0
DICTIONARY
  5
1018F81
330
16D3A
100
AcDbDictionary
280
     1
281
     1
  3
ACAD_XREC_ROUNDTRIP
360
1018F82
  0
DICTIONARY
  5
1018F9B
330
16D47
100
AcDbDictionary
280
     1
281
     1
  3
ACAD_XREC_ROUNDTRIP
360
1018F9C
  0
DICTIONARY
  5
1018F89
330
16D3E
100
AcDbDictionary
280
     1
281
     1
  3
ACAD_XREC_ROUNDTRIP
360
1018F8A
  0
DICTIONARY
  5
1018F6D
330
16D30
100
AcDbDictionary
280
     1
281
     1
  3
ACAD_XREC_ROUNDTRIP
360
1018F6E
  0
DICTIONARY
  5
1018F6F
330
16D31
100
AcDbDictionary
280
     1
281
     1
  3
ACAD_XREC_ROUNDTRIP
360
1018F70
  0
DICTIONARY
  5
1018F71
330
16D32
100
AcDbDictionary
280
     1
281
     1
  3
ACAD_XREC_ROUNDTRIP
360
1018F72
  0
DICTIONARY
  5
1018F73
330
16D33
100
AcDbDictionary
280
     1
281
     1
  3
ACAD_XREC_ROUNDTRIP
360
1018F74
  0
DICTIONARY
  5
1018F7B
330
16D37
100
AcDbDictionary
280
     1
281
     1
  3
ACAD_XREC_ROUNDTRIP
360
1018F7C
  0
DICTIONARY
  5
1018F97
330
16D45
100
AcDbDictionary
280
     1
281
     1
  3
ACAD_XREC_ROUNDTRIP
360
1018F98
  0
DICTIONARY
  5
1018F87
330
16D3D
100
AcDbDictionary
280
     1
281
     1
  3
ACAD_XREC_ROUNDTRIP
360
1018F88
  0
DICTIONARY
  5
1018F99
330
16D46
100
AcDbDictionary
280
     1
281
     1
  3
ACAD_XREC_ROUNDTRIP
360
1018F9A
  0
DICTIONARY
  5
1018F7F
330
16D39
100
AcDbDictionary
280
     1
281
     1
  3
ACAD_XREC_ROUNDTRIP
360
1018F80
  0
DICTIONARY
  5
1018F95
330
16D44
100
AcDbDictionary
280
     1
281
     1
  3
ACAD_XREC_ROUNDTRIP
360
1018F96
  0
DICTIONARY
  5
1018F93
330
16D43
100
AcDbDictionary
280
     1
281
     1
  3
ACAD_XREC_ROUNDTRIP
360
1018F94
  0
DICTIONARY
  5
1018F8D
330
16D40
100
AcDbDictionary
280
     1
281
     1
  3
ACAD_XREC_ROUNDTRIP
360
1018F8E
  0
DICTIONARY
  5
1018F8F
330
16D41
100
AcDbDictionary
280
     1
281
     1
  3
ACAD_XREC_ROUNDTRIP
360
1018F90
  0
DICTIONARY
  5
1018F85
330
16D3C
100
AcDbDictionary
280
     1
281
     1
  3
ACAD_XREC_ROUNDTRIP
360
1018F86
  0
DICTIONARY
  5
1018F79
330
16D36
100
AcDbDictionary
280
     1
281
     1
  3
ACAD_XREC_ROUNDTRIP
360
1018F7A
  0
DICTIONARY
  5
1018F91
330
16D42
100
AcDbDictionary
280
     1
281
     1
  3
ACAD_XREC_ROUNDTRIP
360
1018F92
  0
XRECORD
  5
1018F65
102
{ACAD_REACTORS
330
1018F6B
102
}
330
1018F6B
100
AcDbXrecord
280
     1
  1
AcDb_Thumbnail_Schema
102
{ATTRRECORD
341
1018F66
  2
AcDbDs::TreatedAsObjectData
280
     1
291
     1
102
ATTRRECORD}
102
{ATTRRECORD
341
1018F67
  2
AcDbDs::Legacy
280
     1
291
     1
102
ATTRRECORD}
  2
AcDbDs::ID
280
    10
 91
        8
102
{ATTRRECORD
341
1018F68
  2
AcDs:Indexable
280
     1
291
     1
102
ATTRRECORD}
102
{ATTRRECORD
341
1018F69
  2
AcDbDs::HandleAttribute
280
     7
282
     1
102
ATTRRECORD}
  2
Thumbnail_Data
280
    15
 91
        0
  0
XRECORD
  5
1018F66
102
{ACAD_REACTORS
330
1018F6B
102
}
330
1018F6B
100
AcDbXrecord
280
     1
  1
AcDbDs::TreatedAsObjectDataSchema
  2
AcDbDs::TreatedAsObjectData
280
     1
 91
        0
  0
XRECORD
  5
1018F67
102
{ACAD_REACTORS
330
1018F6B
102
}
330
1018F6B
100
AcDbXrecord
280
     1
  1
AcDbDs::LegacySchema
  2
AcDbDs::Legacy
280
     1
 91
        0
  0
XRECORD
  5
1018F68
102
{ACAD_REACTORS
330
1018F6B
102
}
330
1018F6B
100
AcDbXrecord
280
     1
  1
AcDbDs::IndexedPropertySchema
  2
AcDs:Indexable
280
     1
 91
        0
  0
XRECORD
  5
1018F69
102
{ACAD_REACTORS
330
1018F6B
102
}
330
1018F6B
100
AcDbXrecord
280
     1
  1
AcDbDs::HandleAttributeSchema
  2
AcDbDs::HandleAttribute
280
     7
 91
        1
284
     1
  0
XRECORD
  5
1018FA0
102
{ACAD_REACTORS
330
1018F9F
102
}
330
1018F9F
100
AcDbXrecord
280
     1
102
DISPLAYNAME
  1
Metric50
102
FLAGS
 90
        0
  0
XRECORD
  5
1711B
102
{ACAD_REACTORS
330
16D20
102
}
330
16D20
100
AcDbXrecord
280
     1
102
MATERIAL
148
0.0
149
0.0
149
0.0
 93
        0
 94
      127
282
     0
 72
     0
 77
     0
171
     0
175
     0
179
     0
273
     0
  0
XRECORD
  5
16D22
102
{ACAD_REACTORS
330
16D20
102
}
330
16D20
100
AcDbXrecord
280
     1
270
     1
271
     1
  0
XRECORD
  5
16D21
102
{ACAD_REACTORS
330
16D20
102
}
330
16D20
100
AcDbXrecord
280
     1
270
     1
271
     1
  0
XRECORD
  5
16D25
102
{ACAD_REACTORS
330
16D20
102
}
330
16D20
100
AcDbXrecord
280
     1
270
     1
271
     1
  0
XRECORD
  5
16D24
102
{ACAD_REACTORS
330
16D20
102
}
330
16D20
100
AcDbXrecord
280
     1
270
     1
271
     1
  0
XRECORD
  5
16D26
102
{ACAD_REACTORS
330
16D20
102
}
330
16D20
100
AcDbXrecord
280
     1
270
     1
271
     1
  0
XRECORD
  5
16D23
102
{ACAD_REACTORS
330
16D20
102
}
330
16D20
100
AcDbXrecord
280
     1
270
     1
271
     1
  0
XRECORD
  5
1711A
102
{ACAD_REACTORS
330
16D18
102
}
330
16D18
100
AcDbXrecord
280
     1
102
MATERIAL
148
0.0
149
0.0
149
0.0
 93
        0
 94
      127
282
     0
 72
     0
 77
     0
171
     0
175
     0
179
     0
273
     0
  0
XRECORD
  5
16D1A
102
{ACAD_REACTORS
330
16D18
102
}
330
16D18
100
AcDbXrecord
280
     1
270
     1
271
     1
  0
XRECORD
  5
16D19
102
{ACAD_REACTORS
330
16D18
102
}
330
16D18
100
AcDbXrecord
280
     1
270
     1
271
     1
  0
XRECORD
  5
16D1D
102
{ACAD_REACTORS
330
16D18
102
}
330
16D18
100
AcDbXrecord
280
     1
270
     1
271
     1
  0
XRECORD
  5
16D1C
102
{ACAD_REACTORS
330
16D18
102
}
330
16D18
100
AcDbXrecord
280
     1
270
     1
271
     1
  0
XRECORD
  5
16D1E
102
{ACAD_REACTORS
330
16D18
102
}
330
16D18
100
AcDbXrecord
280
     1
270
     1
271
     1
  0
XRECORD
  5
16D1B
102
{ACAD_REACTORS
330
16D18
102
}
330
16D18
100
AcDbXrecord
280
     1
270
     1
271
     1
  0
XRECORD
  5
1711C
102
{ACAD_REACTORS
330
16D28
102
}
330
16D28
100
AcDbXrecord
280
     1
102
MATERIAL
148
0.0
149
0.0
149
0.0
 93
        0
 94
      127
282
     0
 72
     0
 77
     0
171
     0
175
     0
179
     0
273
     0
  0
XRECORD
  5
16D2A
102
{ACAD_REACTORS
330
16D28
102
}
330
16D28
100
AcDbXrecord
280
     1
270
     1
271
     1
  0
XRECORD
  5
16D29
102
{ACAD_REACTORS
330
16D28
102
}
330
16D28
100
AcDbXrecord
280
     1
270
     1
271
     1
  0
XRECORD
  5
16D2D
102
{ACAD_REACTORS
330
16D28
102
}
330
16D28
100
AcDbXrecord
280
     1
270
     1
271
     1
  0
XRECORD
  5
16D2C
102
{ACAD_REACTORS
330
16D28
102
}
330
16D28
100
AcDbXrecord
280
     1
270
     1
271
     1
  0
XRECORD
  5
16D2E
102
{ACAD_REACTORS
330
16D28
102
}
330
16D28
100
AcDbXrecord
280
     1
270
     1
271
     1
  0
XRECORD
  5
16D2B
102
{ACAD_REACTORS
330
16D28
102
}
330
16D28
100
AcDbXrecord
280
     1
270
     1
271
     1
  0
XRECORD
  5
1018F9E
102
{ACAD_REACTORS
330
1018F9D
102
}
330
1018F9D
100
AcDbXrecord
280
     1
102
DISPLAYNAME
  1
Metric50
102
FLAGS
 90
        0
  0
CELLSTYLEMAP
  5
1018F63
102
{ACAD_REACTORS
330
17107
102
}
330
17107
100
AcDbCellStyleMap
 90
        3
300
CELLSTYLE
  1
TABLEFORMAT_BEGIN
 90
        5
170
     1
 91
        0
 92
    32768
 62
   257
 93
        1
300
CONTENTFORMAT
  1
CONTENTFORMAT_BEGIN
 90
        0
 91
        0
 92
        4
 93
        0
300

 40
0.0
140
1.0
 94
        5
 62
     0
340
17
144
6.0
309
CONTENTFORMAT_END
171
     1
301
MARGIN
  1
CELLMARGIN_BEGIN
 40
1.5
 40
1.5
 40
1.5
 40
1.5
 40
0.18
 40
0.18
309
CELLMARGIN_END
 94
        6
 95
        1
302
GRIDFORMAT
  1
GRIDFORMAT_BEGIN
 90
        0
 91
        1
 62
     0
 92
       -2
340
0
 93
        0
 40
0.045
309
GRIDFORMAT_END
 95
        2
302
GRIDFORMAT
  1
GRIDFORMAT_BEGIN
 90
        0
 91
        1
 62
     0
 92
       -2
340
0
 93
        0
 40
0.045
309
GRIDFORMAT_END
 95
        4
302
GRIDFORMAT
  1
GRIDFORMAT_BEGIN
 90
        0
 91
        1
 62
     0
 92
       -2
340
0
 93
        0
 40
0.045
309
GRIDFORMAT_END
 95
        8
302
GRIDFORMAT
  1
GRIDFORMAT_BEGIN
 90
        0
 91
        1
 62
     0
 92
       -2
340
0
 93
        0
 40
0.045
309
GRIDFORMAT_END
 95
       16
302
GRIDFORMAT
  1
GRIDFORMAT_BEGIN
 90
        0
 91
        1
 62
     0
 92
       -2
340
0
 93
        0
 40
0.045
309
GRIDFORMAT_END
 95
       32
302
GRIDFORMAT
  1
GRIDFORMAT_BEGIN
 90
        0
 91
        1
 62
     0
 92
       -2
340
0
 93
        0
 40
0.045
309
GRIDFORMAT_END
309
TABLEFORMAT_END
  1
CELLSTYLE_BEGIN
 90
        1
 91
        1
300
_TITLE
309
CELLSTYLE_END
300
CELLSTYLE
  1
TABLEFORMAT_BEGIN
 90
        5
170
     1
 91
        0
 92
        0
 62
   257
 93
        1
300
CONTENTFORMAT
  1
CONTENTFORMAT_BEGIN
 90
        0
 91
        0
 92
        4
 93
        0
300

 40
0.0
140
1.0
 94
        5
 62
     0
340
17
144
4.5
309
CONTENTFORMAT_END
171
     1
301
MARGIN
  1
CELLMARGIN_BEGIN
 40
1.5
 40
1.5
 40
1.5
 40
1.5
 40
0.18
 40
0.18
309
CELLMARGIN_END
 94
        6
 95
        1
302
GRIDFORMAT
  1
GRIDFORMAT_BEGIN
 90
        0
 91
        1
 62
     0
 92
       -2
340
0
 93
        0
 40
0.045
309
GRIDFORMAT_END
 95
        2
302
GRIDFORMAT
  1
GRIDFORMAT_BEGIN
 90
        0
 91
        1
 62
     0
 92
       -2
340
0
 93
        0
 40
0.045
309
GRIDFORMAT_END
 95
        4
302
GRIDFORMAT
  1
GRIDFORMAT_BEGIN
 90
        0
 91
        1
 62
     0
 92
       -2
340
0
 93
        0
 40
0.045
309
GRIDFORMAT_END
 95
        8
302
GRIDFORMAT
  1
GRIDFORMAT_BEGIN
 90
        0
 91
        1
 62
     0
 92
       -2
340
0
 93
        0
 40
0.045
309
GRIDFORMAT_END
 95
       16
302
GRIDFORMAT
  1
GRIDFORMAT_BEGIN
 90
        0
 91
        1
 62
     0
 92
       -2
340
0
 93
        0
 40
0.045
309
GRIDFORMAT_END
 95
       32
302
GRIDFORMAT
  1
GRIDFORMAT_BEGIN
 90
        0
 91
        1
 62
     0
 92
       -2
340
0
 93
        0
 40
0.045
309
GRIDFORMAT_END
309
TABLEFORMAT_END
  1
CELLSTYLE_BEGIN
 90
        2
 91
        1
300
_HEADER
309
CELLSTYLE_END
300
CELLSTYLE
  1
TABLEFORMAT_BEGIN
 90
        5
170
     1
 91
        0
 92
        0
 62
   257
 93
        1
300
CONTENTFORMAT
  1
CONTENTFORMAT_BEGIN
 90
        0
 91
        0
 92
        4
 93
        0
300

 40
0.0
140
1.0
 94
        2
 62
     0
340
17
144
4.5
309
CONTENTFORMAT_END
171
     1
301
MARGIN
  1
CELLMARGIN_BEGIN
 40
1.5
 40
1.5
 40
1.5
 40
1.5
 40
0.18
 40
0.18
309
CELLMARGIN_END
 94
        6
 95
        1
302
GRIDFORMAT
  1
GRIDFORMAT_BEGIN
 90
        0
 91
        1
 62
     0
 92
       -2
340
0
 93
        0
 40
0.045
309
GRIDFORMAT_END
 95
        2
302
GRIDFORMAT
  1
GRIDFORMAT_BEGIN
 90
        0
 91
        1
 62
     0
 92
       -2
340
0
 93
        0
 40
0.045
309
GRIDFORMAT_END
 95
        4
302
GRIDFORMAT
  1
GRIDFORMAT_BEGIN
 90
        0
 91
        1
 62
     0
 92
       -2
340
0
 93
        0
 40
0.045
309
GRIDFORMAT_END
 95
        8
302
GRIDFORMAT
  1
GRIDFORMAT_BEGIN
 90
        0
 91
        1
 62
     0
 92
       -2
340
0
 93
        0
 40
0.045
309
GRIDFORMAT_END
 95
       16
302
GRIDFORMAT
  1
GRIDFORMAT_BEGIN
 90
        0
 91
        1
 62
     0
 92
       -2
340
0
 93
        0
 40
0.045
309
GRIDFORMAT_END
 95
       32
302
GRIDFORMAT
  1
GRIDFORMAT_BEGIN
 90
        0
 91
        1
 62
     0
 92
       -2
340
0
 93
        0
 40
0.045
309
GRIDFORMAT_END
309
TABLEFORMAT_END
  1
CELLSTYLE_BEGIN
 90
        3
 91
        2
300
_DATA
309
CELLSTYLE_END
  0
XRECORD
  5
1018F78
102
{ACAD_REACTORS
330
1018F77
102
}
330
1018F77
100
AcDbXrecord
280
     1
102
RTVSPost2010Prop28
280
     1
102
RTVSPost2010PropOp28
 70
     1
102
RTVSPost2010Prop29
280
     1
102
RTVSPost2010PropOp29
 70
     1
102
RTVSPost2010Prop30
280
     0
102
RTVSPost2010PropOp30
 70
     1
102
RTVSPost2010Prop31
280
     0
102
RTVSPost2010PropOp31
 70
     1
102
RTVSPost2010Prop32
280
     0
102
RTVSPost2010PropOp32
 70
     1
102
RTVSPost2010Prop33
280
     0
102
RTVSPost2010PropOp33
 70
     1
102
RTVSPost2010Prop34
280
     0
102
RTVSPost2010PropOp34
 70
     1
102
RTVSPost2010Prop35
280
     0
102
RTVSPost2010PropOp35
 70
     1
102
RTVSPost2010Prop36
280
     0
102
RTVSPost2010PropOp36
 70
     1
102
RTVSPost2010Prop37
 90
       50
102
RTVSPost2010PropOp37
 70
     1
102
RTVSPost2010Prop38
140
0.0
102
RTVSPost2010PropOp38
 70
     1
102
RTVSPost2010Prop39
140
1.0
102
RTVSPost2010PropOp39
 70
     1
102
RTVSPost2010Prop40
 90
        0
102
RTVSPost2010PropOp40
 70
     1
102
RTVSPost2010Prop41ColorIndex
 90
       18
102
RTVSPost2010Prop41ColorRGB
 90
        0
102
RTVSPost2010PropOp41
 70
     1
102
RTVSPost2010Prop42
 90
       50
102
RTVSPost2010PropOp42
 70
     1
102
RTVSPost2010Prop43
 90
        3
102
RTVSPost2010PropOp43
 70
     1
102
RTVSPost2010Prop44ColorIndex
 90
        5
102
RTVSPost2010Prop44ColorRGB
 90
      255
102
RTVSPost2010PropOp44
 70
     1
102
RTVSPost2010Prop45
280
     0
102
RTVSPost2010PropOp45
 70
     1
102
RTVSPost2010Prop46
 90
       50
102
RTVSPost2010PropOp46
 70
     1
102
RTVSPost2010Prop47
 90
       50
102
RTVSPost2010PropOp47
 70
     1
102
RTVSPost2010Prop48
 90
       50
102
RTVSPost2010PropOp48
 70
     1
102
RTVSPost2010Prop49
280
     0
102
RTVSPost2010PropOp49
 70
     1
102
RTVSPost2010Prop50
 90
       50
102
RTVSPost2010PropOp50
 70
     1
102
RTVSPost2010Prop51ColorIndex
 90
      256
102
RTVSPost2010Prop51ColorRGB
 90
-16777216
102
RTVSPost2010PropOp51
 70
     0
102
RTVSPost2010Prop52
140
1.0
102
RTVSPost2010PropOp52
 70
     0
102
RTVSPost2010Prop53
 90
        2
102
RTVSPost2010PropOp53
 70
     1
102
RTVSPost2010Prop54
  1
strokes_ogs.tif
102
RTVSPost2010PropOp54
 70
     1
102
RTVSPost2010Prop55
280
     0
102
RTVSPost2010PropOp55
 70
     1
102
RTVSPost2010Prop56
140
1.0
102
RTVSPost2010PropOp56
 70
     1
102
RTVSPost2010Prop57
140
1.0
102
RTVSPost2010PropOp57
 70
     1
  0
XRECORD
  5
1018F76
102
{ACAD_REACTORS
330
1018F75
102
}
330
1018F75
100
AcDbXrecord
280
     1
102
RTVSPost2010Prop28
280
     0
102
RTVSPost2010PropOp28
 70
     1
102
RTVSPost2010Prop29
280
     1
102
RTVSPost2010PropOp29
 70
     1
102
RTVSPost2010Prop30
280
     1
102
RTVSPost2010PropOp30
 70
     1
102
RTVSPost2010Prop31
280
     0
102
RTVSPost2010PropOp31
 70
     1
102
RTVSPost2010Prop32
280
     0
102
RTVSPost2010PropOp32
 70
     1
102
RTVSPost2010Prop33
280
     0
102
RTVSPost2010PropOp33
 70
     1
102
RTVSPost2010Prop34
280
     0
102
RTVSPost2010PropOp34
 70
     1
102
RTVSPost2010Prop35
280
     0
102
RTVSPost2010PropOp35
 70
     1
102
RTVSPost2010Prop36
280
     0
102
RTVSPost2010PropOp36
 70
     1
102
RTVSPost2010Prop37
 90
       50
102
RTVSPost2010PropOp37
 70
     1
102
RTVSPost2010Prop38
140
0.0
102
RTVSPost2010PropOp38
 70
     1
102
RTVSPost2010Prop39
140
1.0
102
RTVSPost2010PropOp39
 70
     1
102
RTVSPost2010Prop40
 90
        0
102
RTVSPost2010PropOp40
 70
     1
102
RTVSPost2010Prop41ColorIndex
 90
       18
102
RTVSPost2010Prop41ColorRGB
 90
        0
102
RTVSPost2010PropOp41
 70
     1
102
RTVSPost2010Prop42
 90
       50
102
RTVSPost2010PropOp42
 70
     1
102
RTVSPost2010Prop43
 90
        3
102
RTVSPost2010PropOp43
 70
     1
102
RTVSPost2010Prop44ColorIndex
 90
        5
102
RTVSPost2010Prop44ColorRGB
 90
      255
102
RTVSPost2010PropOp44
 70
     1
102
RTVSPost2010Prop45
280
     0
102
RTVSPost2010PropOp45
 70
     1
102
RTVSPost2010Prop46
 90
       50
102
RTVSPost2010PropOp46
 70
     1
102
RTVSPost2010Prop47
 90
       50
102
RTVSPost2010PropOp47
 70
     1
102
RTVSPost2010Prop48
 90
       50
102
RTVSPost2010PropOp48
 70
     1
102
RTVSPost2010Prop49
280
     0
102
RTVSPost2010PropOp49
 70
     1
102
RTVSPost2010Prop50
 90
       50
102
RTVSPost2010PropOp50
 70
     1
102
RTVSPost2010Prop51ColorIndex
 90
      256
102
RTVSPost2010Prop51ColorRGB
 90
-16777216
102
RTVSPost2010PropOp51
 70
     0
102
RTVSPost2010Prop52
140
1.0
102
RTVSPost2010PropOp52
 70
     0
102
RTVSPost2010Prop53
 90
        2
102
RTVSPost2010PropOp53
 70
     1
102
RTVSPost2010Prop54
  1
strokes_ogs.tif
102
RTVSPost2010PropOp54
 70
     1
102
RTVSPost2010Prop55
280
     0
102
RTVSPost2010PropOp55
 70
     1
102
RTVSPost2010Prop56
140
1.0
102
RTVSPost2010PropOp56
 70
     1
102
RTVSPost2010Prop57
140
1.0
102
RTVSPost2010PropOp57
 70
     1
  0
XRECORD
  5
1018F84
102
{ACAD_REACTORS
330
1018F83
102
}
330
1018F83
100
AcDbXrecord
280
     1
102
RTVSPost2010Prop28
280
     0
102
RTVSPost2010PropOp28
 70
     1
102
RTVSPost2010Prop29
280
     1
102
RTVSPost2010PropOp29
 70
     1
102
RTVSPost2010Prop30
280
     1
102
RTVSPost2010PropOp30
 70
     1
102
RTVSPost2010Prop31
280
     0
102
RTVSPost2010PropOp31
 70
     1
102
RTVSPost2010Prop32
280
     0
102
RTVSPost2010PropOp32
 70
     1
102
RTVSPost2010Prop33
280
     0
102
RTVSPost2010PropOp33
 70
     1
102
RTVSPost2010Prop34
280
     0
102
RTVSPost2010PropOp34
 70
     1
102
RTVSPost2010Prop35
280
     0
102
RTVSPost2010PropOp35
 70
     1
102
RTVSPost2010Prop36
280
     0
102
RTVSPost2010PropOp36
 70
     1
102
RTVSPost2010Prop37
 90
       50
102
RTVSPost2010PropOp37
 70
     1
102
RTVSPost2010Prop38
140
0.0
102
RTVSPost2010PropOp38
 70
     1
102
RTVSPost2010Prop39
140
1.0
102
RTVSPost2010PropOp39
 70
     1
102
RTVSPost2010Prop40
 90
        0
102
RTVSPost2010PropOp40
 70
     1
102
RTVSPost2010Prop41ColorIndex
 90
       18
102
RTVSPost2010Prop41ColorRGB
 90
        0
102
RTVSPost2010PropOp41
 70
     1
102
RTVSPost2010Prop42
 90
       50
102
RTVSPost2010PropOp42
 70
     1
102
RTVSPost2010Prop43
 90
        3
102
RTVSPost2010PropOp43
 70
     1
102
RTVSPost2010Prop44ColorIndex
 90
        5
102
RTVSPost2010Prop44ColorRGB
 90
      255
102
RTVSPost2010PropOp44
 70
     1
102
RTVSPost2010Prop45
280
     0
102
RTVSPost2010PropOp45
 70
     1
102
RTVSPost2010Prop46
 90
       50
102
RTVSPost2010PropOp46
 70
     1
102
RTVSPost2010Prop47
 90
       50
102
RTVSPost2010PropOp47
 70
     1
102
RTVSPost2010Prop48
 90
       50
102
RTVSPost2010PropOp48
 70
     1
102
RTVSPost2010Prop49
280
     0
102
RTVSPost2010PropOp49
 70
     1
102
RTVSPost2010Prop50
 90
       50
102
RTVSPost2010PropOp50
 70
     1
102
RTVSPost2010Prop51ColorIndex
 90
      256
102
RTVSPost2010Prop51ColorRGB
 90
-16777216
102
RTVSPost2010PropOp51
 70
     0
102
RTVSPost2010Prop52
140
1.0
102
RTVSPost2010PropOp52
 70
     0
102
RTVSPost2010Prop53
 90
        2
102
RTVSPost2010PropOp53
 70
     1
102
RTVSPost2010Prop54
  1
strokes_ogs.tif
102
RTVSPost2010PropOp54
 70
     1
102
RTVSPost2010Prop55
280
     0
102
RTVSPost2010PropOp55
 70
     1
102
RTVSPost2010Prop56
140
1.0
102
RTVSPost2010PropOp56
 70
     1
102
RTVSPost2010Prop57
140
1.0
102
RTVSPost2010PropOp57
 70
     1
  0
XRECORD
  5
1018F8C
102
{ACAD_REACTORS
330
1018F8B
102
}
330
1018F8B
100
AcDbXrecord
280
     1
102
RTVSPost2010Prop28
280
     0
102
RTVSPost2010PropOp28
 70
     1
102
RTVSPost2010Prop29
280
     1
102
RTVSPost2010PropOp29
 70
     1
102
RTVSPost2010Prop30
280
     1
102
RTVSPost2010PropOp30
 70
     1
102
RTVSPost2010Prop31
280
     0
102
RTVSPost2010PropOp31
 70
     1
102
RTVSPost2010Prop32
280
     0
102
RTVSPost2010PropOp32
 70
     1
102
RTVSPost2010Prop33
280
     0
102
RTVSPost2010PropOp33
 70
     1
102
RTVSPost2010Prop34
280
     0
102
RTVSPost2010PropOp34
 70
     1
102
RTVSPost2010Prop35
280
     0
102
RTVSPost2010PropOp35
 70
     1
102
RTVSPost2010Prop36
280
     0
102
RTVSPost2010PropOp36
 70
     1
102
RTVSPost2010Prop37
 90
       50
102
RTVSPost2010PropOp37
 70
     1
102
RTVSPost2010Prop38
140
0.0
102
RTVSPost2010PropOp38
 70
     1
102
RTVSPost2010Prop39
140
1.0
102
RTVSPost2010PropOp39
 70
     1
102
RTVSPost2010Prop40
 90
        0
102
RTVSPost2010PropOp40
 70
     1
102
RTVSPost2010Prop41ColorIndex
 90
       18
102
RTVSPost2010Prop41ColorRGB
 90
        0
102
RTVSPost2010PropOp41
 70
     1
102
RTVSPost2010Prop42
 90
       50
102
RTVSPost2010PropOp42
 70
     1
102
RTVSPost2010Prop43
 90
        3
102
RTVSPost2010PropOp43
 70
     1
102
RTVSPost2010Prop44ColorIndex
 90
        5
102
RTVSPost2010Prop44ColorRGB
 90
      255
102
RTVSPost2010PropOp44
 70
     1
102
RTVSPost2010Prop45
280
     0
102
RTVSPost2010PropOp45
 70
     1
102
RTVSPost2010Prop46
 90
       50
102
RTVSPost2010PropOp46
 70
     1
102
RTVSPost2010Prop47
 90
       50
102
RTVSPost2010PropOp47
 70
     1
102
RTVSPost2010Prop48
 90
       50
102
RTVSPost2010PropOp48
 70
     1
102
RTVSPost2010Prop49
280
     0
102
RTVSPost2010PropOp49
 70
     1
102
RTVSPost2010Prop50
 90
       50
102
RTVSPost2010PropOp50
 70
     1
102
RTVSPost2010Prop51ColorIndex
 90
      256
102
RTVSPost2010Prop51ColorRGB
 90
-16777216
102
RTVSPost2010PropOp51
 70
     0
102
RTVSPost2010Prop52
140
1.0
102
RTVSPost2010PropOp52
 70
     0
102
RTVSPost2010Prop53
 90
        2
102
RTVSPost2010PropOp53
 70
     1
102
RTVSPost2010Prop54
  1
strokes_ogs.tif
102
RTVSPost2010PropOp54
 70
     1
102
RTVSPost2010Prop55
280
     0
102
RTVSPost2010PropOp55
 70
     1
102
RTVSPost2010Prop56
140
1.0
102
RTVSPost2010PropOp56
 70
     1
102
RTVSPost2010Prop57
140
1.0
102
RTVSPost2010PropOp57
 70
     1
  0
XRECORD
  5
1018F7E
102
{ACAD_REACTORS
330
1018F7D
102
}
330
1018F7D
100
AcDbXrecord
280
     1
102
RTVSPost2010Prop28
280
     0
102
RTVSPost2010PropOp28
 70
     1
102
RTVSPost2010Prop29
280
     1
102
RTVSPost2010PropOp29
 70
     1
102
RTVSPost2010Prop30
280
     1
102
RTVSPost2010PropOp30
 70
     1
102
RTVSPost2010Prop31
280
     0
102
RTVSPost2010PropOp31
 70
     1
102
RTVSPost2010Prop32
280
     0
102
RTVSPost2010PropOp32
 70
     1
102
RTVSPost2010Prop33
280
     0
102
RTVSPost2010PropOp33
 70
     1
102
RTVSPost2010Prop34
280
     0
102
RTVSPost2010PropOp34
 70
     1
102
RTVSPost2010Prop35
280
     0
102
RTVSPost2010PropOp35
 70
     1
102
RTVSPost2010Prop36
280
     0
102
RTVSPost2010PropOp36
 70
     1
102
RTVSPost2010Prop37
 90
       50
102
RTVSPost2010PropOp37
 70
     1
102
RTVSPost2010Prop38
140
0.0
102
RTVSPost2010PropOp38
 70
     1
102
RTVSPost2010Prop39
140
1.0
102
RTVSPost2010PropOp39
 70
     1
102
RTVSPost2010Prop40
 90
        0
102
RTVSPost2010PropOp40
 70
     1
102
RTVSPost2010Prop41ColorIndex
 90
       18
102
RTVSPost2010Prop41ColorRGB
 90
        0
102
RTVSPost2010PropOp41
 70
     1
102
RTVSPost2010Prop42
 90
       50
102
RTVSPost2010PropOp42
 70
     1
102
RTVSPost2010Prop43
 90
        3
102
RTVSPost2010PropOp43
 70
     1
102
RTVSPost2010Prop44ColorIndex
 90
        5
102
RTVSPost2010Prop44ColorRGB
 90
      255
102
RTVSPost2010PropOp44
 70
     1
102
RTVSPost2010Prop45
280
     0
102
RTVSPost2010PropOp45
 70
     1
102
RTVSPost2010Prop46
 90
       50
102
RTVSPost2010PropOp46
 70
     1
102
RTVSPost2010Prop47
 90
       50
102
RTVSPost2010PropOp47
 70
     1
102
RTVSPost2010Prop48
 90
       50
102
RTVSPost2010PropOp48
 70
     1
102
RTVSPost2010Prop49
280
     0
102
RTVSPost2010PropOp49
 70
     1
102
RTVSPost2010Prop50
 90
       50
102
RTVSPost2010PropOp50
 70
     1
102
RTVSPost2010Prop51ColorIndex
 90
      256
102
RTVSPost2010Prop51ColorRGB
 90
-16777216
102
RTVSPost2010PropOp51
 70
     0
102
RTVSPost2010Prop52
140
1.0
102
RTVSPost2010PropOp52
 70
     0
102
RTVSPost2010Prop53
 90
        2
102
RTVSPost2010PropOp53
 70
     1
102
RTVSPost2010Prop54
  1
strokes_ogs.tif
102
RTVSPost2010PropOp54
 70
     1
102
RTVSPost2010Prop55
280
     0
102
RTVSPost2010PropOp55
 70
     1
102
RTVSPost2010Prop56
140
1.0
102
RTVSPost2010PropOp56
 70
     1
102
RTVSPost2010Prop57
140
1.0
102
RTVSPost2010PropOp57
 70
     1
  0
XRECORD
  5
1018F82
102
{ACAD_REACTORS
330
1018F81
102
}
330
1018F81
100
AcDbXrecord
280
     1
102
RTVSPost2010Prop28
280
     0
102
RTVSPost2010PropOp28
 70
     1
102
RTVSPost2010Prop29
280
     1
102
RTVSPost2010PropOp29
 70
     1
102
RTVSPost2010Prop30
280
     1
102
RTVSPost2010PropOp30
 70
     1
102
RTVSPost2010Prop31
280
     0
102
RTVSPost2010PropOp31
 70
     1
102
RTVSPost2010Prop32
280
     0
102
RTVSPost2010PropOp32
 70
     1
102
RTVSPost2010Prop33
280
     0
102
RTVSPost2010PropOp33
 70
     1
102
RTVSPost2010Prop34
280
     0
102
RTVSPost2010PropOp34
 70
     1
102
RTVSPost2010Prop35
280
     0
102
RTVSPost2010PropOp35
 70
     1
102
RTVSPost2010Prop36
280
     0
102
RTVSPost2010PropOp36
 70
     1
102
RTVSPost2010Prop37
 90
       50
102
RTVSPost2010PropOp37
 70
     1
102
RTVSPost2010Prop38
140
0.0
102
RTVSPost2010PropOp38
 70
     1
102
RTVSPost2010Prop39
140
1.0
102
RTVSPost2010PropOp39
 70
     1
102
RTVSPost2010Prop40
 90
        0
102
RTVSPost2010PropOp40
 70
     1
102
RTVSPost2010Prop41ColorIndex
 90
       18
102
RTVSPost2010Prop41ColorRGB
 90
        0
102
RTVSPost2010PropOp41
 70
     1
102
RTVSPost2010Prop42
 90
       50
102
RTVSPost2010PropOp42
 70
     1
102
RTVSPost2010Prop43
 90
        3
102
RTVSPost2010PropOp43
 70
     1
102
RTVSPost2010Prop44ColorIndex
 90
        5
102
RTVSPost2010Prop44ColorRGB
 90
      255
102
RTVSPost2010PropOp44
 70
     1
102
RTVSPost2010Prop45
280
     0
102
RTVSPost2010PropOp45
 70
     1
102
RTVSPost2010Prop46
 90
       50
102
RTVSPost2010PropOp46
 70
     1
102
RTVSPost2010Prop47
 90
       50
102
RTVSPost2010PropOp47
 70
     1
102
RTVSPost2010Prop48
 90
       50
102
RTVSPost2010PropOp48
 70
     1
102
RTVSPost2010Prop49
280
     0
102
RTVSPost2010PropOp49
 70
     1
102
RTVSPost2010Prop50
 90
       50
102
RTVSPost2010PropOp50
 70
     1
102
RTVSPost2010Prop51ColorIndex
 90
      256
102
RTVSPost2010Prop51ColorRGB
 90
-16777216
102
RTVSPost2010PropOp51
 70
     0
102
RTVSPost2010Prop52
140
1.0
102
RTVSPost2010PropOp52
 70
     0
102
RTVSPost2010Prop53
 90
        2
102
RTVSPost2010PropOp53
 70
     1
102
RTVSPost2010Prop54
  1
strokes_ogs.tif
102
RTVSPost2010PropOp54
 70
     1
102
RTVSPost2010Prop55
280
     0
102
RTVSPost2010PropOp55
 70
     1
102
RTVSPost2010Prop56
140
1.0
102
RTVSPost2010PropOp56
 70
     1
102
RTVSPost2010Prop57
140
1.0
102
RTVSPost2010PropOp57
 70
     1
  0
XRECORD
  5
1018F9C
102
{ACAD_REACTORS
330
1018F9B
102
}
330
1018F9B
100
AcDbXrecord
280
     1
102
RTVSPost2010Prop28
280
     0
102
RTVSPost2010PropOp28
 70
     0
102
RTVSPost2010Prop29
280
     1
102
RTVSPost2010PropOp29
 70
     0
102
RTVSPost2010Prop30
280
     1
102
RTVSPost2010PropOp30
 70
     0
102
RTVSPost2010Prop31
280
     0
102
RTVSPost2010PropOp31
 70
     0
102
RTVSPost2010Prop32
280
     0
102
RTVSPost2010PropOp32
 70
     0
102
RTVSPost2010Prop33
280
     0
102
RTVSPost2010PropOp33
 70
     1
102
RTVSPost2010Prop34
280
     0
102
RTVSPost2010PropOp34
 70
     1
102
RTVSPost2010Prop35
280
     0
102
RTVSPost2010PropOp35
 70
     1
102
RTVSPost2010Prop36
280
     0
102
RTVSPost2010PropOp36
 70
     1
102
RTVSPost2010Prop37
 90
       50
102
RTVSPost2010PropOp37
 70
     1
102
RTVSPost2010Prop38
140
0.0
102
RTVSPost2010PropOp38
 70
     1
102
RTVSPost2010Prop39
140
1.0
102
RTVSPost2010PropOp39
 70
     1
102
RTVSPost2010Prop40
 90
        0
102
RTVSPost2010PropOp40
 70
     1
102
RTVSPost2010Prop41ColorIndex
 90
       18
102
RTVSPost2010Prop41ColorRGB
 90
        0
102
RTVSPost2010PropOp41
 70
     1
102
RTVSPost2010Prop42
 90
       50
102
RTVSPost2010PropOp42
 70
     1
102
RTVSPost2010Prop43
 90
        3
102
RTVSPost2010PropOp43
 70
     1
102
RTVSPost2010Prop44ColorIndex
 90
        5
102
RTVSPost2010Prop44ColorRGB
 90
      255
102
RTVSPost2010PropOp44
 70
     1
102
RTVSPost2010Prop45
280
     0
102
RTVSPost2010PropOp45
 70
     1
102
RTVSPost2010Prop46
 90
       50
102
RTVSPost2010PropOp46
 70
     1
102
RTVSPost2010Prop47
 90
       50
102
RTVSPost2010PropOp47
 70
     1
102
RTVSPost2010Prop48
 90
       50
102
RTVSPost2010PropOp48
 70
     1
102
RTVSPost2010Prop49
280
     0
102
RTVSPost2010PropOp49
 70
     1
102
RTVSPost2010Prop50
 90
       50
102
RTVSPost2010PropOp50
 70
     1
102
RTVSPost2010Prop51ColorIndex
 90
      256
102
RTVSPost2010Prop51ColorRGB
 90
-16777216
102
RTVSPost2010PropOp51
 70
     0
102
RTVSPost2010Prop52
140
1.0
102
RTVSPost2010PropOp52
 70
     0
102
RTVSPost2010Prop53
 90
        2
102
RTVSPost2010PropOp53
 70
     1
102
RTVSPost2010Prop54
  1
strokes_ogs.tif
102
RTVSPost2010PropOp54
 70
     1
102
RTVSPost2010Prop55
280
     0
102
RTVSPost2010PropOp55
 70
     1
102
RTVSPost2010Prop56
140
1.0
102
RTVSPost2010PropOp56
 70
     1
102
RTVSPost2010Prop57
140
1.0
102
RTVSPost2010PropOp57
 70
     1
  0
XRECORD
  5
1018F8A
102
{ACAD_REACTORS
330
1018F89
102
}
330
1018F89
100
AcDbXrecord
280
     1
102
RTVSPost2010Prop28
280
     0
102
RTVSPost2010PropOp28
 70
     1
102
RTVSPost2010Prop29
280
     1
102
RTVSPost2010PropOp29
 70
     1
102
RTVSPost2010Prop30
280
     1
102
RTVSPost2010PropOp30
 70
     1
102
RTVSPost2010Prop31
280
     0
102
RTVSPost2010PropOp31
 70
     1
102
RTVSPost2010Prop32
280
     0
102
RTVSPost2010PropOp32
 70
     1
102
RTVSPost2010Prop33
280
     0
102
RTVSPost2010PropOp33
 70
     1
102
RTVSPost2010Prop34
280
     0
102
RTVSPost2010PropOp34
 70
     1
102
RTVSPost2010Prop35
280
     0
102
RTVSPost2010PropOp35
 70
     1
102
RTVSPost2010Prop36
280
     0
102
RTVSPost2010PropOp36
 70
     1
102
RTVSPost2010Prop37
 90
       50
102
RTVSPost2010PropOp37
 70
     1
102
RTVSPost2010Prop38
140
0.0
102
RTVSPost2010PropOp38
 70
     1
102
RTVSPost2010Prop39
140
1.0
102
RTVSPost2010PropOp39
 70
     1
102
RTVSPost2010Prop40
 90
        0
102
RTVSPost2010PropOp40
 70
     1
102
RTVSPost2010Prop41ColorIndex
 90
       18
102
RTVSPost2010Prop41ColorRGB
 90
        0
102
RTVSPost2010PropOp41
 70
     1
102
RTVSPost2010Prop42
 90
       50
102
RTVSPost2010PropOp42
 70
     1
102
RTVSPost2010Prop43
 90
        3
102
RTVSPost2010PropOp43
 70
     1
102
RTVSPost2010Prop44ColorIndex
 90
        5
102
RTVSPost2010Prop44ColorRGB
 90
      255
102
RTVSPost2010PropOp44
 70
     1
102
RTVSPost2010Prop45
280
     0
102
RTVSPost2010PropOp45
 70
     1
102
RTVSPost2010Prop46
 90
       50
102
RTVSPost2010PropOp46
 70
     1
102
RTVSPost2010Prop47
 90
       50
102
RTVSPost2010PropOp47
 70
     1
102
RTVSPost2010Prop48
 90
       50
102
RTVSPost2010PropOp48
 70
     1
102
RTVSPost2010Prop49
280
     0
102
RTVSPost2010PropOp49
 70
     1
102
RTVSPost2010Prop50
 90
       50
102
RTVSPost2010PropOp50
 70
     1
102
RTVSPost2010Prop51ColorIndex
 90
      256
102
RTVSPost2010Prop51ColorRGB
 90
-16777216
102
RTVSPost2010PropOp51
 70
     0
102
RTVSPost2010Prop52
140
1.0
102
RTVSPost2010PropOp52
 70
     0
102
RTVSPost2010Prop53
 90
        2
102
RTVSPost2010PropOp53
 70
     1
102
RTVSPost2010Prop54
  1
strokes_ogs.tif
102
RTVSPost2010PropOp54
 70
     1
102
RTVSPost2010Prop55
280
     0
102
RTVSPost2010PropOp55
 70
     1
102
RTVSPost2010Prop56
140
1.0
102
RTVSPost2010PropOp56
 70
     1
102
RTVSPost2010Prop57
140
1.0
102
RTVSPost2010PropOp57
 70
     1
  0
XRECORD
  5
1018F6E
102
{ACAD_REACTORS
330
1018F6D
102
}
330
1018F6D
100
AcDbXrecord
280
     1
102
RTVSPost2010Prop28
280
     0
102
RTVSPost2010PropOp28
 70
     1
102
RTVSPost2010Prop29
280
     1
102
RTVSPost2010PropOp29
 70
     1
102
RTVSPost2010Prop30
280
     1
102
RTVSPost2010PropOp30
 70
     1
102
RTVSPost2010Prop31
280
     0
102
RTVSPost2010PropOp31
 70
     1
102
RTVSPost2010Prop32
280
     0
102
RTVSPost2010PropOp32
 70
     1
102
RTVSPost2010Prop33
280
     0
102
RTVSPost2010PropOp33
 70
     1
102
RTVSPost2010Prop34
280
     0
102
RTVSPost2010PropOp34
 70
     1
102
RTVSPost2010Prop35
280
     0
102
RTVSPost2010PropOp35
 70
     1
102
RTVSPost2010Prop36
280
     0
102
RTVSPost2010PropOp36
 70
     1
102
RTVSPost2010Prop37
 90
       50
102
RTVSPost2010PropOp37
 70
     1
102
RTVSPost2010Prop38
140
0.0
102
RTVSPost2010PropOp38
 70
     1
102
RTVSPost2010Prop39
140
1.0
102
RTVSPost2010PropOp39
 70
     1
102
RTVSPost2010Prop40
 90
        0
102
RTVSPost2010PropOp40
 70
     1
102
RTVSPost2010Prop41ColorIndex
 90
       18
102
RTVSPost2010Prop41ColorRGB
 90
        0
102
RTVSPost2010PropOp41
 70
     1
102
RTVSPost2010Prop42
 90
       50
102
RTVSPost2010PropOp42
 70
     1
102
RTVSPost2010Prop43
 90
        3
102
RTVSPost2010PropOp43
 70
     1
102
RTVSPost2010Prop44ColorIndex
 90
        5
102
RTVSPost2010Prop44ColorRGB
 90
      255
102
RTVSPost2010PropOp44
 70
     1
102
RTVSPost2010Prop45
280
     0
102
RTVSPost2010PropOp45
 70
     1
102
RTVSPost2010Prop46
 90
       50
102
RTVSPost2010PropOp46
 70
     1
102
RTVSPost2010Prop47
 90
       50
102
RTVSPost2010PropOp47
 70
     1
102
RTVSPost2010Prop48
 90
       50
102
RTVSPost2010PropOp48
 70
     1
102
RTVSPost2010Prop49
280
     0
102
RTVSPost2010PropOp49
 70
     1
102
RTVSPost2010Prop50
 90
       50
102
RTVSPost2010PropOp50
 70
     1
102
RTVSPost2010Prop51ColorIndex
 90
      256
102
RTVSPost2010Prop51ColorRGB
 90
-16777216
102
RTVSPost2010PropOp51
 70
     0
102
RTVSPost2010Prop52
140
1.0
102
RTVSPost2010PropOp52
 70
     0
102
RTVSPost2010Prop53
 90
        2
102
RTVSPost2010PropOp53
 70
     1
102
RTVSPost2010Prop54
  1
strokes_ogs.tif
102
RTVSPost2010PropOp54
 70
     1
102
RTVSPost2010Prop55
280
     0
102
RTVSPost2010PropOp55
 70
     1
102
RTVSPost2010Prop56
140
1.0
102
RTVSPost2010PropOp56
 70
     1
102
RTVSPost2010Prop57
140
1.0
102
RTVSPost2010PropOp57
 70
     1
  0
XRECORD
  5
1018F70
102
{ACAD_REACTORS
330
1018F6F
102
}
330
1018F6F
100
AcDbXrecord
280
     1
102
RTVSPost2010Prop28
280
     0
102
RTVSPost2010PropOp28
 70
     1
102
RTVSPost2010Prop29
280
     1
102
RTVSPost2010PropOp29
 70
     1
102
RTVSPost2010Prop30
280
     1
102
RTVSPost2010PropOp30
 70
     1
102
RTVSPost2010Prop31
280
     0
102
RTVSPost2010PropOp31
 70
     1
102
RTVSPost2010Prop32
280
     0
102
RTVSPost2010PropOp32
 70
     1
102
RTVSPost2010Prop33
280
     0
102
RTVSPost2010PropOp33
 70
     1
102
RTVSPost2010Prop34
280
     0
102
RTVSPost2010PropOp34
 70
     1
102
RTVSPost2010Prop35
280
     0
102
RTVSPost2010PropOp35
 70
     1
102
RTVSPost2010Prop36
280
     0
102
RTVSPost2010PropOp36
 70
     1
102
RTVSPost2010Prop37
 90
       50
102
RTVSPost2010PropOp37
 70
     1
102
RTVSPost2010Prop38
140
0.0
102
RTVSPost2010PropOp38
 70
     1
102
RTVSPost2010Prop39
140
1.0
102
RTVSPost2010PropOp39
 70
     1
102
RTVSPost2010Prop40
 90
        0
102
RTVSPost2010PropOp40
 70
     1
102
RTVSPost2010Prop41ColorIndex
 90
       18
102
RTVSPost2010Prop41ColorRGB
 90
        0
102
RTVSPost2010PropOp41
 70
     1
102
RTVSPost2010Prop42
 90
       50
102
RTVSPost2010PropOp42
 70
     1
102
RTVSPost2010Prop43
 90
        3
102
RTVSPost2010PropOp43
 70
     1
102
RTVSPost2010Prop44ColorIndex
 90
        5
102
RTVSPost2010Prop44ColorRGB
 90
      255
102
RTVSPost2010PropOp44
 70
     1
102
RTVSPost2010Prop45
280
     0
102
RTVSPost2010PropOp45
 70
     1
102
RTVSPost2010Prop46
 90
       50
102
RTVSPost2010PropOp46
 70
     1
102
RTVSPost2010Prop47
 90
       50
102
RTVSPost2010PropOp47
 70
     1
102
RTVSPost2010Prop48
 90
       50
102
RTVSPost2010PropOp48
 70
     1
102
RTVSPost2010Prop49
280
     0
102
RTVSPost2010PropOp49
 70
     1
102
RTVSPost2010Prop50
 90
       50
102
RTVSPost2010PropOp50
 70
     1
102
RTVSPost2010Prop51ColorIndex
 90
      256
102
RTVSPost2010Prop51ColorRGB
 90
-16777216
102
RTVSPost2010PropOp51
 70
     0
102
RTVSPost2010Prop52
140
1.0
102
RTVSPost2010PropOp52
 70
     0
102
RTVSPost2010Prop53
 90
        2
102
RTVSPost2010PropOp53
 70
     1
102
RTVSPost2010Prop54
  1
strokes_ogs.tif
102
RTVSPost2010PropOp54
 70
     1
102
RTVSPost2010Prop55
280
     0
102
RTVSPost2010PropOp55
 70
     1
102
RTVSPost2010Prop56
140
1.0
102
RTVSPost2010PropOp56
 70
     1
102
RTVSPost2010Prop57
140
1.0
102
RTVSPost2010PropOp57
 70
     1
  0
XRECORD
  5
1018F72
102
{ACAD_REACTORS
330
1018F71
102
}
330
1018F71
100
AcDbXrecord
280
     1
102
RTVSPost2010Prop28
280
     0
102
RTVSPost2010PropOp28
 70
     1
102
RTVSPost2010Prop29
280
     1
102
RTVSPost2010PropOp29
 70
     1
102
RTVSPost2010Prop30
280
     1
102
RTVSPost2010PropOp30
 70
     1
102
RTVSPost2010Prop31
280
     0
102
RTVSPost2010PropOp31
 70
     1
102
RTVSPost2010Prop32
280
     0
102
RTVSPost2010PropOp32
 70
     1
102
RTVSPost2010Prop33
280
     0
102
RTVSPost2010PropOp33
 70
     1
102
RTVSPost2010Prop34
280
     0
102
RTVSPost2010PropOp34
 70
     1
102
RTVSPost2010Prop35
280
     0
102
RTVSPost2010PropOp35
 70
     1
102
RTVSPost2010Prop36
280
     0
102
RTVSPost2010PropOp36
 70
     1
102
RTVSPost2010Prop37
 90
       50
102
RTVSPost2010PropOp37
 70
     1
102
RTVSPost2010Prop38
140
0.0
102
RTVSPost2010PropOp38
 70
     1
102
RTVSPost2010Prop39
140
1.0
102
RTVSPost2010PropOp39
 70
     1
102
RTVSPost2010Prop40
 90
        0
102
RTVSPost2010PropOp40
 70
     1
102
RTVSPost2010Prop41ColorIndex
 90
       18
102
RTVSPost2010Prop41ColorRGB
 90
        0
102
RTVSPost2010PropOp41
 70
     1
102
RTVSPost2010Prop42
 90
       50
102
RTVSPost2010PropOp42
 70
     1
102
RTVSPost2010Prop43
 90
        3
102
RTVSPost2010PropOp43
 70
     1
102
RTVSPost2010Prop44ColorIndex
 90
        5
102
RTVSPost2010Prop44ColorRGB
 90
      255
102
RTVSPost2010PropOp44
 70
     1
102
RTVSPost2010Prop45
280
     0
102
RTVSPost2010PropOp45
 70
     1
102
RTVSPost2010Prop46
 90
       50
102
RTVSPost2010PropOp46
 70
     1
102
RTVSPost2010Prop47
 90
       50
102
RTVSPost2010PropOp47
 70
     1
102
RTVSPost2010Prop48
 90
       50
102
RTVSPost2010PropOp48
 70
     1
102
RTVSPost2010Prop49
280
     0
102
RTVSPost2010PropOp49
 70
     1
102
RTVSPost2010Prop50
 90
       50
102
RTVSPost2010PropOp50
 70
     1
102
RTVSPost2010Prop51ColorIndex
 90
      256
102
RTVSPost2010Prop51ColorRGB
 90
-16777216
102
RTVSPost2010PropOp51
 70
     0
102
RTVSPost2010Prop52
140
1.0
102
RTVSPost2010PropOp52
 70
     0
102
RTVSPost2010Prop53
 90
        2
102
RTVSPost2010PropOp53
 70
     1
102
RTVSPost2010Prop54
  1
strokes_ogs.tif
102
RTVSPost2010PropOp54
 70
     1
102
RTVSPost2010Prop55
280
     0
102
RTVSPost2010PropOp55
 70
     1
102
RTVSPost2010Prop56
140
1.0
102
RTVSPost2010PropOp56
 70
     1
102
RTVSPost2010Prop57
140
1.0
102
RTVSPost2010PropOp57
 70
     1
  0
XRECORD
  5
1018F74
102
{ACAD_REACTORS
330
1018F73
102
}
330
1018F73
100
AcDbXrecord
280
     1
102
RTVSPost2010Prop28
280
     0
102
RTVSPost2010PropOp28
 70
     1
102
RTVSPost2010Prop29
280
     1
102
RTVSPost2010PropOp29
 70
     1
102
RTVSPost2010Prop30
280
     1
102
RTVSPost2010PropOp30
 70
     1
102
RTVSPost2010Prop31
280
     0
102
RTVSPost2010PropOp31
 70
     1
102
RTVSPost2010Prop32
280
     0
102
RTVSPost2010PropOp32
 70
     1
102
RTVSPost2010Prop33
280
     0
102
RTVSPost2010PropOp33
 70
     1
102
RTVSPost2010Prop34
280
     0
102
RTVSPost2010PropOp34
 70
     1
102
RTVSPost2010Prop35
280
     0
102
RTVSPost2010PropOp35
 70
     1
102
RTVSPost2010Prop36
280
     0
102
RTVSPost2010PropOp36
 70
     1
102
RTVSPost2010Prop37
 90
       50
102
RTVSPost2010PropOp37
 70
     1
102
RTVSPost2010Prop38
140
0.0
102
RTVSPost2010PropOp38
 70
     1
102
RTVSPost2010Prop39
140
1.0
102
RTVSPost2010PropOp39
 70
     1
102
RTVSPost2010Prop40
 90
        0
102
RTVSPost2010PropOp40
 70
     1
102
RTVSPost2010Prop41ColorIndex
 90
       18
102
RTVSPost2010Prop41ColorRGB
 90
        0
102
RTVSPost2010PropOp41
 70
     1
102
RTVSPost2010Prop42
 90
       50
102
RTVSPost2010PropOp42
 70
     1
102
RTVSPost2010Prop43
 90
        3
102
RTVSPost2010PropOp43
 70
     1
102
RTVSPost2010Prop44ColorIndex
 90
        5
102
RTVSPost2010Prop44ColorRGB
 90
      255
102
RTVSPost2010PropOp44
 70
     1
102
RTVSPost2010Prop45
280
     0
102
RTVSPost2010PropOp45
 70
     1
102
RTVSPost2010Prop46
 90
       50
102
RTVSPost2010PropOp46
 70
     1
102
RTVSPost2010Prop47
 90
       50
102
RTVSPost2010PropOp47
 70
     1
102
RTVSPost2010Prop48
 90
       50
102
RTVSPost2010PropOp48
 70
     1
102
RTVSPost2010Prop49
280
     0
102
RTVSPost2010PropOp49
 70
     1
102
RTVSPost2010Prop50
 90
       50
102
RTVSPost2010PropOp50
 70
     1
102
RTVSPost2010Prop51ColorIndex
 90
      256
102
RTVSPost2010Prop51ColorRGB
 90
-16777216
102
RTVSPost2010PropOp51
 70
     0
102
RTVSPost2010Prop52
140
1.0
102
RTVSPost2010PropOp52
 70
     0
102
RTVSPost2010Prop53
 90
        2
102
RTVSPost2010PropOp53
 70
     1
102
RTVSPost2010Prop54
  1
strokes_ogs.tif
102
RTVSPost2010PropOp54
 70
     1
102
RTVSPost2010Prop55
280
     0
102
RTVSPost2010PropOp55
 70
     1
102
RTVSPost2010Prop56
140
1.0
102
RTVSPost2010PropOp56
 70
     1
102
RTVSPost2010Prop57
140
1.0
102
RTVSPost2010PropOp57
 70
     1
  0
XRECORD
  5
1018F7C
102
{ACAD_REACTORS
330
1018F7B
102
}
330
1018F7B
100
AcDbXrecord
280
     1
102
RTVSPost2010Prop28
280
     0
102
RTVSPost2010PropOp28
 70
     1
102
RTVSPost2010Prop29
280
     1
102
RTVSPost2010PropOp29
 70
     1
102
RTVSPost2010Prop30
280
     1
102
RTVSPost2010PropOp30
 70
     1
102
RTVSPost2010Prop31
280
     0
102
RTVSPost2010PropOp31
 70
     1
102
RTVSPost2010Prop32
280
     0
102
RTVSPost2010PropOp32
 70
     1
102
RTVSPost2010Prop33
280
     0
102
RTVSPost2010PropOp33
 70
     1
102
RTVSPost2010Prop34
280
     0
102
RTVSPost2010PropOp34
 70
     1
102
RTVSPost2010Prop35
280
     0
102
RTVSPost2010PropOp35
 70
     1
102
RTVSPost2010Prop36
280
     0
102
RTVSPost2010PropOp36
 70
     1
102
RTVSPost2010Prop37
 90
       50
102
RTVSPost2010PropOp37
 70
     1
102
RTVSPost2010Prop38
140
0.0
102
RTVSPost2010PropOp38
 70
     1
102
RTVSPost2010Prop39
140
1.0
102
RTVSPost2010PropOp39
 70
     1
102
RTVSPost2010Prop40
 90
        0
102
RTVSPost2010PropOp40
 70
     1
102
RTVSPost2010Prop41ColorIndex
 90
       18
102
RTVSPost2010Prop41ColorRGB
 90
        0
102
RTVSPost2010PropOp41
 70
     1
102
RTVSPost2010Prop42
 90
       50
102
RTVSPost2010PropOp42
 70
     1
102
RTVSPost2010Prop43
 90
        3
102
RTVSPost2010PropOp43
 70
     1
102
RTVSPost2010Prop44ColorIndex
 90
        5
102
RTVSPost2010Prop44ColorRGB
 90
      255
102
RTVSPost2010PropOp44
 70
     1
102
RTVSPost2010Prop45
280
     0
102
RTVSPost2010PropOp45
 70
     1
102
RTVSPost2010Prop46
 90
       50
102
RTVSPost2010PropOp46
 70
     1
102
RTVSPost2010Prop47
 90
       50
102
RTVSPost2010PropOp47
 70
     1
102
RTVSPost2010Prop48
 90
       50
102
RTVSPost2010PropOp48
 70
     1
102
RTVSPost2010Prop49
280
     0
102
RTVSPost2010PropOp49
 70
     1
102
RTVSPost2010Prop50
 90
       50
102
RTVSPost2010PropOp50
 70
     1
102
RTVSPost2010Prop51ColorIndex
 90
      256
102
RTVSPost2010Prop51ColorRGB
 90
-16777216
102
RTVSPost2010PropOp51
 70
     0
102
RTVSPost2010Prop52
140
1.0
102
RTVSPost2010PropOp52
 70
     0
102
RTVSPost2010Prop53
 90
        2
102
RTVSPost2010PropOp53
 70
     1
102
RTVSPost2010Prop54
  1
strokes_ogs.tif
102
RTVSPost2010PropOp54
 70
     1
102
RTVSPost2010Prop55
280
     0
102
RTVSPost2010PropOp55
 70
     1
102
RTVSPost2010Prop56
140
1.0
102
RTVSPost2010PropOp56
 70
     1
102
RTVSPost2010Prop57
140
1.0
102
RTVSPost2010PropOp57
 70
     1
  0
XRECORD
  5
1018F98
102
{ACAD_REACTORS
330
1018F97
102
}
330
1018F97
100
AcDbXrecord
280
     1
102
RTVSPost2010Prop28
280
     0
102
RTVSPost2010PropOp28
 70
     0
102
RTVSPost2010Prop29
280
     1
102
RTVSPost2010PropOp29
 70
     0
102
RTVSPost2010Prop30
280
     1
102
RTVSPost2010PropOp30
 70
     0
102
RTVSPost2010Prop31
280
     0
102
RTVSPost2010PropOp31
 70
     0
102
RTVSPost2010Prop32
280
     0
102
RTVSPost2010PropOp32
 70
     0
102
RTVSPost2010Prop33
280
     0
102
RTVSPost2010PropOp33
 70
     1
102
RTVSPost2010Prop34
280
     0
102
RTVSPost2010PropOp34
 70
     1
102
RTVSPost2010Prop35
280
     0
102
RTVSPost2010PropOp35
 70
     1
102
RTVSPost2010Prop36
280
     0
102
RTVSPost2010PropOp36
 70
     1
102
RTVSPost2010Prop37
 90
       50
102
RTVSPost2010PropOp37
 70
     1
102
RTVSPost2010Prop38
140
0.0
102
RTVSPost2010PropOp38
 70
     1
102
RTVSPost2010Prop39
140
1.0
102
RTVSPost2010PropOp39
 70
     1
102
RTVSPost2010Prop40
 90
        0
102
RTVSPost2010PropOp40
 70
     1
102
RTVSPost2010Prop41ColorIndex
 90
       18
102
RTVSPost2010Prop41ColorRGB
 90
        0
102
RTVSPost2010PropOp41
 70
     1
102
RTVSPost2010Prop42
 90
       50
102
RTVSPost2010PropOp42
 70
     1
102
RTVSPost2010Prop43
 90
        3
102
RTVSPost2010PropOp43
 70
     1
102
RTVSPost2010Prop44ColorIndex
 90
        5
102
RTVSPost2010Prop44ColorRGB
 90
      255
102
RTVSPost2010PropOp44
 70
     1
102
RTVSPost2010Prop45
280
     0
102
RTVSPost2010PropOp45
 70
     1
102
RTVSPost2010Prop46
 90
       50
102
RTVSPost2010PropOp46
 70
     1
102
RTVSPost2010Prop47
 90
       50
102
RTVSPost2010PropOp47
 70
     1
102
RTVSPost2010Prop48
 90
       50
102
RTVSPost2010PropOp48
 70
     1
102
RTVSPost2010Prop49
280
     0
102
RTVSPost2010PropOp49
 70
     1
102
RTVSPost2010Prop50
 90
       50
102
RTVSPost2010PropOp50
 70
     1
102
RTVSPost2010Prop51ColorIndex
 90
      256
102
RTVSPost2010Prop51ColorRGB
 90
-16777216
102
RTVSPost2010PropOp51
 70
     0
102
RTVSPost2010Prop52
140
1.0
102
RTVSPost2010PropOp52
 70
     0
102
RTVSPost2010Prop53
 90
        2
102
RTVSPost2010PropOp53
 70
     1
102
RTVSPost2010Prop54
  1
strokes_ogs.tif
102
RTVSPost2010PropOp54
 70
     1
102
RTVSPost2010Prop55
280
     0
102
RTVSPost2010PropOp55
 70
     1
102
RTVSPost2010Prop56
140
1.0
102
RTVSPost2010PropOp56
 70
     1
102
RTVSPost2010Prop57
140
1.0
102
RTVSPost2010PropOp57
 70
     1
  0
XRECORD
  5
1018F88
102
{ACAD_REACTORS
330
1018F87
102
}
330
1018F87
100
AcDbXrecord
280
     1
102
RTVSPost2010Prop28
280
     0
102
RTVSPost2010PropOp28
 70
     1
102
RTVSPost2010Prop29
280
     1
102
RTVSPost2010PropOp29
 70
     1
102
RTVSPost2010Prop30
280
     1
102
RTVSPost2010PropOp30
 70
     1
102
RTVSPost2010Prop31
280
     0
102
RTVSPost2010PropOp31
 70
     1
102
RTVSPost2010Prop32
280
     0
102
RTVSPost2010PropOp32
 70
     1
102
RTVSPost2010Prop33
280
     0
102
RTVSPost2010PropOp33
 70
     1
102
RTVSPost2010Prop34
280
     0
102
RTVSPost2010PropOp34
 70
     1
102
RTVSPost2010Prop35
280
     0
102
RTVSPost2010PropOp35
 70
     1
102
RTVSPost2010Prop36
280
     0
102
RTVSPost2010PropOp36
 70
     1
102
RTVSPost2010Prop37
 90
       50
102
RTVSPost2010PropOp37
 70
     1
102
RTVSPost2010Prop38
140
0.0
102
RTVSPost2010PropOp38
 70
     1
102
RTVSPost2010Prop39
140
1.0
102
RTVSPost2010PropOp39
 70
     1
102
RTVSPost2010Prop40
 90
        0
102
RTVSPost2010PropOp40
 70
     1
102
RTVSPost2010Prop41ColorIndex
 90
       18
102
RTVSPost2010Prop41ColorRGB
 90
        0
102
RTVSPost2010PropOp41
 70
     1
102
RTVSPost2010Prop42
 90
       50
102
RTVSPost2010PropOp42
 70
     1
102
RTVSPost2010Prop43
 90
        3
102
RTVSPost2010PropOp43
 70
     1
102
RTVSPost2010Prop44ColorIndex
 90
        5
102
RTVSPost2010Prop44ColorRGB
 90
      255
102
RTVSPost2010PropOp44
 70
     1
102
RTVSPost2010Prop45
280
     0
102
RTVSPost2010PropOp45
 70
     1
102
RTVSPost2010Prop46
 90
       50
102
RTVSPost2010PropOp46
 70
     1
102
RTVSPost2010Prop47
 90
       50
102
RTVSPost2010PropOp47
 70
     1
102
RTVSPost2010Prop48
 90
       50
102
RTVSPost2010PropOp48
 70
     1
102
RTVSPost2010Prop49
280
     0
102
RTVSPost2010PropOp49
 70
     1
102
RTVSPost2010Prop50
 90
       50
102
RTVSPost2010PropOp50
 70
     1
102
RTVSPost2010Prop51ColorIndex
 90
      256
102
RTVSPost2010Prop51ColorRGB
 90
-16777216
102
RTVSPost2010PropOp51
 70
     0
102
RTVSPost2010Prop52
140
1.0
102
RTVSPost2010PropOp52
 70
     0
102
RTVSPost2010Prop53
 90
        2
102
RTVSPost2010PropOp53
 70
     1
102
RTVSPost2010Prop54
  1
strokes_ogs.tif
102
RTVSPost2010PropOp54
 70
     1
102
RTVSPost2010Prop55
280
     0
102
RTVSPost2010PropOp55
 70
     1
102
RTVSPost2010Prop56
140
1.0
102
RTVSPost2010PropOp56
 70
     1
102
RTVSPost2010Prop57
140
1.0
102
RTVSPost2010PropOp57
 70
     1
  0
XRECORD
  5
1018F9A
102
{ACAD_REACTORS
330
1018F99
102
}
330
1018F99
100
AcDbXrecord
280
     1
102
RTVSPost2010Prop28
280
     0
102
RTVSPost2010PropOp28
 70
     0
102
RTVSPost2010Prop29
280
     1
102
RTVSPost2010PropOp29
 70
     0
102
RTVSPost2010Prop30
280
     1
102
RTVSPost2010PropOp30
 70
     0
102
RTVSPost2010Prop31
280
     0
102
RTVSPost2010PropOp31
 70
     0
102
RTVSPost2010Prop32
280
     0
102
RTVSPost2010PropOp32
 70
     0
102
RTVSPost2010Prop33
280
     0
102
RTVSPost2010PropOp33
 70
     1
102
RTVSPost2010Prop34
280
     0
102
RTVSPost2010PropOp34
 70
     1
102
RTVSPost2010Prop35
280
     0
102
RTVSPost2010PropOp35
 70
     1
102
RTVSPost2010Prop36
280
     0
102
RTVSPost2010PropOp36
 70
     1
102
RTVSPost2010Prop37
 90
       50
102
RTVSPost2010PropOp37
 70
     1
102
RTVSPost2010Prop38
140
0.0
102
RTVSPost2010PropOp38
 70
     1
102
RTVSPost2010Prop39
140
1.0
102
RTVSPost2010PropOp39
 70
     1
102
RTVSPost2010Prop40
 90
        0
102
RTVSPost2010PropOp40
 70
     1
102
RTVSPost2010Prop41ColorIndex
 90
       18
102
RTVSPost2010Prop41ColorRGB
 90
        0
102
RTVSPost2010PropOp41
 70
     1
102
RTVSPost2010Prop42
 90
       50
102
RTVSPost2010PropOp42
 70
     1
102
RTVSPost2010Prop43
 90
        3
102
RTVSPost2010PropOp43
 70
     1
102
RTVSPost2010Prop44ColorIndex
 90
        5
102
RTVSPost2010Prop44ColorRGB
 90
      255
102
RTVSPost2010PropOp44
 70
     1
102
RTVSPost2010Prop45
280
     0
102
RTVSPost2010PropOp45
 70
     1
102
RTVSPost2010Prop46
 90
       50
102
RTVSPost2010PropOp46
 70
     1
102
RTVSPost2010Prop47
 90
       50
102
RTVSPost2010PropOp47
 70
     1
102
RTVSPost2010Prop48
 90
       50
102
RTVSPost2010PropOp48
 70
     1
102
RTVSPost2010Prop49
280
     0
102
RTVSPost2010PropOp49
 70
     1
102
RTVSPost2010Prop50
 90
       50
102
RTVSPost2010PropOp50
 70
     1
102
RTVSPost2010Prop51ColorIndex
 90
      256
102
RTVSPost2010Prop51ColorRGB
 90
-16777216
102
RTVSPost2010PropOp51
 70
     0
102
RTVSPost2010Prop52
140
1.0
102
RTVSPost2010PropOp52
 70
     0
102
RTVSPost2010Prop53
 90
        2
102
RTVSPost2010PropOp53
 70
     1
102
RTVSPost2010Prop54
  1
strokes_ogs.tif
102
RTVSPost2010PropOp54
 70
     1
102
RTVSPost2010Prop55
280
     0
102
RTVSPost2010PropOp55
 70
     1
102
RTVSPost2010Prop56
140
1.0
102
RTVSPost2010PropOp56
 70
     1
102
RTVSPost2010Prop57
140
1.0
102
RTVSPost2010PropOp57
 70
     1
  0
XRECORD
  5
1018F80
102
{ACAD_REACTORS
330
1018F7F
102
}
330
1018F7F
100
AcDbXrecord
280
     1
102
RTVSPost2010Prop28
280
     0
102
RTVSPost2010PropOp28
 70
     1
102
RTVSPost2010Prop29
280
     1
102
RTVSPost2010PropOp29
 70
     1
102
RTVSPost2010Prop30
280
     1
102
RTVSPost2010PropOp30
 70
     1
102
RTVSPost2010Prop31
280
     0
102
RTVSPost2010PropOp31
 70
     1
102
RTVSPost2010Prop32
280
     0
102
RTVSPost2010PropOp32
 70
     1
102
RTVSPost2010Prop33
280
     0
102
RTVSPost2010PropOp33
 70
     1
102
RTVSPost2010Prop34
280
     0
102
RTVSPost2010PropOp34
 70
     1
102
RTVSPost2010Prop35
280
     0
102
RTVSPost2010PropOp35
 70
     1
102
RTVSPost2010Prop36
280
     0
102
RTVSPost2010PropOp36
 70
     1
102
RTVSPost2010Prop37
 90
       50
102
RTVSPost2010PropOp37
 70
     1
102
RTVSPost2010Prop38
140
0.0
102
RTVSPost2010PropOp38
 70
     1
102
RTVSPost2010Prop39
140
1.0
102
RTVSPost2010PropOp39
 70
     1
102
RTVSPost2010Prop40
 90
        0
102
RTVSPost2010PropOp40
 70
     1
102
RTVSPost2010Prop41ColorIndex
 90
       18
102
RTVSPost2010Prop41ColorRGB
 90
        0
102
RTVSPost2010PropOp41
 70
     1
102
RTVSPost2010Prop42
 90
       50
102
RTVSPost2010PropOp42
 70
     1
102
RTVSPost2010Prop43
 90
        3
102
RTVSPost2010PropOp43
 70
     1
102
RTVSPost2010Prop44ColorIndex
 90
        5
102
RTVSPost2010Prop44ColorRGB
 90
      255
102
RTVSPost2010PropOp44
 70
     1
102
RTVSPost2010Prop45
280
     0
102
RTVSPost2010PropOp45
 70
     1
102
RTVSPost2010Prop46
 90
       50
102
RTVSPost2010PropOp46
 70
     1
102
RTVSPost2010Prop47
 90
       50
102
RTVSPost2010PropOp47
 70
     1
102
RTVSPost2010Prop48
 90
       50
102
RTVSPost2010PropOp48
 70
     1
102
RTVSPost2010Prop49
280
     0
102
RTVSPost2010PropOp49
 70
     1
102
RTVSPost2010Prop50
 90
       50
102
RTVSPost2010PropOp50
 70
     1
102
RTVSPost2010Prop51ColorIndex
 90
      256
102
RTVSPost2010Prop51ColorRGB
 90
-16777216
102
RTVSPost2010PropOp51
 70
     0
102
RTVSPost2010Prop52
140
1.0
102
RTVSPost2010PropOp52
 70
     0
102
RTVSPost2010Prop53
 90
        2
102
RTVSPost2010PropOp53
 70
     1
102
RTVSPost2010Prop54
  1
strokes_ogs.tif
102
RTVSPost2010PropOp54
 70
     1
102
RTVSPost2010Prop55
280
     0
102
RTVSPost2010PropOp55
 70
     1
102
RTVSPost2010Prop56
140
1.0
102
RTVSPost2010PropOp56
 70
     1
102
RTVSPost2010Prop57
140
1.0
102
RTVSPost2010PropOp57
 70
     1
  0
XRECORD
  5
1018F96
102
{ACAD_REACTORS
330
1018F95
102
}
330
1018F95
100
AcDbXrecord
280
     1
102
RTVSPost2010Prop28
280
     0
102
RTVSPost2010PropOp28
 70
     1
102
RTVSPost2010Prop29
280
     1
102
RTVSPost2010PropOp29
 70
     1
102
RTVSPost2010Prop30
280
     1
102
RTVSPost2010PropOp30
 70
     1
102
RTVSPost2010Prop31
280
     0
102
RTVSPost2010PropOp31
 70
     1
102
RTVSPost2010Prop32
280
     0
102
RTVSPost2010PropOp32
 70
     1
102
RTVSPost2010Prop33
280
     0
102
RTVSPost2010PropOp33
 70
     1
102
RTVSPost2010Prop34
280
     0
102
RTVSPost2010PropOp34
 70
     1
102
RTVSPost2010Prop35
280
     0
102
RTVSPost2010PropOp35
 70
     1
102
RTVSPost2010Prop36
280
     0
102
RTVSPost2010PropOp36
 70
     1
102
RTVSPost2010Prop37
 90
       50
102
RTVSPost2010PropOp37
 70
     1
102
RTVSPost2010Prop38
140
0.0
102
RTVSPost2010PropOp38
 70
     1
102
RTVSPost2010Prop39
140
1.0
102
RTVSPost2010PropOp39
 70
     1
102
RTVSPost2010Prop40
 90
        0
102
RTVSPost2010PropOp40
 70
     1
102
RTVSPost2010Prop41ColorIndex
 90
       18
102
RTVSPost2010Prop41ColorRGB
 90
        0
102
RTVSPost2010PropOp41
 70
     1
102
RTVSPost2010Prop42
 90
       50
102
RTVSPost2010PropOp42
 70
     1
102
RTVSPost2010Prop43
 90
        3
102
RTVSPost2010PropOp43
 70
     1
102
RTVSPost2010Prop44ColorIndex
 90
        5
102
RTVSPost2010Prop44ColorRGB
 90
      255
102
RTVSPost2010PropOp44
 70
     1
102
RTVSPost2010Prop45
280
     0
102
RTVSPost2010PropOp45
 70
     1
102
RTVSPost2010Prop46
 90
       50
102
RTVSPost2010PropOp46
 70
     1
102
RTVSPost2010Prop47
 90
       50
102
RTVSPost2010PropOp47
 70
     1
102
RTVSPost2010Prop48
 90
       50
102
RTVSPost2010PropOp48
 70
     1
102
RTVSPost2010Prop49
280
     0
102
RTVSPost2010PropOp49
 70
     1
102
RTVSPost2010Prop50
 90
       50
102
RTVSPost2010PropOp50
 70
     1
102
RTVSPost2010Prop51ColorIndex
 90
      256
102
RTVSPost2010Prop51ColorRGB
 90
-16777216
102
RTVSPost2010PropOp51
 70
     0
102
RTVSPost2010Prop52
140
1.0
102
RTVSPost2010PropOp52
 70
     0
102
RTVSPost2010Prop53
 90
        2
102
RTVSPost2010PropOp53
 70
     1
102
RTVSPost2010Prop54
  1
strokes_ogs.tif
102
RTVSPost2010PropOp54
 70
     1
102
RTVSPost2010Prop55
280
     0
102
RTVSPost2010PropOp55
 70
     1
102
RTVSPost2010Prop56
140
1.0
102
RTVSPost2010PropOp56
 70
     1
102
RTVSPost2010Prop57
140
1.0
102
RTVSPost2010PropOp57
 70
     1
  0
XRECORD
  5
1018F94
102
{ACAD_REACTORS
330
1018F93
102
}
330
1018F93
100
AcDbXrecord
280
     1
102
RTVSPost2010Prop28
280
     0
102
RTVSPost2010PropOp28
 70
     1
102
RTVSPost2010Prop29
280
     1
102
RTVSPost2010PropOp29
 70
     1
102
RTVSPost2010Prop30
280
     1
102
RTVSPost2010PropOp30
 70
     1
102
RTVSPost2010Prop31
280
     0
102
RTVSPost2010PropOp31
 70
     1
102
RTVSPost2010Prop32
280
     0
102
RTVSPost2010PropOp32
 70
     1
102
RTVSPost2010Prop33
280
     0
102
RTVSPost2010PropOp33
 70
     1
102
RTVSPost2010Prop34
280
     0
102
RTVSPost2010PropOp34
 70
     1
102
RTVSPost2010Prop35
280
     0
102
RTVSPost2010PropOp35
 70
     1
102
RTVSPost2010Prop36
280
     0
102
RTVSPost2010PropOp36
 70
     1
102
RTVSPost2010Prop37
 90
       50
102
RTVSPost2010PropOp37
 70
     1
102
RTVSPost2010Prop38
140
0.0
102
RTVSPost2010PropOp38
 70
     1
102
RTVSPost2010Prop39
140
1.0
102
RTVSPost2010PropOp39
 70
     1
102
RTVSPost2010Prop40
 90
        0
102
RTVSPost2010PropOp40
 70
     1
102
RTVSPost2010Prop41ColorIndex
 90
       18
102
RTVSPost2010Prop41ColorRGB
 90
        0
102
RTVSPost2010PropOp41
 70
     1
102
RTVSPost2010Prop42
 90
       50
102
RTVSPost2010PropOp42
 70
     1
102
RTVSPost2010Prop43
 90
        3
102
RTVSPost2010PropOp43
 70
     1
102
RTVSPost2010Prop44ColorIndex
 90
        5
102
RTVSPost2010Prop44ColorRGB
 90
      255
102
RTVSPost2010PropOp44
 70
     1
102
RTVSPost2010Prop45
280
     0
102
RTVSPost2010PropOp45
 70
     1
102
RTVSPost2010Prop46
 90
       50
102
RTVSPost2010PropOp46
 70
     1
102
RTVSPost2010Prop47
 90
       50
102
RTVSPost2010PropOp47
 70
     1
102
RTVSPost2010Prop48
 90
       50
102
RTVSPost2010PropOp48
 70
     1
102
RTVSPost2010Prop49
280
     0
102
RTVSPost2010PropOp49
 70
     1
102
RTVSPost2010Prop50
 90
       50
102
RTVSPost2010PropOp50
 70
     1
102
RTVSPost2010Prop51ColorIndex
 90
      256
102
RTVSPost2010Prop51ColorRGB
 90
-16777216
102
RTVSPost2010PropOp51
 70
     0
102
RTVSPost2010Prop52
140
1.0
102
RTVSPost2010PropOp52
 70
     0
102
RTVSPost2010Prop53
 90
        2
102
RTVSPost2010PropOp53
 70
     1
102
RTVSPost2010Prop54
  1
strokes_ogs.tif
102
RTVSPost2010PropOp54
 70
     1
102
RTVSPost2010Prop55
280
     0
102
RTVSPost2010PropOp55
 70
     1
102
RTVSPost2010Prop56
140
1.0
102
RTVSPost2010PropOp56
 70
     1
102
RTVSPost2010Prop57
140
1.0
102
RTVSPost2010PropOp57
 70
     1
  0
XRECORD
  5
1018F8E
102
{ACAD_REACTORS
330
1018F8D
102
}
330
1018F8D
100
AcDbXrecord
280
     1
102
RTVSPost2010Prop28
280
     0
102
RTVSPost2010PropOp28
 70
     1
102
RTVSPost2010Prop29
280
     1
102
RTVSPost2010PropOp29
 70
     1
102
RTVSPost2010Prop30
280
     1
102
RTVSPost2010PropOp30
 70
     1
102
RTVSPost2010Prop31
280
     0
102
RTVSPost2010PropOp31
 70
     1
102
RTVSPost2010Prop32
280
     0
102
RTVSPost2010PropOp32
 70
     1
102
RTVSPost2010Prop33
280
     0
102
RTVSPost2010PropOp33
 70
     1
102
RTVSPost2010Prop34
280
     0
102
RTVSPost2010PropOp34
 70
     1
102
RTVSPost2010Prop35
280
     0
102
RTVSPost2010PropOp35
 70
     1
102
RTVSPost2010Prop36
280
     0
102
RTVSPost2010PropOp36
 70
     1
102
RTVSPost2010Prop37
 90
       50
102
RTVSPost2010PropOp37
 70
     1
102
RTVSPost2010Prop38
140
0.0
102
RTVSPost2010PropOp38
 70
     1
102
RTVSPost2010Prop39
140
1.0
102
RTVSPost2010PropOp39
 70
     1
102
RTVSPost2010Prop40
 90
        0
102
RTVSPost2010PropOp40
 70
     1
102
RTVSPost2010Prop41ColorIndex
 90
       18
102
RTVSPost2010Prop41ColorRGB
 90
        0
102
RTVSPost2010PropOp41
 70
     1
102
RTVSPost2010Prop42
 90
       50
102
RTVSPost2010PropOp42
 70
     1
102
RTVSPost2010Prop43
 90
        3
102
RTVSPost2010PropOp43
 70
     1
102
RTVSPost2010Prop44ColorIndex
 90
        5
102
RTVSPost2010Prop44ColorRGB
 90
      255
102
RTVSPost2010PropOp44
 70
     1
102
RTVSPost2010Prop45
280
     0
102
RTVSPost2010PropOp45
 70
     1
102
RTVSPost2010Prop46
 90
       50
102
RTVSPost2010PropOp46
 70
     1
102
RTVSPost2010Prop47
 90
       50
102
RTVSPost2010PropOp47
 70
     1
102
RTVSPost2010Prop48
 90
       50
102
RTVSPost2010PropOp48
 70
     1
102
RTVSPost2010Prop49
280
     0
102
RTVSPost2010PropOp49
 70
     1
102
RTVSPost2010Prop50
 90
       50
102
RTVSPost2010PropOp50
 70
     1
102
RTVSPost2010Prop51ColorIndex
 90
      256
102
RTVSPost2010Prop51ColorRGB
 90
-16777216
102
RTVSPost2010PropOp51
 70
     0
102
RTVSPost2010Prop52
140
1.0
102
RTVSPost2010PropOp52
 70
     0
102
RTVSPost2010Prop53
 90
        2
102
RTVSPost2010PropOp53
 70
     1
102
RTVSPost2010Prop54
  1
strokes_ogs.tif
102
RTVSPost2010PropOp54
 70
     1
102
RTVSPost2010Prop55
280
     0
102
RTVSPost2010PropOp55
 70
     1
102
RTVSPost2010Prop56
140
1.0
102
RTVSPost2010PropOp56
 70
     1
102
RTVSPost2010Prop57
140
1.0
102
RTVSPost2010PropOp57
 70
     1
  0
XRECORD
  5
1018F90
102
{ACAD_REACTORS
330
1018F8F
102
}
330
1018F8F
100
AcDbXrecord
280
     1
102
RTVSPost2010Prop28
280
     0
102
RTVSPost2010PropOp28
 70
     1
102
RTVSPost2010Prop29
280
     1
102
RTVSPost2010PropOp29
 70
     1
102
RTVSPost2010Prop30
280
     1
102
RTVSPost2010PropOp30
 70
     1
102
RTVSPost2010Prop31
280
     0
102
RTVSPost2010PropOp31
 70
     1
102
RTVSPost2010Prop32
280
     0
102
RTVSPost2010PropOp32
 70
     1
102
RTVSPost2010Prop33
280
     0
102
RTVSPost2010PropOp33
 70
     1
102
RTVSPost2010Prop34
280
     0
102
RTVSPost2010PropOp34
 70
     1
102
RTVSPost2010Prop35
280
     0
102
RTVSPost2010PropOp35
 70
     1
102
RTVSPost2010Prop36
280
     0
102
RTVSPost2010PropOp36
 70
     1
102
RTVSPost2010Prop37
 90
       50
102
RTVSPost2010PropOp37
 70
     1
102
RTVSPost2010Prop38
140
0.0
102
RTVSPost2010PropOp38
 70
     1
102
RTVSPost2010Prop39
140
1.0
102
RTVSPost2010PropOp39
 70
     1
102
RTVSPost2010Prop40
 90
        0
102
RTVSPost2010PropOp40
 70
     1
102
RTVSPost2010Prop41ColorIndex
 90
       18
102
RTVSPost2010Prop41ColorRGB
 90
        0
102
RTVSPost2010PropOp41
 70
     1
102
RTVSPost2010Prop42
 90
       50
102
RTVSPost2010PropOp42
 70
     1
102
RTVSPost2010Prop43
 90
        3
102
RTVSPost2010PropOp43
 70
     1
102
RTVSPost2010Prop44ColorIndex
 90
        5
102
RTVSPost2010Prop44ColorRGB
 90
      255
102
RTVSPost2010PropOp44
 70
     1
102
RTVSPost2010Prop45
280
     0
102
RTVSPost2010PropOp45
 70
     1
102
RTVSPost2010Prop46
 90
       50
102
RTVSPost2010PropOp46
 70
     1
102
RTVSPost2010Prop47
 90
       50
102
RTVSPost2010PropOp47
 70
     1
102
RTVSPost2010Prop48
 90
       50
102
RTVSPost2010PropOp48
 70
     1
102
RTVSPost2010Prop49
280
     0
102
RTVSPost2010PropOp49
 70
     1
102
RTVSPost2010Prop50
 90
       50
102
RTVSPost2010PropOp50
 70
     1
102
RTVSPost2010Prop51ColorIndex
 90
      256
102
RTVSPost2010Prop51ColorRGB
 90
-16777216
102
RTVSPost2010PropOp51
 70
     0
102
RTVSPost2010Prop52
140
1.0
102
RTVSPost2010PropOp52
 70
     0
102
RTVSPost2010Prop53
 90
        2
102
RTVSPost2010PropOp53
 70
     1
102
RTVSPost2010Prop54
  1
strokes_ogs.tif
102
RTVSPost2010PropOp54
 70
     1
102
RTVSPost2010Prop55
280
     0
102
RTVSPost2010PropOp55
 70
     1
102
RTVSPost2010Prop56
140
1.0
102
RTVSPost2010PropOp56
 70
     1
102
RTVSPost2010Prop57
140
1.0
102
RTVSPost2010PropOp57
 70
     1
  0
XRECORD
  5
1018F86
102
{ACAD_REACTORS
330
1018F85
102
}
330
1018F85
100
AcDbXrecord
280
     1
102
RTVSPost2010Prop28
280
     0
102
RTVSPost2010PropOp28
 70
     1
102
RTVSPost2010Prop29
280
     1
102
RTVSPost2010PropOp29
 70
     1
102
RTVSPost2010Prop30
280
     1
102
RTVSPost2010PropOp30
 70
     1
102
RTVSPost2010Prop31
280
     0
102
RTVSPost2010PropOp31
 70
     1
102
RTVSPost2010Prop32
280
     0
102
RTVSPost2010PropOp32
 70
     1
102
RTVSPost2010Prop33
280
     0
102
RTVSPost2010PropOp33
 70
     1
102
RTVSPost2010Prop34
280
     0
102
RTVSPost2010PropOp34
 70
     1
102
RTVSPost2010Prop35
280
     0
102
RTVSPost2010PropOp35
 70
     1
102
RTVSPost2010Prop36
280
     0
102
RTVSPost2010PropOp36
 70
     1
102
RTVSPost2010Prop37
 90
       50
102
RTVSPost2010PropOp37
 70
     1
102
RTVSPost2010Prop38
140
0.0
102
RTVSPost2010PropOp38
 70
     1
102
RTVSPost2010Prop39
140
1.0
102
RTVSPost2010PropOp39
 70
     1
102
RTVSPost2010Prop40
 90
        0
102
RTVSPost2010PropOp40
 70
     1
102
RTVSPost2010Prop41ColorIndex
 90
       18
102
RTVSPost2010Prop41ColorRGB
 90
        0
102
RTVSPost2010PropOp41
 70
     1
102
RTVSPost2010Prop42
 90
       50
102
RTVSPost2010PropOp42
 70
     1
102
RTVSPost2010Prop43
 90
        3
102
RTVSPost2010PropOp43
 70
     1
102
RTVSPost2010Prop44ColorIndex
 90
        5
102
RTVSPost2010Prop44ColorRGB
 90
      255
102
RTVSPost2010PropOp44
 70
     1
102
RTVSPost2010Prop45
280
     0
102
RTVSPost2010PropOp45
 70
     1
102
RTVSPost2010Prop46
 90
       50
102
RTVSPost2010PropOp46
 70
     1
102
RTVSPost2010Prop47
 90
       50
102
RTVSPost2010PropOp47
 70
     1
102
RTVSPost2010Prop48
 90
       50
102
RTVSPost2010PropOp48
 70
     1
102
RTVSPost2010Prop49
280
     0
102
RTVSPost2010PropOp49
 70
     1
102
RTVSPost2010Prop50
 90
       50
102
RTVSPost2010PropOp50
 70
     1
102
RTVSPost2010Prop51ColorIndex
 90
      256
102
RTVSPost2010Prop51ColorRGB
 90
-16777216
102
RTVSPost2010PropOp51
 70
     0
102
RTVSPost2010Prop52
140
1.0
102
RTVSPost2010PropOp52
 70
     0
102
RTVSPost2010Prop53
 90
        2
102
RTVSPost2010PropOp53
 70
     1
102
RTVSPost2010Prop54
  1
strokes_ogs.tif
102
RTVSPost2010PropOp54
 70
     1
102
RTVSPost2010Prop55
280
     0
102
RTVSPost2010PropOp55
 70
     1
102
RTVSPost2010Prop56
140
1.0
102
RTVSPost2010PropOp56
 70
     1
102
RTVSPost2010Prop57
140
1.0
102
RTVSPost2010PropOp57
 70
     1
  0
XRECORD
  5
1018F7A
102
{ACAD_REACTORS
330
1018F79
102
}
330
1018F79
100
AcDbXrecord
280
     1
102
RTVSPost2010Prop28
280
     0
102
RTVSPost2010PropOp28
 70
     1
102
RTVSPost2010Prop29
280
     1
102
RTVSPost2010PropOp29
 70
     1
102
RTVSPost2010Prop30
280
     1
102
RTVSPost2010PropOp30
 70
     1
102
RTVSPost2010Prop31
280
     0
102
RTVSPost2010PropOp31
 70
     1
102
RTVSPost2010Prop32
280
     0
102
RTVSPost2010PropOp32
 70
     1
102
RTVSPost2010Prop33
280
     0
102
RTVSPost2010PropOp33
 70
     1
102
RTVSPost2010Prop34
280
     0
102
RTVSPost2010PropOp34
 70
     1
102
RTVSPost2010Prop35
280
     0
102
RTVSPost2010PropOp35
 70
     1
102
RTVSPost2010Prop36
280
     0
102
RTVSPost2010PropOp36
 70
     1
102
RTVSPost2010Prop37
 90
       50
102
RTVSPost2010PropOp37
 70
     1
102
RTVSPost2010Prop38
140
0.0
102
RTVSPost2010PropOp38
 70
     1
102
RTVSPost2010Prop39
140
1.0
102
RTVSPost2010PropOp39
 70
     1
102
RTVSPost2010Prop40
 90
        0
102
RTVSPost2010PropOp40
 70
     1
102
RTVSPost2010Prop41ColorIndex
 90
       18
102
RTVSPost2010Prop41ColorRGB
 90
        0
102
RTVSPost2010PropOp41
 70
     1
102
RTVSPost2010Prop42
 90
       50
102
RTVSPost2010PropOp42
 70
     1
102
RTVSPost2010Prop43
 90
        3
102
RTVSPost2010PropOp43
 70
     1
102
RTVSPost2010Prop44ColorIndex
 90
        5
102
RTVSPost2010Prop44ColorRGB
 90
      255
102
RTVSPost2010PropOp44
 70
     1
102
RTVSPost2010Prop45
280
     0
102
RTVSPost2010PropOp45
 70
     1
102
RTVSPost2010Prop46
 90
       50
102
RTVSPost2010PropOp46
 70
     1
102
RTVSPost2010Prop47
 90
       50
102
RTVSPost2010PropOp47
 70
     1
102
RTVSPost2010Prop48
 90
       50
102
RTVSPost2010PropOp48
 70
     1
102
RTVSPost2010Prop49
280
     0
102
RTVSPost2010PropOp49
 70
     1
102
RTVSPost2010Prop50
 90
       50
102
RTVSPost2010PropOp50
 70
     1
102
RTVSPost2010Prop51ColorIndex
 90
      256
102
RTVSPost2010Prop51ColorRGB
 90
-16777216
102
RTVSPost2010PropOp51
 70
     0
102
RTVSPost2010Prop52
140
1.0
102
RTVSPost2010PropOp52
 70
     0
102
RTVSPost2010Prop53
 90
        2
102
RTVSPost2010PropOp53
 70
     1
102
RTVSPost2010Prop54
  1
strokes_ogs.tif
102
RTVSPost2010PropOp54
 70
     1
102
RTVSPost2010Prop55
280
     0
102
RTVSPost2010PropOp55
 70
     1
102
RTVSPost2010Prop56
140
1.0
102
RTVSPost2010PropOp56
 70
     1
102
RTVSPost2010Prop57
140
1.0
102
RTVSPost2010PropOp57
 70
     1
  0
XRECORD
  5
1018F92
102
{ACAD_REACTORS
330
1018F91
102
}
330
1018F91
100
AcDbXrecord
280
     1
102
RTVSPost2010Prop28
280
     0
102
RTVSPost2010PropOp28
 70
     1
102
RTVSPost2010Prop29
280
     1
102
RTVSPost2010PropOp29
 70
     1
102
RTVSPost2010Prop30
280
     1
102
RTVSPost2010PropOp30
 70
     1
102
RTVSPost2010Prop31
280
     0
102
RTVSPost2010PropOp31
 70
     1
102
RTVSPost2010Prop32
280
     0
102
RTVSPost2010PropOp32
 70
     1
102
RTVSPost2010Prop33
280
     0
102
RTVSPost2010PropOp33
 70
     1
102
RTVSPost2010Prop34
280
     0
102
RTVSPost2010PropOp34
 70
     1
102
RTVSPost2010Prop35
280
     0
102
RTVSPost2010PropOp35
 70
     1
102
RTVSPost2010Prop36
280
     0
102
RTVSPost2010PropOp36
 70
     1
102
RTVSPost2010Prop37
 90
       50
102
RTVSPost2010PropOp37
 70
     1
102
RTVSPost2010Prop38
140
0.0
102
RTVSPost2010PropOp38
 70
     1
102
RTVSPost2010Prop39
140
1.0
102
RTVSPost2010PropOp39
 70
     1
102
RTVSPost2010Prop40
 90
        0
102
RTVSPost2010PropOp40
 70
     1
102
RTVSPost2010Prop41ColorIndex
 90
       18
102
RTVSPost2010Prop41ColorRGB
 90
        0
102
RTVSPost2010PropOp41
 70
     1
102
RTVSPost2010Prop42
 90
       50
102
RTVSPost2010PropOp42
 70
     1
102
RTVSPost2010Prop43
 90
        3
102
RTVSPost2010PropOp43
 70
     1
102
RTVSPost2010Prop44ColorIndex
 90
        5
102
RTVSPost2010Prop44ColorRGB
 90
      255
102
RTVSPost2010PropOp44
 70
     1
102
RTVSPost2010Prop45
280
     0
102
RTVSPost2010PropOp45
 70
     1
102
RTVSPost2010Prop46
 90
       50
102
RTVSPost2010PropOp46
 70
     1
102
RTVSPost2010Prop47
 90
       50
102
RTVSPost2010PropOp47
 70
     1
102
RTVSPost2010Prop48
 90
       50
102
RTVSPost2010PropOp48
 70
     1
102
RTVSPost2010Prop49
280
     0
102
RTVSPost2010PropOp49
 70
     1
102
RTVSPost2010Prop50
 90
       50
102
RTVSPost2010PropOp50
 70
     1
102
RTVSPost2010Prop51ColorIndex
 90
      256
102
RTVSPost2010Prop51ColorRGB
 90
-16777216
102
RTVSPost2010PropOp51
 70
     0
102
RTVSPost2010Prop52
140
1.0
102
RTVSPost2010PropOp52
 70
     0
102
RTVSPost2010Prop53
 90
        2
102
RTVSPost2010PropOp53
 70
     1
102
RTVSPost2010Prop54
  1
strokes_ogs.tif
102
RTVSPost2010PropOp54
 70
     1
102
RTVSPost2010Prop55
280
     0
102
RTVSPost2010PropOp55
 70
     1
102
RTVSPost2010Prop56
140
1.0
102
RTVSPost2010PropOp56
 70
     1
102
RTVSPost2010Prop57
140
1.0
102
RTVSPost2010PropOp57
 70
     1
  0
ENDSEC
  0
EOF
