  0
SECTION
  2
HEADER
  9
$ACADVER
  1
AC1024
  9
$ACADMAINTVER
 70
   225
  9
$DWGCODEPAGE
  3
ANSI_932
  9
$LASTSAVEDBY
  1
satoko.sakata
  9
$INSBASE
 10
0.0
 20
0.0
 30
0.0
  9
$EXTMIN
 10
10425.8435169456
 20
-13845.72543256233
 30
-0.0015258207003583
  9
$EXTMAX
 10
35361.15888290169
 20
-11310.83275271467
 30
0.0000000349246037
  9
$LIMMIN
 10
-277.5
 20
-199.349887
  9
$LIMMAX
 10
279.846988
 20
197.5
  9
$ORTHOMODE
 70
     1
  9
$REGENMODE
 70
     1
  9
$FILLMODE
 70
     1
  9
$QTEXTMODE
 70
     0
  9
$MIRRTEXT
 70
     1
  9
$LTSCALE
 40
1.0
  9
$ATTMODE
 70
     1
  9
$TEXTSIZE
 40
10.0
  9
$TRACEWID
 40
0.05
  9
$TEXTSTYLE
  7
MX_NOTE_STANDARD
  9
$CLAYER
  8
0
  9
$CELTYPE
  6
CENTER
  9
$CECOLOR
 62
   256
  9
$CELTSCALE
 40
1.0
  9
$DISPSILH
 70
     0
  9
$DIMSCALE
 40
1.0
  9
$DIMASZ
 40
2.5
  9
$DIMEXO
 40
1.0
  9
$DIMDLI
 40
3.75
  9
$DIMRND
 40
0.0
  9
$DIMDLE
 40
0.0
  9
$DIMEXE
 40
2.286
  9
$DIMTP
 40
0.0
  9
$DIMTM
 40
0.0
  9
$DIMTXT
 40
3.799999999999998
  9
$DIMCEN
 40
2.5
  9
$DIMTSZ
 40
0.0
  9
$DIMTOL
 70
     0
  9
$DIMLIM
 70
     0
  9
$DIMTIH
 70
     0
  9
$DIMTOH
 70
     0
  9
$DIMSE1
 70
     0
  9
$DIMSE2
 70
     0
  9
$DIMTAD
 70
     1
  9
$DIMZIN
 70
     8
  9
$DIMBLK
  1

  9
$DIMASO
 70
     1
  9
$DIMSHO
 70
     1
  9
$DIMPOST
  1

  9
$DIMAPOST
  1

  9
$DIMALT
 70
     0
  9
$DIMALTD
 70
     4
  9
$DIMALTF
 40
0.03937
  9
$DIMLFAC
 40
1.0
  9
$DIMTOFL
 70
     1
  9
$DIMTVP
 40
0.0
  9
$DIMTIX
 70
     0
  9
$DIMSOXD
 70
     0
  9
$DIMSAH
 70
     0
  9
$DIMBLK1
  1

  9
$DIMBLK2
  1

  9
$DIMSTYLE
  2
MX_DIMSTYLE_PV
  9
$DIMCLRD
 70
     0
  9
$DIMCLRE
 70
     0
  9
$DIMCLRT
 70
     0
  9
$DIMTFAC
 40
1.0
  9
$DIMGAP
 40
1.0
  9
$DIMJUST
 70
     0
  9
$DIMSD1
 70
     0
  9
$DIMSD2
 70
     0
  9
$DIMTOLJ
 70
     1
  9
$DIMTZIN
 70
     0
  9
$DIMALTZ
 70
     0
  9
$DIMALTTZ
 70
     0
  9
$DIMUPT
 70
     1
  9
$DIMDEC
 70
     4
  9
$DIMTDEC
 70
     4
  9
$DIMALTU
 70
     2
  9
$DIMALTTD
 70
     4
  9
$DIMTXSTY
  7
MX_NOTE_STANDARD
  9
$DIMAUNIT
 70
     0
  9
$DIMADEC
 70
     0
  9
$DIMALTRND
 40
0.0
  9
$DIMAZIN
 70
     0
  9
$DIMDSEP
 70
    46
  9
$DIMATFIT
 70
     3
  9
$DIMFRAC
 70
     0
  9
$DIMLDRBLK
  1

  9
$DIMLUNIT
 70
     2
  9
$DIMLWD
 70
    -2
  9
$DIMLWE
 70
    -2
  9
$DIMTMOVE
 70
     0
  9
$DIMFXL
 40
1.0
  9
$DIMFXLON
 70
     0
  9
$DIMJOGANG
 40
0.7853981633974483
  9
$DIMTFILL
 70
     0
  9
$DIMTFILLCLR
 70
     0
  9
$DIMARCSYM
 70
     0
  9
$DIMLTYPE
  6

  9
$DIMLTEX1
  6

  9
$DIMLTEX2
  6

  9
$DIMTXTDIRECTION
 70
     0
  9
$LUNITS
 70
     2
  9
$LUPREC
 70
     4
  9
$SKETCHINC
 40
0.1
  9
$FILLETRAD
 40
259.0
  9
$AUNITS
 70
     0
  9
$AUPREC
 70
     0
  9
$MENU
  1
acad
  9
$ELEVATION
 40
0.0
  9
$PELEVATION
 40
0.0
  9
$THICKNESS
 40
0.0
  9
$LIMCHECK
 70
     0
  9
$CHAMFERA
 40
0.0
  9
$CHAMFERB
 40
0.0
  9
$CHAMFERC
 40
0.0
  9
$CHAMFERD
 40
0.0
  9
$SKPOLY
 70
     0
  9
$TDCREATE
 40
2453189.532337963
  9
$TDUCREATE
 40
2453189.157337963
  9
$TDUPDATE
 40
2457658.469247685
  9
$TDUUPDATE
 40
2457658.094247685
  9
$TDINDWG
 40
1.6401812500
  9
$TDUSRTIMER
 40
1.6401812500
  9
$USRTIMER
 70
     1
  9
$ANGBASE
 50
0.0
  9
$ANGDIR
 70
     0
  9
$PDMODE
 70
     0
  9
$PDSIZE
 40
0.0
  9
$PLINEWID
 40
0.0
  9
$SPLFRAME
 70
     0
  9
$SPLINETYPE
 70
     6
  9
$SPLINESEGS
 70
     8
  9
$HANDSEED
  5
101A677
  9
$SURFTAB1
 70
     6
  9
$SURFTAB2
 70
     6
  9
$SURFTYPE
 70
     6
  9
$SURFU
 70
     6
  9
$SURFV
 70
     6
  9
$UCSBASE
  2

  9
$UCSNAME
  2

  9
$UCSORG
 10
0.0
 20
0.0
 30
0.0
  9
$UCSXDIR
 10
1.0
 20
0.0
 30
0.0
  9
$UCSYDIR
 10
0.0
 20
1.0
 30
0.0
  9
$UCSORTHOREF
  2

  9
$UCSORTHOVIEW
 70
     0
  9
$UCSORGTOP
 10
0.0
 20
0.0
 30
0.0
  9
$UCSORGBOTTOM
 10
0.0
 20
0.0
 30
0.0
  9
$UCSORGLEFT
 10
0.0
 20
0.0
 30
0.0
  9
$UCSORGRIGHT
 10
0.0
 20
0.0
 30
0.0
  9
$UCSORGFRONT
 10
0.0
 20
0.0
 30
0.0
  9
$UCSORGBACK
 10
0.0
 20
0.0
 30
0.0
  9
$PUCSBASE
  2

  9
$PUCSNAME
  2

  9
$PUCSORG
 10
0.0
 20
0.0
 30
0.0
  9
$PUCSXDIR
 10
1.0
 20
0.0
 30
0.0
  9
$PUCSYDIR
 10
0.0
 20
1.0
 30
0.0
  9
$PUCSORTHOREF
  2

  9
$PUCSORTHOVIEW
 70
     0
  9
$PUCSORGTOP
 10
0.0
 20
0.0
 30
0.0
  9
$PUCSORGBOTTOM
 10
0.0
 20
0.0
 30
0.0
  9
$PUCSORGLEFT
 10
0.0
 20
0.0
 30
0.0
  9
$PUCSORGRIGHT
 10
0.0
 20
0.0
 30
0.0
  9
$PUCSORGFRONT
 10
0.0
 20
0.0
 30
0.0
  9
$PUCSORGBACK
 10
0.0
 20
0.0
 30
0.0
  9
$USERI1
 70
     0
  9
$USERI2
 70
     0
  9
$USERI3
 70
     0
  9
$USERI4
 70
     0
  9
$USERI5
 70
     0
  9
$USERR1
 40
0.0
  9
$USERR2
 40
0.0
  9
$USERR3
 40
0.0
  9
$USERR4
 40
0.0
  9
$USERR5
 40
0.0
  9
$WORLDVIEW
 70
     1
  9
$SHADEDGE
 70
     3
  9
$SHADEDIF
 70
    70
  9
$TILEMODE
 70
     1
  9
$MAXACTVP
 70
    16
  9
$PINSBASE
 10
0.0
 20
0.0
 30
0.0
  9
$PLIMCHECK
 70
     0
  9
$PEXTMIN
 10
1.000000000000000E+20
 20
1.000000000000000E+20
 30
1.000000000000000E+20
  9
$PEXTMAX
 10
-1.000000000000000E+20
 20
-1.000000000000000E+20
 30
-1.000000000000000E+20
  9
$PLIMMIN
 10
0.0
 20
0.0
  9
$PLIMMAX
 10
12.0
 20
9.0
  9
$UNITMODE
 70
     0
  9
$VISRETAIN
 70
     0
  9
$PLINEGEN
 70
     1
  9
$PSLTSCALE
 70
     0
  9
$TREEDEPTH
 70
  3020
  9
$CMLSTYLE
  2
STANDARD
  9
$CMLJUST
 70
     0
  9
$CMLSCALE
 40
1.0
  9
$PROXYGRAPHICS
 70
     0
  9
$MEASUREMENT
 70
     1
  9
$CELWEIGHT
370
    -1
  9
$ENDCAPS
280
     0
  9
$JOINSTYLE
280
     0
  9
$LWDISPLAY
290
     0
  9
$INSUNITS
 70
     0
  9
$HYPERLINKBASE
  1

  9
$STYLESHEET
  1
INABA-CAD-CANON.CTB
  9
$XEDIT
290
     1
  9
$CEPSNTYPE
380
     0
  9
$PSTYLEMODE
290
     1
  9
$FINGERPRINTGUID
  2
{842FE996-CA1F-4AC3-82FA-4E2BFCEB2676}
  9
$VERSIONGUID
  2
{8A8DD5D5-A6CA-3E4F-9C3E-F01D93DDE6B7}
  9
$EXTNAMES
290
     1
  9
$PSVPSCALE
 40
0.0
  9
$OLESTARTUP
290
     0
  9
$SORTENTS
280
   127
  9
$INDEXCTL
280
     0
  9
$HIDETEXT
280
     0
  9
$XCLIPFRAME
280
     2
  9
$HALOGAP
280
     0
  9
$OBSCOLOR
 70
   257
  9
$OBSLTYPE
280
     0
  9
$INTERSECTIONDISPLAY
280
     0
  9
$INTERSECTIONCOLOR
 70
   257
  9
$DIMASSOC
280
     1
  9
$PROJECTNAME
  1

  9
$CAMERADISPLAY
290
     0
  9
$LENSLENGTH
 40
50.0
  9
$CAMERAHEIGHT
 40
0.0
  9
$STEPSPERSEC
 40
2.0
  9
$STEPSIZE
 40
6.0
  9
$3DDWFPREC
 40
2.0
  9
$PSOLWIDTH
 40
0.25
  9
$PSOLHEIGHT
 40
4.0
  9
$LOFTANG1
 40
1.570796326794896
  9
$LOFTANG2
 40
1.570796326794896
  9
$LOFTMAG1
 40
0.0
  9
$LOFTMAG2
 40
0.0
  9
$LOFTPARAM
 70
     7
  9
$LOFTNORMALS
280
     1
  9
$LATITUDE
 40
37.795
  9
$LONGITUDE
 40
-122.394
  9
$NORTHDIRECTION
 40
0.0
  9
$TIMEZONE
 70
 -8000
  9
$LIGHTGLYPHDISPLAY
280
     1
  9
$TILEMODELIGHTSYNCH
280
     1
  9
$CMATERIAL
347
16D17
  9
$SOLIDHIST
280
     0
  9
$SHOWHIST
280
     1
  9
$DWFFRAME
280
     2
  9
$DGNFRAME
280
     0
  9
$REALWORLDSCALE
290
     1
  9
$INTERFERECOLOR
 62
     1
  9
$INTERFEREOBJVS
345
16D39
  9
$INTERFEREVPVS
346
16D36
  9
$CSHADOW
280
     0
  9
$SHADOWPLANELOCATION
 40
0.0
  0
ENDSEC
  0
SECTION
  2
CLASSES
  0
CLASS
  1
IMAGE
  2
AcDbRasterImage
  3
ISM
 90
      127
 91
        0
280
     0
281
     1
  0
CLASS
  1
DICTIONARYVAR
  2
AcDbDictionaryVar
  3
ObjectDBX Classes
 90
        0
 91
       13
280
     0
281
     0
  0
CLASS
  1
RASTERVARIABLES
  2
AcDbRasterVariables
  3
ISM
 90
        0
 91
        0
280
     0
281
     0
  0
CLASS
  1
IMAGEDEF
  2
AcDbRasterImageDef
  3
ISM
 90
        0
 91
        0
280
     0
281
     0
  0
CLASS
  1
IMAGEDEF_REACTOR
  2
AcDbRasterImageDefReactor
  3
ISM
 90
        1
 91
        0
280
     0
281
     0
  0
CLASS
  1
IDBUFFER
  2
AcDbIdBuffer
  3
ObjectDBX Classes
 90
        0
 91
        0
280
     0
281
     0
  0
CLASS
  1
SPATIAL_FILTER
  2
AcDbSpatialFilter
  3
ObjectDBX Classes
 90
        0
 91
        0
280
     0
281
     0
  0
CLASS
  1
SORTENTSTABLE
  2
AcDbSortentsTable
  3
ObjectDBX Classes
 90
        0
 91
        2
280
     0
281
     0
  0
CLASS
  1
LAYER_INDEX
  2
AcDbLayerIndex
  3
ObjectDBX Classes
 90
        0
 91
        0
280
     0
281
     0
  0
CLASS
  1
SPATIAL_INDEX
  2
AcDbSpatialIndex
  3
ObjectDBX Classes
 90
        0
 91
        0
280
     0
281
     0
  0
CLASS
  1
OBJECT_PTR
  2
CAseDLPNTableRecord
  3
"ASE-LPNTableRecord"
 90
        1
 91
        0
280
     0
281
     0
  0
CLASS
  1
PLOTSETTINGS
  2
AcDbPlotSettings
  3
ObjectDBX Classes
 90
        0
 91
        0
280
     0
281
     0
  0
CLASS
  1
ACDBDICTIONARYWDFLT
  2
AcDbDictionaryWithDefault
  3
ObjectDBX Classes
 90
        0
 91
        1
280
     0
281
     0
  0
CLASS
  1
WIPEOUT
  2
AcDbWipeout
  3
"WipeOut|Product Desc: Object Enabler for WipeOut entity^I^I^I^I^I^I|Company: Autodesk, Inc.^I^I^I^I^I^I|WEB Address: www.autodesk.com"
 90
      127
 91
        0
280
     0
281
     1
  0
CLASS
  1
WIPEOUTVARIABLES
  2
AcDbWipeoutVariables
  3
"WipeOut|Product Desc:     WipeOut Dbx Application|Company:          Autodesk, Inc.|WEB Address:      www.autodesk.com"
 90
        0
 91
        0
280
     0
281
     0
  0
CLASS
  1
RTEXT
  2
RText
  3
RText|AutoCAD Express Tool|expresstools@autodesk.com
 90
        0
 91
        0
280
     0
281
     1
  0
CLASS
  1
ARCALIGNEDTEXT
  2
AcDbArcAlignedText
  3
ATEXT|AutoCAD Express Tool|expresstools@autodesk.com
 90
        0
 91
        0
280
     0
281
     1
  0
CLASS
  1
TABLESTYLE
  2
AcDbTableStyle
  3
ObjectDBX Classes
 90
     4095
 91
        1
280
     0
281
     0
  0
CLASS
  1
MATERIAL
  2
AcDbMaterial
  3
ObjectDBX Classes
 90
     1153
 91
        3
280
     0
281
     0
  0
CLASS
  1
VISUALSTYLE
  2
AcDbVisualStyle
  3
ObjectDBX Classes
 90
     4095
 91
       24
280
     0
281
     0
  0
CLASS
  1
SCALE
  2
AcDbScale
  3
ObjectDBX Classes
 90
     1153
 91
       17
280
     0
281
     0
  0
CLASS
  1
MLEADERSTYLE
  2
AcDbMLeaderStyle
  3
ACDB_MLEADERSTYLE_CLASS
 90
     4095
 91
        1
280
     0
281
     0
  0
CLASS
  1
CELLSTYLEMAP
  2
AcDbCellStyleMap
  3
ObjectDBX Classes
 90
     1152
 91
       42
280
     0
281
     0
  0
CLASS
  1
ACDBSECTIONVIEWSTYLE
  2
AcDbSectionViewStyle
  3
ObjectDBX Classes
 90
     1025
 91
        1
280
     0
281
     0
  0
CLASS
  1
ACDBDETAILVIEWSTYLE
  2
AcDbDetailViewStyle
  3
ObjectDBX Classes
 90
     1025
 91
        1
280
     0
281
     0
  0
ENDSEC
  0
SECTION
  2
TABLES
  0
TABLE
  2
VPORT
  5
7
330
0
100
AcDbSymbolTable
 70
     1
1001
ACAD
1000
DbSaveVer
1071
        5
  0
VPORT
  5
16D10
330
7
100
AcDbSymbolTableRecord
100
AcDbViewportTableRecord
  2
*Active
 70
     0
 10
0.0
 20
0.0
 11
1.0
 21
1.0
 12
22893.50119992365
 22
-12578.2790926385
 13
0.0
 23
0.0
 14
1.0
 24
1.0
 15
0.0
 25
0.0
 16
0.0
 26
0.0
 36
1.0
 17
0.0
 27
0.0
 37
0.0
 40
10843.9030369208
 41
2.307909604519774
 42
50.0
 43
0.0
 44
0.0
 50
0.0
 51
0.0
 71
     0
 72
  1000
 73
     1
 74
     1
 75
     0
 76
     0
 77
     0
 78
     0
281
     0
 65
     1
110
0.0
120
0.0
130
0.0
111
1.0
121
0.0
131
0.0
112
0.0
122
1.0
132
0.0
 79
     0
146
0.0
348
16D35
 60
     3
 61
     5
292
     1
282
     1
141
0.0
142
0.0
 63
   250
421
  3355443
1001
ACAD_NAV_VCDISPLAY
1070
     3
  0
ENDTAB
  0
TABLE
  2
LTYPE
  5
4
330
0
100
AcDbSymbolTable
 70
     6
  0
LTYPE
  5
11
330
4
100
AcDbSymbolTableRecord
100
AcDbLinetypeTableRecord
  2
BYBLOCK
 70
     0
  3

 72
    65
 73
     0
 40
0.0
  0
LTYPE
  5
12
330
4
100
AcDbSymbolTableRecord
100
AcDbLinetypeTableRecord
  2
BYLAYER
 70
     0
  3

 72
    65
 73
     0
 40
0.0
  0
LTYPE
  5
13
330
4
100
AcDbSymbolTableRecord
100
AcDbLinetypeTableRecord
  2
CONTINUOUS
 70
     0
  3
Solid line
 72
    65
 73
     0
 40
0.0
  0
LTYPE
  5
1C6
330
4
100
AcDbSymbolTableRecord
100
AcDbLinetypeTableRecord
  2
CENTER
 70
     0
  3
Center ____ _ ____ _ ____ _ ____ _ ____ _ ____
 72
    65
 73
     4
 40
50.8
 49
31.75
 74
     0
 49
-6.349999999999997
 74
     0
 49
6.349999999999997
 74
     0
 49
-6.349999999999997
 74
     0
  0
ENDTAB
  0
TABLE
  2
LAYER
  5
2
102
{ACAD_XDICTIONARY
360
16DF9
102
}
330
0
100
AcDbSymbolTable
 70
     8
  0
LAYER
  5
14
102
{ACAD_XDICTIONARY
360
16D62
102
}
330
2
100
AcDbSymbolTableRecord
100
AcDbLayerTableRecord
  2
0
 70
     0
 62
     7
  6
CONTINUOUS
370
    -3
390
4EB
347
16D27
  0
LAYER
  5
1D
330
2
100
AcDbSymbolTableRecord
100
AcDbLayerTableRecord
  2
DEFPOINTS
 70
     0
 62
     7
  6
CONTINUOUS
290
     0
370
    -3
390
4EB
347
16D27
  0
LAYER
  5
3568
102
{ACAD_XDICTIONARY
360
16D6C
102
}
330
2
100
AcDbSymbolTableRecord
100
AcDbLayerTableRecord
  2
C6
 70
     0
 62
     2
  6
CONTINUOUS
370
    -3
390
4EB
347
16D27
  0
ENDTAB
  0
TABLE
  2
STYLE
  5
3
330
0
100
AcDbSymbolTable
 70
     6
  0
STYLE
  5
17
330
3
100
AcDbSymbolTableRecord
100
AcDbTextStyleTableRecord
  2
MX_NOTE_STANDARD
 70
     0
 40
0.0
 41
1.0
 50
0.0
 71
     0
 42
10.0
  3
txt.shx
  4
extfont.shx
  0
STYLE
  5
4E7
330
3
100
AcDbSymbolTableRecord
100
AcDbTextStyleTableRecord
  2
Standard
 70
     0
 40
0.0
 41
1.0
 50
0.0
 71
     0
 42
0.2
  3

  4

  0
STYLE
  5
603
330
3
100
AcDbSymbolTableRecord
100
AcDbTextStyleTableRecord
  2
KANJI
 70
     0
 40
0.0
 41
1.0
 50
0.0
 71
     0
 42
3.5
  3
simplex
  4
bigfont
  0
ENDTAB
  0
TABLE
  2
VIEW
  5
5
330
0
100
AcDbSymbolTable
 70
    39
  0
ENDTAB
  0
TABLE
  2
UCS
  5
6
330
0
100
AcDbSymbolTable
 70
     0
  0
ENDTAB
  0
TABLE
  2
APPID
  5
8
330
0
100
AcDbSymbolTable
 70
     7
  0
APPID
  5
16
330
8
100
AcDbSymbolTableRecord
100
AcDbRegAppTableRecord
  2
ACAD
 70
     0
  0
APPID
  5
4D
330
8
100
AcDbSymbolTableRecord
100
AcDbRegAppTableRecord
  2
CONTENTBLOCKDESCRIPTION
 70
     0
  0
APPID
  5
16DDD
330
8
100
AcDbSymbolTableRecord
100
AcDbRegAppTableRecord
  2
ACAD_DSTYLE_DIMRADIAL_EXTENSION
 70
     0
  0
APPID
  5
16DF7
330
8
100
AcDbSymbolTableRecord
100
AcDbRegAppTableRecord
  2
ACAD_PSEXT
 70
     0
  0
APPID
  5
16DF8
330
8
100
AcDbSymbolTableRecord
100
AcDbRegAppTableRecord
  2
ACAD_NAV_VCDISPLAY
 70
     0
  0
APPID
  5
16E03
330
8
100
AcDbSymbolTableRecord
100
AcDbRegAppTableRecord
  2
ACAD_EXEMPT_FROM_CAD_STANDARDS
 70
     0
  0
APPID
  5
1714D
330
8
100
AcDbSymbolTableRecord
100
AcDbRegAppTableRecord
  2
ACAD_MLEADERVER
 70
     0
  0
ENDTAB
  0
TABLE
  2
DIMSTYLE
  5
9
330
0
100
AcDbSymbolTable
 70
     4
100
AcDbDimStyleTable
 71
     1
340
19C
  0
DIMSTYLE
105
19C
330
9
100
AcDbSymbolTableRecord
100
AcDbDimStyleTableRecord
  2
MX_DIMSTYLE_PV
 70
     0
 41
2.5
 42
1.0
 43
3.75
 44
2.286
 73
     0
 74
     0
 77
     1
 78
     8
140
3.799999999999998
141
2.5
143
0.03937
147
1.0
171
     4
172
     1
274
     4
288
     1
340
17
  0
DIMSTYLE
105
16DF6
330
9
100
AcDbSymbolTableRecord
100
AcDbDimStyleTableRecord
  2
STANDARD
 70
     0
 41
1.0
 42
1.0
 43
6.0
 44
1.0
 73
     0
 74
     0
 77
     1
 78
     8
140
2.5
141
0.0
147
0.5
172
     1
173
     1
284
     8
285
     8
286
     8
340
603
341
16DF1
343
16DF1
344
16DF1
  0
ENDTAB
  0
TABLE
  2
BLOCK_RECORD
  5
1
330
0
100
AcDbSymbolTable
 70
   329
  0
BLOCK_RECORD
  5
A
102
{ACAD_XDICTIONARY
360
5293
102
}
330
1
100
AcDbSymbolTableRecord
100
AcDbBlockTableRecord
  2
*MODEL_SPACE
340
4EE
 70
     0
280
     1
281
     0
  0
BLOCK_RECORD
  5
B
330
1
100
AcDbSymbolTableRecord
100
AcDbBlockTableRecord
  2
*PAPER_SPACE
340
4EF
 70
     0
280
     1
281
     0
  0
BLOCK_RECORD
  5
16DF1
330
1
100
AcDbSymbolTableRecord
100
AcDbBlockTableRecord
  2
Y2
340
0
 70
     0
280
     1
281
     0
  0
ENDTAB
  0
ENDSEC
  0
SECTION
  2
BLOCKS
  0
BLOCK
  5
D
330
A
100
AcDbEntity
  8
0
100
AcDbBlockBegin
  2
*MODEL_SPACE
 70
     0
 10
0.0
 20
0.0
 30
0.0
  3
*MODEL_SPACE
  1

  0
ENDBLK
  5
E
330
A
100
AcDbEntity
  8
0
100
AcDbBlockEnd
  0
BLOCK
  5
F
330
B
100
AcDbEntity
 67
     1
  8
0
100
AcDbBlockBegin
  2
*PAPER_SPACE
 70
     0
 10
0.0
 20
0.0
 30
0.0
  3
*PAPER_SPACE
  1

  0
ENDBLK
  5
10
330
B
100
AcDbEntity
 67
     1
  8
0
100
AcDbBlockEnd
  0
BLOCK
  5
16DF2
330
16DF1
100
AcDbEntity
  8
0
 48
2.0
100
AcDbBlockBegin
  2
Y2
 70
     0
 10
0.0
 20
0.0
 30
0.0
  3
Y2
  1

  0
SOLID
  5
16DF3
330
16DF1
100
AcDbEntity
  8
0
  6
ByBlock
 62
     0
100
AcDbTrace
 10
-1.811110924292108
 20
0.485285709567151
 30
0.0
 11
-1.811110924292108
 21
-0.4852857095673784
 31
0.0
 12
-0.0000000000000568
 22
-0.0000000000000142
 32
0.0
 13
-0.0000000000000568
 23
-0.0000000000000142
 33
0.0
  0
ENDBLK
  5
16DF4
330
16DF1
100
AcDbEntity
  8
0
 48
2.0
100
AcDbBlockEnd
  0
ENDSEC
  0
SECTION
  2
ENTITIES
  0
LINE
  5
1017317
330
A
100
AcDbEntity
  8
0
100
AcDbLine
 10
12346.18630206169
 20
-11769.82954880231
 30
0.0
 11
12346.18630206169
 21
-13845.40120438835
 31
0.0
  0
LINE
  5
101731C
330
A
100
AcDbEntity
  8
0
100
AcDbLine
 10
10428.36255827007
 20
-11769.82954880231
 30
0.0
 11
10428.36255827007
 21
-13845.40120438835
 31
0.0
  0
TEXT
  5
1017321
330
A
100
AcDbEntity
  8
C6
 48
2.0
100
AcDbText
 10
10995.91123089399
 20
-11412.41703814159
 30
0.0
 40
100.0
  1
IF6-700R1
  7
KANJI
100
AcDbText
  0
LINE
  5
10190C0
330
A
100
AcDbEntity
  8
0
100
AcDbLine
 10
11084.7472089779
 20
-12362.55595023339
 30
0.0
 11
11091.0972089779
 21
-12362.55595023339
 31
0.0
  0
LINE
  5
10190C1
330
A
100
AcDbEntity
  8
0
100
AcDbLine
 10
11081.1722089779
 20
-12462.55595023338
 30
0.0
 11
11094.6722089779
 21
-12462.55595023339
 31
0.0
  0
LINE
  5
10190C2
330
A
100
AcDbEntity
  8
0
100
AcDbLine
 10
11748.7472089779
 20
-12362.55595023339
 30
0.0
 11
11755.0972089779
 21
-12362.55595023339
 31
0.0
  0
LINE
  5
10190C4
330
A
100
AcDbEntity
  8
0
  6
CENTER
100
AcDbLine
 10
11087.9222089779
 20
-12362.55595023339
 30
0.0
 11
11087.9222089779
 21
-13562.55595023342
 31
0.0
  0
LINE
  5
10190C5
330
A
100
AcDbEntity
  8
0
100
AcDbLine
 10
11084.7472089779
 20
-12362.55595023339
 30
0.0
 11
11084.7472089779
 21
-12462.55595023339
 31
0.0
  0
LINE
  5
10190C6
330
A
100
AcDbEntity
  8
0
100
AcDbLine
 10
11084.7472089779
 20
-13462.55595023341
 30
0.0
 11
11084.7472089779
 21
-13562.55595023342
 31
0.0
  0
LINE
  5
10190C7
330
A
100
AcDbEntity
  8
0
100
AcDbLine
 10
11091.0972089779
 20
-12362.55595023339
 30
0.0
 11
11091.0972089779
 21
-12462.55595023339
 31
0.0
  0
LINE
  5
10190C8
330
A
100
AcDbEntity
  8
0
100
AcDbLine
 10
11091.0972089779
 20
-13462.55595023341
 30
0.0
 11
11091.0972089779
 21
-13562.55595023342
 31
0.0
  0
LINE
  5
10190C9
330
A
100
AcDbEntity
  8
0
100
AcDbLine
 10
11081.1722089779
 20
-12462.55595023339
 30
0.0
 11
11081.1722089779
 21
-13462.55595023341
 31
0.0
  0
LINE
  5
10190CA
330
A
100
AcDbEntity
  8
0
100
AcDbLine
 10
11094.6722089779
 20
-12462.55595023339
 30
0.0
 11
11094.6722089779
 21
-13462.55595023341
 31
0.0
  0
LINE
  5
10190CB
330
A
100
AcDbEntity
  8
0
100
AcDbLine
 10
11748.7472089779
 20
-13562.55595023342
 30
0.0
 11
11748.7472089779
 21
-13462.55595023341
 31
0.0
  0
LINE
  5
10190CC
330
A
100
AcDbEntity
  8
0
100
AcDbLine
 10
11755.0972089779
 20
-13562.55595023342
 30
0.0
 11
11755.0972089779
 21
-13462.55595023341
 31
0.0
  0
LINE
  5
10190CD
330
A
100
AcDbEntity
  8
0
100
AcDbLine
 10
11084.7472089779
 20
-13562.55595023342
 30
0.0
 11
11091.0972089779
 21
-13562.55595023342
 31
0.0
  0
LINE
  5
10190CE
330
A
100
AcDbEntity
  8
0
100
AcDbLine
 10
11081.1722089779
 20
-13462.55595023341
 30
0.0
 11
11094.6722089779
 21
-13462.55595023341
 31
0.0
  0
LINE
  5
10190CF
330
A
100
AcDbEntity
  8
0
100
AcDbLine
 10
11751.9222089779
 20
-12362.55595023339
 30
0.0
 11
11751.9222089779
 21
-12462.70397214389
 31
0.0
  0
LINE
  5
10190D1
330
A
100
AcDbEntity
  8
0
100
AcDbLine
 10
11748.7472089779
 20
-13562.55595023342
 30
0.0
 11
11755.0972089779
 21
-13562.55595023342
 31
0.0
  0
LINE
  5
10190D3
330
A
100
AcDbEntity
  8
0
100
AcDbLine
 10
11748.7472089779
 20
-12362.55595023339
 30
0.0
 11
11748.7472089779
 21
-12462.55595023339
 31
0.0
  0
LINE
  5
10190D4
330
A
100
AcDbEntity
  8
0
100
AcDbLine
 10
11755.0972089779
 20
-12362.55595023339
 30
0.0
 11
11755.0972089779
 21
-12462.55595023339
 31
0.0
  0
ARC
  5
10190D5
330
A
100
AcDbEntity
  8
0
100
AcDbCircle
 10
11873.9222089779
 20
-12962.55595023342
 30
0.0
 40
252.25
100
AcDbArc
 50
285.3359832067651
 51
74.66401679323495
  0
ARC
  5
10190D6
330
A
100
AcDbEntity
  8
0
100
AcDbCircle
 10
11873.9222089779
 20
-12962.55595023342
 30
0.0
 40
265.75
100
AcDbArc
 50
285.3359832067651
 51
74.66401679323495
  0
ARC
  5
10190D7
330
A
100
AcDbEntity
  8
0
100
AcDbCircle
 10
12010.92274428722
 20
-13462.11154560129
 30
0.0
 40
265.7509068896382
100
AcDbArc
 50
105.3360492590353
 51
180.0958134893518
  0
ARC
  5
10190D8
330
A
100
AcDbEntity
  8
0
100
AcDbCircle
 10
12010.9227728285
 20
-13462.11158791232
 30
0.0
 40
252.2509552426282
100
AcDbArc
 50
105.3360565042498
 51
180.1009316246758
  0
ARC
  5
10190D9
330
A
100
AcDbEntity
  8
0
100
AcDbCircle
 10
12010.92274428722
 20
-12463.00035486553
 30
0.0
 40
265.7509068896386
100
AcDbArc
 50
179.9041865106482
 51
254.6639507409647
  0
ARC
  5
10190DA
330
A
100
AcDbEntity
  8
0
100
AcDbCircle
 10
12010.9227728285
 20
-12463.0003125545
 30
0.0
 40
252.2509552426284
100
AcDbArc
 50
179.8990683753241
 51
254.6639434957502
  0
LINE
  5
10190DB
330
A
100
AcDbEntity
  8
0
  6
CENTER
100
AcDbLine
 10
11751.9222089779
 20
-12462.55595023339
 30
0.0
 11
11758.6722089779
 21
-12462.55595023339
 31
0.0
  0
LINE
  5
10190DC
330
A
100
AcDbEntity
  8
0
  6
CENTER
100
AcDbLine
 10
11751.9222089779
 20
-12462.55595023339
 30
0.0
 11
11745.1722089779
 21
-12462.55595023339
 31
0.0
  0
LINE
  5
10190DD
330
A
100
AcDbEntity
  8
0
  6
CENTER
100
AcDbLine
 10
11751.9222089779
 20
-13462.55595023341
 30
0.0
 11
11758.6722089779
 21
-13462.55595023341
 31
0.0
  0
LINE
  5
10190DE
330
A
100
AcDbEntity
  8
0
  6
CENTER
100
AcDbLine
 10
11751.9222089779
 20
-13462.55595023341
 30
0.0
 11
11745.1722089779
 21
-13462.55595023341
 31
0.0
  0
LWPOLYLINE
  5
10190DF
330
A
100
AcDbEntity
  8
0
  6
CENTER
100
AcDbPolyline
 90
        6
 70
     0
 43
0.0
 10
11751.9222089779
 20
-12362.55595023339
 10
11751.9222089779
 20
-12463.00114843485
 42
0.3378201412211801
 10
11942.42220897791
 20
-12712.77854933413
 42
-0.7626790867153979
 10
11942.42220897789
 20
-13212.33335113271
 42
0.33782014122118
 10
11751.9222089779
 20
-13462.11075203197
 10
11751.9222089779
 20
-13562.55595023342
  0
LINE
  5
101932A
330
A
100
AcDbEntity
  8
0
100
AcDbLine
 10
13000.98600206169
 20
-12434.60283997895
 30
0.0
 11
13010.50600206169
 21
-12434.60283997896
 31
0.0
  0
LINE
  5
101932B
330
A
100
AcDbEntity
  8
0
100
AcDbLine
 10
12996.99600206168
 20
-12534.60283997896
 30
0.0
 11
13014.49600206169
 21
-12534.60283997896
 31
0.0
  0
LINE
  5
101932C
330
A
100
AcDbEntity
  8
0
100
AcDbLine
 10
13664.98600206169
 20
-12434.60283997896
 30
0.0
 11
13674.50600206169
 21
-12434.60283997896
 31
0.0
  0
LINE
  5
101932D
330
A
100
AcDbEntity
  8
0
  6
CENTER
100
AcDbLine
 10
13005.74600206169
 20
-12434.60283997896
 30
0.0
 11
13005.74600206169
 21
-13634.60283997899
 31
0.0
  0
LINE
  5
101932E
330
A
100
AcDbEntity
  8
0
100
AcDbLine
 10
13000.98600206169
 20
-12434.60283997896
 30
0.0
 11
13000.98600206168
 21
-12534.60283997895
 31
0.0
  0
LINE
  5
101932F
330
A
100
AcDbEntity
  8
0
100
AcDbLine
 10
13000.98600206168
 20
-13534.60283997897
 30
0.0
 11
13000.98600206169
 21
-13634.60283997899
 31
0.0
  0
LINE
  5
1019330
330
A
100
AcDbEntity
  8
0
100
AcDbLine
 10
13010.50600206169
 20
-12434.60283997896
 30
0.0
 11
13010.50600206169
 21
-12534.60283997896
 31
0.0
  0
LINE
  5
1019331
330
A
100
AcDbEntity
  8
0
100
AcDbLine
 10
13010.50600206169
 20
-13534.60283997897
 30
0.0
 11
13010.50600206169
 21
-13634.60283997899
 31
0.0
  0
LINE
  5
1019332
330
A
100
AcDbEntity
  8
0
100
AcDbLine
 10
12996.99600206168
 20
-12534.60283997895
 30
0.0
 11
12996.99600206169
 21
-13534.60283997897
 31
0.0
  0
LINE
  5
1019333
330
A
100
AcDbEntity
  8
0
100
AcDbLine
 10
13014.49600206169
 20
-12534.60283997896
 30
0.0
 11
13014.49600206169
 21
-13534.60283997897
 31
0.0
  0
LINE
  5
1019334
330
A
100
AcDbEntity
  8
0
100
AcDbLine
 10
13664.98600206169
 20
-13634.60283997899
 30
0.0
 11
13664.98600206169
 21
-13534.60283997897
 31
0.0
  0
LINE
  5
1019335
330
A
100
AcDbEntity
  8
0
100
AcDbLine
 10
13674.50600206169
 20
-13634.60283997899
 30
0.0
 11
13674.50600206169
 21
-13534.60283997897
 31
0.0
  0
LINE
  5
1019336
330
A
100
AcDbEntity
  8
0
100
AcDbLine
 10
13000.98600206169
 20
-13634.60283997899
 30
0.0
 11
13010.50600206169
 21
-13634.60283997899
 31
0.0
  0
LINE
  5
1019337
330
A
100
AcDbEntity
  8
0
100
AcDbLine
 10
12996.99600206168
 20
-13534.60283997897
 30
0.0
 11
13014.49600206169
 21
-13534.60283997897
 31
0.0
  0
LINE
  5
1019338
330
A
100
AcDbEntity
  8
0
100
AcDbLine
 10
13669.74600206169
 20
-12434.60283997896
 30
0.0
 11
13669.74600206169
 21
-12534.75086188946
 31
0.0
  0
LINE
  5
101933A
330
A
100
AcDbEntity
  8
0
100
AcDbLine
 10
13664.98600206169
 20
-13634.60283997899
 30
0.0
 11
13674.50600206169
 21
-13634.60283997899
 31
0.0
  0
LINE
  5
101933B
330
A
100
AcDbEntity
  8
0
100
AcDbLine
 10
13664.98600206169
 20
-12434.60283997896
 30
0.0
 11
13664.98600206169
 21
-12534.60283997895
 31
0.0
  0
LINE
  5
101933C
330
A
100
AcDbEntity
  8
0
100
AcDbLine
 10
13674.50600206169
 20
-12434.60283997896
 30
0.0
 11
13674.50600206169
 21
-12534.60283997895
 31
0.0
  0
ARC
  5
101933D
330
A
100
AcDbEntity
  8
0
  6
CENTER
100
AcDbCircle
 10
13791.74600206169
 20
-13034.60283997899
 30
0.0
 40
259.0
100
AcDbArc
 50
285.3359832067651
 51
74.66401679323488
  0
ARC
  5
101933E
330
A
100
AcDbEntity
  8
0
100
AcDbCircle
 10
13791.74600206169
 20
-13034.60283997899
 30
0.0
 40
250.25
100
AcDbArc
 50
285.3359832067651
 51
74.66401679323488
  0
ARC
  5
101933F
330
A
100
AcDbEntity
  8
0
100
AcDbCircle
 10
13791.74600206169
 20
-13034.60283997899
 30
0.0
 40
267.75
100
AcDbArc
 50
285.3359832067651
 51
74.66401679323488
  0
ARC
  5
1019340
330
A
100
AcDbEntity
  8
0
100
AcDbCircle
 10
13928.74653338657
 20
-13534.15842944015
 30
0.0
 40
267.7509001394524
100
AcDbArc
 50
105.3360482776755
 51
180.0950990637673
  0
ARC
  5
1019341
330
A
100
AcDbEntity
  8
0
100
AcDbCircle
 10
13928.74657040152
 20
-13534.15848431296
 30
0.0
 40
250.2509628480377
100
AcDbArc
 50
105.3360576782456
 51
180.1017367419872
  0
ARC
  5
1019342
330
A
100
AcDbEntity
  8
0
100
AcDbCircle
 10
13928.74653338657
 20
-12535.04725051781
 30
0.0
 40
267.7509001394517
100
AcDbArc
 50
179.9049009362326
 51
254.6639517223245
  0
ARC
  5
1019343
330
A
100
AcDbEntity
  8
0
100
AcDbCircle
 10
13928.74657040152
 20
-12535.04719564499
 30
0.0
 40
250.2509628480372
100
AcDbArc
 50
179.8982632580127
 51
254.6639423217543
  0
LINE
  5
1019344
330
A
100
AcDbEntity
  8
0
  6
CENTER
100
AcDbLine
 10
13669.74600206169
 20
-12534.60283997896
 30
0.0
 11
13678.49600206169
 21
-12534.60283997896
 31
0.0
  0
LINE
  5
1019345
330
A
100
AcDbEntity
  8
0
  6
CENTER
100
AcDbLine
 10
13669.74600206169
 20
-12534.60283997896
 30
0.0
 11
13660.99600206169
 21
-12534.60283997896
 31
0.0
  0
LINE
  5
1019346
330
A
100
AcDbEntity
  8
0
  6
CENTER
100
AcDbLine
 10
13669.74600206169
 20
-13534.60283997898
 30
0.0
 11
13678.49600206169
 21
-13534.60283997898
 31
0.0
  0
LINE
  5
1019347
330
A
100
AcDbEntity
  8
0
  6
CENTER
100
AcDbLine
 10
13669.74600206169
 20
-13534.60283997898
 30
0.0
 11
13660.99600206169
 21
-13534.60283997898
 31
0.0
  0
LWPOLYLINE
  5
1019348
330
A
100
AcDbEntity
  8
0
  6
CENTER
100
AcDbPolyline
 90
        3
 70
     0
 43
0.0
 10
13669.74600206169
 20
-12434.60283997896
 10
13669.74600206169
 20
-12535.04803818042
 42
0.3378201412212278
 10
13860.24600206174
 20
-12784.82543907972
  0
LWPOLYLINE
  5
1019349
330
A
100
AcDbEntity
  8
0
  6
CENTER
100
AcDbPolyline
 90
        3
 70
     0
 43
0.0
 10
13860.24600206174
 20
-13284.38024087824
 42
0.3378201412212278
 10
13669.74600206169
 20
-13534.15764177754
 10
13669.74600206169
 20
-13634.60283997899
  0
LINE
  5
101946A
330
A
100
AcDbEntity
  8
0
100
AcDbLine
 10
14264.01004585331
 20
-11769.82954880231
 30
0.0
 11
14264.01004585331
 21
-13845.40120438835
 31
0.0
  0
LINE
  5
101946B
330
A
100
AcDbEntity
  8
0
100
AcDbLine
 10
16181.83378964492
 20
-11769.82954880231
 30
0.0
 11
16181.83378964492
 21
-13845.40120438835
 31
0.0
  0
LINE
  5
101946C
330
A
100
AcDbEntity
  8
0
100
AcDbLine
 10
18099.65753343654
 20
-11769.82954880231
 30
0.0
 11
18099.65753343654
 21
-13845.40120438835
 31
0.0
  0
LINE
  5
101946D
330
A
100
AcDbEntity
  8
0
100
AcDbLine
 10
20017.48127722816
 20
-11769.82954880231
 30
0.0
 11
20017.48127722816
 21
-13845.40120438835
 31
0.0
  0
LINE
  5
101946E
330
A
100
AcDbEntity
  8
0
100
AcDbLine
 10
21935.30502101978
 20
-11769.82954880231
 30
0.0
 11
21935.30502101978
 21
-13845.40120438835
 31
0.0
  0
LINE
  5
101946F
330
A
100
AcDbEntity
  8
0
100
AcDbLine
 10
23853.12876481139
 20
-11769.82954880231
 30
0.0
 11
23853.12876481139
 21
-13845.40120438835
 31
0.0
  0
LINE
  5
1019470
330
A
100
AcDbEntity
  8
0
100
AcDbLine
 10
25770.95250860301
 20
-11769.82954880231
 30
0.0
 11
25770.95250860301
 21
-13845.40120438835
 31
0.0
  0
LINE
  5
1019471
330
A
100
AcDbEntity
  8
0
100
AcDbLine
 10
27688.77625239463
 20
-11769.82954880231
 30
0.0
 11
27688.77625239463
 21
-13845.40120438835
 31
0.0
  0
LINE
  5
1019472
330
A
100
AcDbEntity
  8
0
100
AcDbLine
 10
29606.59999618625
 20
-11769.82954880231
 30
0.0
 11
29606.59999618625
 21
-13845.40120438835
 31
0.0
  0
LINE
  5
1019473
330
A
100
AcDbEntity
  8
0
100
AcDbLine
 10
31524.42373997787
 20
-11769.82954880231
 30
0.0
 11
31524.42373997787
 21
-13845.40120438835
 31
0.0
  0
LINE
  5
1019474
330
A
100
AcDbEntity
  8
0
100
AcDbLine
 10
33442.24748376948
 20
-11769.82954880231
 30
0.0
 11
33442.24748376948
 21
-13845.40120438835
 31
0.0
  0
LINE
  5
1019475
330
A
100
AcDbEntity
  8
0
100
AcDbLine
 10
35360.0712275611
 20
-11769.82954880231
 30
0.0
 11
35360.0712275611
 21
-13845.40120438835
 31
0.0
  0
LINE
  5
10194C8
330
A
100
AcDbEntity
  8
0
100
AcDbLine
 10
14917.21969656114
 20
-12362.55595023339
 30
0.0
 11
14929.91969656114
 21
-12362.55595023339
 31
0.0
  0
LINE
  5
10194C9
330
A
100
AcDbEntity
  8
0
100
AcDbLine
 10
14914.06969656114
 20
-12462.55595023339
 30
0.0
 11
14933.06969656114
 21
-12462.55595023339
 31
0.0
  0
LINE
  5
10194CA
330
A
100
AcDbEntity
  8
0
100
AcDbLine
 10
15581.21969656114
 20
-12362.55595023339
 30
0.0
 11
15593.91969656114
 21
-12362.55595023339
 31
0.0
  0
LINE
  5
10194CC
330
A
100
AcDbEntity
  8
0
  6
CENTER
100
AcDbLine
 10
14923.56969656114
 20
-12362.55595023339
 30
0.0
 11
14923.56969656114
 21
-13562.55595023342
 31
0.0
  0
LINE
  5
10194CE
330
A
100
AcDbEntity
  8
0
100
AcDbLine
 10
14917.21969656114
 20
-13562.55595023342
 30
0.0
 11
14929.91969656114
 21
-13562.55595023342
 31
0.0
  0
LINE
  5
10194CF
330
A
100
AcDbEntity
  8
0
100
AcDbLine
 10
14914.06969656114
 20
-13462.55595023341
 30
0.0
 11
14933.06969656114
 21
-13462.55595023341
 31
0.0
  0
LINE
  5
10194D0
330
A
100
AcDbEntity
  8
0
100
AcDbLine
 10
15587.56969656114
 20
-12362.55595023339
 30
0.0
 11
15587.56969656114
 21
-12462.70397214389
 31
0.0
  0
LINE
  5
10194D2
330
A
100
AcDbEntity
  8
0
100
AcDbLine
 10
15581.21969656114
 20
-13562.55595023342
 30
0.0
 11
15593.91969656114
 21
-13562.55595023342
 31
0.0
  0
LINE
  5
10194D3
330
A
100
AcDbEntity
  8
0
100
AcDbLine
 10
15584.39469656114
 20
-13462.55595023341
 30
0.0
 11
15590.74469656114
 21
-13462.55595023341
 31
0.0
  0
ARC
  5
10194D5
330
A
100
AcDbEntity
  8
0
  6
CENTER
100
AcDbCircle
 10
15709.56969656114
 20
-12962.55595023342
 30
0.0
 40
259.0
100
AcDbArc
 50
285.3359832067651
 51
74.66401679323495
  0
LINE
  5
10195A7
330
A
100
AcDbEntity
  8
0
100
AcDbLine
 10
14933.06969656114
 20
-12462.55595023339
 30
0.0
 11
14933.06969656114
 21
-13462.55595023341
 31
0.0
  0
LINE
  5
10195A8
330
A
100
AcDbEntity
  8
0
100
AcDbLine
 10
14914.06969656114
 20
-12462.55595023339
 30
0.0
 11
14914.06969656114
 21
-13462.55595023341
 31
0.0
  0
ARC
  5
10195AD
330
A
100
AcDbEntity
  8
0
100
AcDbCircle
 10
15846.57026660293
 20
-12463.00030337636
 30
0.0
 40
249.500965731392
100
AcDbArc
 50
179.8979580175058
 51
254.6639418741821
  0
ARC
  5
10195AE
330
A
100
AcDbEntity
  8
0
100
AcDbCircle
 10
15846.57022640712
 20
-12463.00036296465
 30
0.0
 40
268.5008976339756
100
AcDbArc
 50
179.9051661066852
 51
254.6639520846907
  0
ARC
  5
10195AF
330
A
100
AcDbEntity
  8
0
100
AcDbCircle
 10
15709.56969656114
 20
-12962.55595023342
 30
0.0
 40
268.5
100
AcDbArc
 50
285.3359832067651
 51
74.66401679323495
  0
ARC
  5
10195B0
330
A
100
AcDbEntity
  8
0
100
AcDbCircle
 10
15709.56969656114
 20
-12962.55595023342
 30
0.0
 40
249.5
100
AcDbArc
 50
285.3359832067651
 51
74.66401679323495
  0
ARC
  5
10195B1
330
A
100
AcDbEntity
  8
0
100
AcDbCircle
 10
15846.57022640713
 20
-13462.11153750217
 30
0.0
 40
268.5008976339802
100
AcDbArc
 50
105.3360479153093
 51
180.0948338933147
  0
ARC
  5
10195B2
330
A
100
AcDbEntity
  8
0
100
AcDbCircle
 10
15846.57026660294
 20
-13462.11159709046
 30
0.0
 40
249.5009657313941
100
AcDbArc
 50
105.3360581258178
 51
180.1020419823899
  0
LINE
  5
10195EA
330
A
100
AcDbEntity
  8
0
100
AcDbLine
 10
14929.91969656114
 20
-12362.55595023339
 30
0.0
 11
14929.91969656114
 21
-12462.55595023339
 31
0.0
  0
LINE
  5
10195EB
330
A
100
AcDbEntity
  8
0
100
AcDbLine
 10
14917.21969656114
 20
-12362.55595023339
 30
0.0
 11
14917.21969656114
 21
-12462.55595023339
 31
0.0
  0
LINE
  5
10195EC
330
A
100
AcDbEntity
  8
0
100
AcDbLine
 10
15593.91969656114
 20
-12362.55595023339
 30
0.0
 11
15593.91969656114
 21
-12462.55595023339
 31
0.0
  0
LINE
  5
10195ED
330
A
100
AcDbEntity
  8
0
100
AcDbLine
 10
15581.21969656114
 20
-12362.55595023339
 30
0.0
 11
15581.21969656114
 21
-12462.55595023339
 31
0.0
  0
LINE
  5
10195EE
330
A
100
AcDbEntity
  8
0
100
AcDbLine
 10
15593.91969656114
 20
-13562.55595023342
 30
0.0
 11
15593.91969656114
 21
-13462.55595023341
 31
0.0
  0
LINE
  5
10195EF
330
A
100
AcDbEntity
  8
0
100
AcDbLine
 10
15581.21969656114
 20
-13562.55595023342
 30
0.0
 11
15581.21969656114
 21
-13462.55595023341
 31
0.0
  0
LINE
  5
10195F0
330
A
100
AcDbEntity
  8
0
100
AcDbLine
 10
14929.91969656114
 20
-13462.5559502334
 30
0.0
 11
14929.91969656114
 21
-13562.55595023342
 31
0.0
  0
LINE
  5
10195F1
330
A
100
AcDbEntity
  8
0
100
AcDbLine
 10
14917.21969656114
 20
-13462.55595023341
 30
0.0
 11
14917.21969656114
 21
-13562.55595023342
 31
0.0
  0
LINE
  5
10195F7
330
A
100
AcDbEntity
  8
0
  6
CENTER
100
AcDbLine
 10
15587.56969656114
 20
-12462.55595023339
 30
0.0
 11
15597.06969656114
 21
-12462.55595023339
 31
0.0
  0
LINE
  5
10195F9
330
A
100
AcDbEntity
  8
0
  6
CENTER
100
AcDbLine
 10
15587.56969656114
 20
-12462.55595023339
 30
0.0
 11
15578.06969656114
 21
-12462.55595023339
 31
0.0
  0
LINE
  5
101966A
330
A
100
AcDbEntity
  8
0
  6
CENTER
100
AcDbLine
 10
15587.56969656114
 20
-13462.55595023341
 30
0.0
 11
15597.06969656114
 21
-13462.55595023341
 31
0.0
  0
LINE
  5
101966B
330
A
100
AcDbEntity
  8
0
  6
CENTER
100
AcDbLine
 10
15587.56969656114
 20
-13462.55595023341
 30
0.0
 11
15578.06969656114
 21
-13462.55595023341
 31
0.0
  0
LWPOLYLINE
  5
10196DA
330
A
100
AcDbEntity
  8
0
  6
CENTER
100
AcDbPolyline
 90
        3
 70
     0
 43
0.0
 10
15587.56969656114
 20
-12362.55595023339
 10
15587.56969656114
 20
-12463.00114843485
 42
0.3378201412212276
 10
15778.06969656119
 20
-12712.77854933414
  0
LWPOLYLINE
  5
10196DB
330
A
100
AcDbEntity
  8
0
  6
CENTER
100
AcDbPolyline
 90
        3
 70
     0
 43
0.0
 10
15778.06969656119
 20
-13212.33335113267
 42
0.3378201412212277
 10
15587.56969656114
 20
-13462.11075203197
 10
15587.56969656114
 20
-13562.55595023342
  0
LINE
  5
1019782
330
A
100
AcDbEntity
  8
0
100
AcDbLine
 10
16833.45344035275
 20
-12362.55595023339
 30
0.0
 11
16849.33344035275
 21
-12362.55595023339
 31
0.0
  0
LINE
  5
1019783
330
A
100
AcDbEntity
  8
0
100
AcDbLine
 10
16826.89344035275
 20
-12462.55595023339
 30
0.0
 11
16855.89344035275
 21
-12462.55595023339
 31
0.0
  0
LINE
  5
1019784
330
A
100
AcDbEntity
  8
0
100
AcDbLine
 10
17497.45344035275
 20
-12362.55595023339
 30
0.0
 11
17513.33344035275
 21
-12362.55595023339
 31
0.0
  0
LINE
  5
1019786
330
A
100
AcDbEntity
  8
0
  6
CENTER
100
AcDbLine
 10
16841.39344035275
 20
-12362.55595023339
 30
0.0
 11
16841.39344035275
 21
-13562.55595023342
 31
0.0
  0
LINE
  5
1019788
330
A
100
AcDbEntity
  8
0
100
AcDbLine
 10
16833.45344035275
 20
-13562.55595023342
 30
0.0
 11
16849.33344035275
 21
-13562.55595023342
 31
0.0
  0
LINE
  5
1019789
330
A
100
AcDbEntity
  8
0
100
AcDbLine
 10
16826.89344035275
 20
-13462.55595023341
 30
0.0
 11
16855.89344035275
 21
-13462.55595023341
 31
0.0
  0
LINE
  5
101978C
330
A
100
AcDbEntity
  8
0
100
AcDbLine
 10
17497.45344035275
 20
-13562.55595023342
 30
0.0
 11
17513.33344035275
 21
-13562.55595023342
 31
0.0
  0
ARC
  5
101978F
330
A
100
AcDbEntity
  8
0
  6
CENTER
100
AcDbCircle
 10
17627.39344035275
 20
-12962.55595023342
 30
0.0
 40
259.0
100
AcDbArc
 50
285.3359832067651
 51
74.66401679323495
  0
LINE
  5
1019792
330
A
100
AcDbEntity
  8
0
100
AcDbLine
 10
16855.89344035275
 20
-12462.55595023339
 30
0.0
 11
16855.89344035275
 21
-13462.55595023341
 31
0.0
  0
LINE
  5
1019793
330
A
100
AcDbEntity
  8
0
100
AcDbLine
 10
16826.89344035275
 20
-12462.55595023339
 30
0.0
 11
16826.89344035275
 21
-13462.55595023341
 31
0.0
  0
ARC
  5
1019794
330
A
100
AcDbEntity
  8
0
100
AcDbCircle
 10
17764.39402200668
 20
-12463.00028616194
 30
0.0
 40
244.5009854040034
100
AcDbArc
 50
179.8958753177435
 51
254.6639387847705
  0
ARC
  5
1019795
330
A
100
AcDbEntity
  8
0
100
AcDbCircle
 10
17764.39396054588
 20
-12463.00037727452
 30
0.0
 40
273.5008812806771
100
AcDbArc
 50
179.9068968083497
 51
254.6639544250229
  0
ARC
  5
1019796
330
A
100
AcDbEntity
  8
0
100
AcDbCircle
 10
17627.39344035275
 20
-12962.55595023342
 30
0.0
 40
273.5
100
AcDbArc
 50
285.3359832067651
 51
74.66401679323495
  0
ARC
  5
1019797
330
A
100
AcDbEntity
  8
0
100
AcDbCircle
 10
17627.39344035275
 20
-12962.55595023342
 30
0.0
 40
244.5
100
AcDbArc
 50
285.3359832067651
 51
74.66401679323495
  0
ARC
  5
1019798
330
A
100
AcDbEntity
  8
0
100
AcDbCircle
 10
17764.39396054588
 20
-13462.11152319231
 30
0.0
 40
273.5008812806797
100
AcDbArc
 50
105.3360455749771
 51
180.0931031916503
  0
ARC
  5
1019799
330
A
100
AcDbEntity
  8
0
100
AcDbCircle
 10
17764.39402200669
 20
-13462.11161430487
 30
0.0
 40
244.5009854040089
100
AcDbArc
 50
105.3360612152294
 51
180.1041246822565
  0
LINE
  5
101979A
330
A
100
AcDbEntity
  8
0
100
AcDbLine
 10
16849.33344035275
 20
-12362.55595023339
 30
0.0
 11
16849.33344035275
 21
-12462.55595023339
 31
0.0
  0
LINE
  5
101979B
330
A
100
AcDbEntity
  8
0
100
AcDbLine
 10
16833.45344035275
 20
-12362.55595023339
 30
0.0
 11
16833.45344035275
 21
-12462.55595023339
 31
0.0
  0
LINE
  5
101979C
330
A
100
AcDbEntity
  8
0
100
AcDbLine
 10
17513.33344035275
 20
-12362.55595023339
 30
0.0
 11
17513.33344035275
 21
-12462.55595023339
 31
0.0
  0
LINE
  5
101979D
330
A
100
AcDbEntity
  8
0
100
AcDbLine
 10
17497.45344035275
 20
-12362.55595023339
 30
0.0
 11
17497.45344035275
 21
-12462.55595023339
 31
0.0
  0
LINE
  5
101979E
330
A
100
AcDbEntity
  8
0
100
AcDbLine
 10
17513.33344035275
 20
-13562.55595023342
 30
0.0
 11
17513.33344035275
 21
-13462.55595023341
 31
0.0
  0
LINE
  5
101979F
330
A
100
AcDbEntity
  8
0
100
AcDbLine
 10
17497.45344035275
 20
-13562.55595023342
 30
0.0
 11
17497.45344035275
 21
-13462.55595023341
 31
0.0
  0
LINE
  5
10197E5
330
A
100
AcDbEntity
  8
0
100
AcDbLine
 10
16833.45344035275
 20
-13462.55595023341
 30
0.0
 11
16833.45344035275
 21
-13562.55595023342
 31
0.0
  0
LINE
  5
10197E6
330
A
100
AcDbEntity
  8
0
100
AcDbLine
 10
16849.33344035275
 20
-13462.55595023341
 30
0.0
 11
16849.33344035275
 21
-13562.55595023342
 31
0.0
  0
LINE
  5
10197E7
330
A
100
AcDbEntity
  8
0
  6
CENTER
100
AcDbLine
 10
17505.39344035275
 20
-12462.55595023339
 30
0.0
 11
17519.89344035275
 21
-12462.55595023339
 31
0.0
  0
LINE
  5
10197E8
330
A
100
AcDbEntity
  8
0
  6
CENTER
100
AcDbLine
 10
17505.39344035275
 20
-12462.55595023339
 30
0.0
 11
17490.89344035275
 21
-12462.55595023339
 31
0.0
  0
LINE
  5
10197E9
330
A
100
AcDbEntity
  8
0
  6
CENTER
100
AcDbLine
 10
17505.39344035275
 20
-13462.55595023341
 30
0.0
 11
17519.89344035275
 21
-13462.55595023341
 31
0.0
  0
LINE
  5
10197EA
330
A
100
AcDbEntity
  8
0
  6
CENTER
100
AcDbLine
 10
17505.39344035275
 20
-13462.55595023341
 30
0.0
 11
17490.89344035275
 21
-13462.55595023341
 31
0.0
  0
LWPOLYLINE
  5
10198AB
330
A
100
AcDbEntity
  8
0
  6
CENTER
100
AcDbPolyline
 90
        3
 70
     0
 43
0.0
 10
17505.39344035275
 20
-12362.55595023339
 10
17505.39344035275
 20
-12463.00114843485
 42
0.3378201412212278
 10
17695.8934403528
 20
-12712.77854933414
  0
LWPOLYLINE
  5
10198AC
330
A
100
AcDbEntity
  8
0
  6
CENTER
100
AcDbPolyline
 90
        3
 70
     0
 43
0.0
 10
17695.8934403528
 20
-13212.33335113267
 42
0.3378201412212278
 10
17505.39344035275
 20
-13462.11075203197
 10
17505.39344035275
 20
-13562.55595023342
  0
LINE
  5
101995D
330
A
100
AcDbEntity
  8
0
100
AcDbLine
 10
18749.69218414437
 20
-12362.55595023339
 30
0.0
 11
18768.74218414437
 21
-12362.55595023339
 31
0.0
  0
LINE
  5
101995E
330
A
100
AcDbEntity
  8
0
100
AcDbLine
 10
18744.71718414437
 20
-12462.55595023339
 30
0.0
 11
18773.71718414437
 21
-12462.55595023339
 31
0.0
  0
LINE
  5
101995F
330
A
100
AcDbEntity
  8
0
100
AcDbLine
 10
19413.69218414437
 20
-12362.55595023339
 30
0.0
 11
19432.74218414437
 21
-12362.55595023339
 31
0.0
  0
LINE
  5
1019960
330
A
100
AcDbEntity
  8
0
  6
CENTER
100
AcDbLine
 10
18759.21718414437
 20
-12362.55595023339
 30
0.0
 11
18759.21718414437
 21
-13562.55595023342
 31
0.0
  0
LINE
  5
1019961
330
A
100
AcDbEntity
  8
0
100
AcDbLine
 10
18749.69218414437
 20
-12362.55595023339
 30
0.0
 11
18749.69218414437
 21
-12462.55595023339
 31
0.0
  0
LINE
  5
1019962
330
A
100
AcDbEntity
  8
0
100
AcDbLine
 10
18749.69218414437
 20
-13462.55595023341
 30
0.0
 11
18749.69218414437
 21
-13562.55595023342
 31
0.0
  0
LINE
  5
1019963
330
A
100
AcDbEntity
  8
0
100
AcDbLine
 10
18768.74218414437
 20
-12362.55595023339
 30
0.0
 11
18768.74218414437
 21
-12462.55595023339
 31
0.0
  0
LINE
  5
1019964
330
A
100
AcDbEntity
  8
0
100
AcDbLine
 10
18768.74218414437
 20
-13462.55595023341
 30
0.0
 11
18768.74218414437
 21
-13562.55595023342
 31
0.0
  0
LINE
  5
1019965
330
A
100
AcDbEntity
  8
0
100
AcDbLine
 10
18744.71718414437
 20
-12462.55595023339
 30
0.0
 11
18744.71718414437
 21
-13462.55595023341
 31
0.0
  0
LINE
  5
1019966
330
A
100
AcDbEntity
  8
0
100
AcDbLine
 10
18773.71718414437
 20
-12462.55595023339
 30
0.0
 11
18773.71718414437
 21
-13462.55595023341
 31
0.0
  0
LINE
  5
1019967
330
A
100
AcDbEntity
  8
0
100
AcDbLine
 10
18749.69218414437
 20
-13562.55595023342
 30
0.0
 11
18768.74218414437
 21
-13562.55595023342
 31
0.0
  0
LINE
  5
1019968
330
A
100
AcDbEntity
  8
0
100
AcDbLine
 10
18744.71718414437
 20
-13462.55595023341
 30
0.0
 11
18773.71718414437
 21
-13462.55595023341
 31
0.0
  0
LINE
  5
1019969
330
A
100
AcDbEntity
  8
0
100
AcDbLine
 10
19413.69218414437
 20
-13562.55595023342
 30
0.0
 11
19432.74218414437
 21
-13562.55595023342
 31
0.0
  0
ARC
  5
101996A
330
A
100
AcDbEntity
  8
0
  6
CENTER
100
AcDbCircle
 10
19545.21718414437
 20
-12962.55595023342
 30
0.0
 40
259.0
100
AcDbArc
 50
285.3359832067651
 51
74.66401679323495
  0
ARC
  5
101996B
330
A
100
AcDbEntity
  8
0
100
AcDbCircle
 10
19545.21718414437
 20
-12962.55595023342
 30
0.0
 40
244.5
100
AcDbArc
 50
285.3359832067651
 51
74.66401679323495
  0
ARC
  5
101996C
330
A
100
AcDbEntity
  8
0
100
AcDbCircle
 10
19545.21718414437
 20
-12962.55595023342
 30
0.0
 40
273.5
100
AcDbArc
 50
285.3359832067651
 51
74.66401679323495
  0
ARC
  5
101996D
330
A
100
AcDbEntity
  8
0
100
AcDbCircle
 10
19682.21776579831
 20
-13462.11161430487
 30
0.0
 40
244.5009854040089
100
AcDbArc
 50
105.3360612152294
 51
180.1041246822565
  0
ARC
  5
101996E
330
A
100
AcDbEntity
  8
0
100
AcDbCircle
 10
19682.2177043375
 20
-13462.11152319231
 30
0.0
 40
273.5008812806797
100
AcDbArc
 50
105.3360455749771
 51
180.0931031916503
  0
ARC
  5
101996F
330
A
100
AcDbEntity
  8
0
100
AcDbCircle
 10
19682.2177043375
 20
-12463.00037727452
 30
0.0
 40
273.5008812806771
100
AcDbArc
 50
179.9068968083497
 51
254.6639544250229
  0
ARC
  5
1019970
330
A
100
AcDbEntity
  8
0
100
AcDbCircle
 10
19682.2177657983
 20
-12463.00028616194
 30
0.0
 40
244.5009854040034
100
AcDbArc
 50
179.8958753177435
 51
254.6639387847705
  0
LINE
  5
1019971
330
A
100
AcDbEntity
  8
0
  6
CENTER
100
AcDbLine
 10
19423.21718414437
 20
-12462.55595023339
 30
0.0
 11
19437.71718414437
 21
-12462.55595023339
 31
0.0
  0
LINE
  5
1019972
330
A
100
AcDbEntity
  8
0
  6
CENTER
100
AcDbLine
 10
19423.21718414437
 20
-12462.55595023339
 30
0.0
 11
19408.71718414437
 21
-12462.55595023339
 31
0.0
  0
LINE
  5
1019973
330
A
100
AcDbEntity
  8
0
  6
CENTER
100
AcDbLine
 10
19423.21718414437
 20
-13462.55595023341
 30
0.0
 11
19437.71718414437
 21
-13462.55595023341
 31
0.0
  0
LINE
  5
1019974
330
A
100
AcDbEntity
  8
0
  6
CENTER
100
AcDbLine
 10
19423.21718414437
 20
-13462.55595023341
 30
0.0
 11
19408.71718414437
 21
-13462.55595023341
 31
0.0
  0
LWPOLYLINE
  5
1019975
330
A
100
AcDbEntity
  8
0
  6
CENTER
100
AcDbPolyline
 90
        3
 70
     0
 43
0.0
 10
19423.21718414437
 20
-12362.55595023339
 10
19423.21718414437
 20
-12463.00114843485
 42
0.3378201412212278
 10
19613.71718414442
 20
-12712.77854933414
  0
LWPOLYLINE
  5
1019976
330
A
100
AcDbEntity
  8
0
100
AcDbPolyline
 90
        2
 70
     0
 43
0.0
 10
19413.69218414437
 20
-12362.55595023339
 10
19413.69218414437
 20
-12462.55595023339
  0
LWPOLYLINE
  5
1019977
330
A
100
AcDbEntity
  8
0
100
AcDbPolyline
 90
        2
 70
     0
 43
0.0
 10
19432.74218414437
 20
-12362.55595023339
 10
19432.74218414437
 20
-12462.55595023339
  0
LWPOLYLINE
  5
1019978
330
A
100
AcDbEntity
  8
0
  6
CENTER
100
AcDbPolyline
 90
        3
 70
     0
 43
0.0
 10
19613.71718414442
 20
-13212.33335113267
 42
0.3378201412212278
 10
19423.21718414437
 20
-13462.11075203197
 10
19423.21718414437
 20
-13562.55595023342
  0
LWPOLYLINE
  5
1019979
330
A
100
AcDbEntity
  8
0
100
AcDbPolyline
 90
        2
 70
     0
 43
0.0
 10
19413.69218414437
 20
-13462.55595023341
 10
19413.69218414437
 20
-13562.55595023342
  0
LWPOLYLINE
  5
101997A
330
A
100
AcDbEntity
  8
0
100
AcDbPolyline
 90
        2
 70
     0
 43
0.0
 10
19432.74218414437
 20
-13462.55595023341
 10
19432.74218414437
 20
-13562.55595023342
  0
LINE
  5
1019A28
330
A
100
AcDbEntity
  8
0
100
AcDbLine
 10
20665.93092793599
 20
-12362.55595023339
 30
0.0
 11
20688.15092793599
 21
-12362.55595023339
 31
0.0
  0
LINE
  5
1019A29
330
A
100
AcDbEntity
  8
0
100
AcDbLine
 10
20662.54092793599
 20
-12462.55595023339
 30
0.0
 11
20691.54092793599
 21
-12462.55595023339
 31
0.0
  0
LINE
  5
1019A2A
330
A
100
AcDbEntity
  8
0
100
AcDbLine
 10
21329.93092793599
 20
-12362.55595023339
 30
0.0
 11
21352.15092793599
 21
-12362.55595023339
 31
0.0
  0
LINE
  5
1019A2B
330
A
100
AcDbEntity
  8
0
  6
CENTER
100
AcDbLine
 10
20677.04092793599
 20
-12362.55595023339
 30
0.0
 11
20677.04092793599
 21
-13562.55595023342
 31
0.0
  0
LINE
  5
1019A2C
330
A
100
AcDbEntity
  8
0
100
AcDbLine
 10
20665.93092793599
 20
-12362.55595023339
 30
0.0
 11
20665.93092793599
 21
-12462.55595023339
 31
0.0
  0
LINE
  5
1019A2D
330
A
100
AcDbEntity
  8
0
100
AcDbLine
 10
20665.93092793599
 20
-13462.55595023341
 30
0.0
 11
20665.93092793599
 21
-13562.55595023342
 31
0.0
  0
LINE
  5
1019A2E
330
A
100
AcDbEntity
  8
0
100
AcDbLine
 10
20688.15092793599
 20
-12362.55595023339
 30
0.0
 11
20688.15092793599
 21
-12462.55595023339
 31
0.0
  0
LINE
  5
1019A2F
330
A
100
AcDbEntity
  8
0
100
AcDbLine
 10
20688.15092793599
 20
-13462.55595023341
 30
0.0
 11
20688.15092793599
 21
-13562.55595023342
 31
0.0
  0
LINE
  5
1019A30
330
A
100
AcDbEntity
  8
0
100
AcDbLine
 10
20662.54092793599
 20
-12462.55595023339
 30
0.0
 11
20662.54092793599
 21
-13462.55595023341
 31
0.0
  0
LINE
  5
1019A31
330
A
100
AcDbEntity
  8
0
100
AcDbLine
 10
20691.54092793599
 20
-12462.55595023339
 30
0.0
 11
20691.54092793599
 21
-13462.55595023341
 31
0.0
  0
LINE
  5
1019A32
330
A
100
AcDbEntity
  8
0
100
AcDbLine
 10
20665.93092793599
 20
-13562.55595023342
 30
0.0
 11
20688.15092793599
 21
-13562.55595023342
 31
0.0
  0
LINE
  5
1019A33
330
A
100
AcDbEntity
  8
0
100
AcDbLine
 10
20662.54092793599
 20
-13462.55595023341
 30
0.0
 11
20691.54092793599
 21
-13462.55595023341
 31
0.0
  0
LINE
  5
1019A34
330
A
100
AcDbEntity
  8
0
100
AcDbLine
 10
21329.93092793599
 20
-13562.55595023342
 30
0.0
 11
21352.15092793599
 21
-13562.55595023342
 31
0.0
  0
ARC
  5
1019A35
330
A
100
AcDbEntity
  8
0
  6
CENTER
100
AcDbCircle
 10
21463.04092793599
 20
-12962.55595023342
 30
0.0
 40
259.0
100
AcDbArc
 50
285.3359832067651
 51
74.66401679323495
  0
ARC
  5
1019A36
330
A
100
AcDbEntity
  8
0
100
AcDbCircle
 10
21463.04092793599
 20
-12962.55595023342
 30
0.0
 40
244.5
100
AcDbArc
 50
285.3359832067651
 51
74.66401679323495
  0
ARC
  5
1019A37
330
A
100
AcDbEntity
  8
0
100
AcDbCircle
 10
21463.04092793599
 20
-12962.55595023342
 30
0.0
 40
273.5
100
AcDbArc
 50
285.3359832067651
 51
74.66401679323495
  0
ARC
  5
1019A38
330
A
100
AcDbEntity
  8
0
100
AcDbCircle
 10
21600.04150958993
 20
-13462.11161430487
 30
0.0
 40
244.5009854040089
100
AcDbArc
 50
105.3360612152294
 51
180.1041246822565
  0
ARC
  5
1019A39
330
A
100
AcDbEntity
  8
0
100
AcDbCircle
 10
21600.04144812912
 20
-13462.11152319231
 30
0.0
 40
273.5008812806797
100
AcDbArc
 50
105.3360455749771
 51
180.0931031916503
  0
ARC
  5
1019A3A
330
A
100
AcDbEntity
  8
0
100
AcDbCircle
 10
21600.04144812912
 20
-12463.00037727452
 30
0.0
 40
273.5008812806771
100
AcDbArc
 50
179.9068968083497
 51
254.6639544250229
  0
ARC
  5
1019A3B
330
A
100
AcDbEntity
  8
0
100
AcDbCircle
 10
21600.04150958992
 20
-12463.00028616194
 30
0.0
 40
244.5009854040034
100
AcDbArc
 50
179.8958753177435
 51
254.6639387847705
  0
LINE
  5
1019A3C
330
A
100
AcDbEntity
  8
0
  6
CENTER
100
AcDbLine
 10
21341.04092793599
 20
-12462.55595023339
 30
0.0
 11
21355.54092793599
 21
-12462.55595023339
 31
0.0
  0
LINE
  5
1019A3D
330
A
100
AcDbEntity
  8
0
  6
CENTER
100
AcDbLine
 10
21341.04092793599
 20
-12462.55595023339
 30
0.0
 11
21326.54092793599
 21
-12462.55595023339
 31
0.0
  0
LINE
  5
1019A3E
330
A
100
AcDbEntity
  8
0
  6
CENTER
100
AcDbLine
 10
21341.04092793599
 20
-13462.55595023341
 30
0.0
 11
21355.54092793599
 21
-13462.55595023341
 31
0.0
  0
LINE
  5
1019A3F
330
A
100
AcDbEntity
  8
0
  6
CENTER
100
AcDbLine
 10
21341.04092793599
 20
-13462.55595023341
 30
0.0
 11
21326.54092793599
 21
-13462.55595023341
 31
0.0
  0
LWPOLYLINE
  5
1019A40
330
A
100
AcDbEntity
  8
0
  6
CENTER
100
AcDbPolyline
 90
        3
 70
     0
 43
0.0
 10
21341.04092793599
 20
-12362.55595023339
 10
21341.04092793599
 20
-12463.00114843485
 42
0.3378201412212278
 10
21531.54092793605
 20
-12712.77854933414
  0
LWPOLYLINE
  5
1019A41
330
A
100
AcDbEntity
  8
0
100
AcDbPolyline
 90
        2
 70
     0
 43
0.0
 10
21329.93092793599
 20
-12362.55595023339
 10
21329.93092793599
 20
-12462.55595023339
  0
LWPOLYLINE
  5
1019A42
330
A
100
AcDbEntity
  8
0
100
AcDbPolyline
 90
        2
 70
     0
 43
0.0
 10
21352.15092793599
 20
-12362.55595023339
 10
21352.15092793599
 20
-12462.55595023339
  0
LWPOLYLINE
  5
1019A43
330
A
100
AcDbEntity
  8
0
  6
CENTER
100
AcDbPolyline
 90
        3
 70
     0
 43
0.0
 10
21531.54092793605
 20
-13212.33335113267
 42
0.3378201412212278
 10
21341.04092793599
 20
-13462.11075203197
 10
21341.04092793599
 20
-13562.55595023342
  0
LWPOLYLINE
  5
1019A44
330
A
100
AcDbEntity
  8
0
100
AcDbPolyline
 90
        2
 70
     0
 43
0.0
 10
21329.93092793599
 20
-13462.55595023341
 10
21329.93092793599
 20
-13562.55595023342
  0
LWPOLYLINE
  5
1019A45
330
A
100
AcDbEntity
  8
0
100
AcDbPolyline
 90
        2
 70
     0
 43
0.0
 10
21352.15092793599
 20
-13462.55595023341
 10
21352.15092793599
 20
-13562.55595023342
  0
LINE
  5
1019B7F
330
A
100
AcDbEntity
  8
0
100
AcDbLine
 10
22582.16467172761
 20
-12362.55595023339
 30
0.0
 11
22607.56467172761
 21
-12362.55595023339
 31
0.0
  0
LINE
  5
1019B80
330
A
100
AcDbEntity
  8
0
100
AcDbLine
 10
22576.36467172761
 20
-12462.55595023339
 30
0.0
 11
22613.36467172761
 21
-12462.55595023339
 31
0.0
  0
LINE
  5
1019B81
330
A
100
AcDbEntity
  8
0
100
AcDbLine
 10
23246.16467172761
 20
-12362.55595023339
 30
0.0
 11
23271.56467172761
 21
-12362.55595023339
 31
0.0
  0
LINE
  5
1019B82
330
A
100
AcDbEntity
  8
0
  6
CENTER
100
AcDbLine
 10
22594.86467172761
 20
-12362.55595023339
 30
0.0
 11
22594.86467172761
 21
-13562.55595023342
 31
0.0
  0
LINE
  5
1019B83
330
A
100
AcDbEntity
  8
0
100
AcDbLine
 10
22582.16467172761
 20
-12362.55595023339
 30
0.0
 11
22582.16467172761
 21
-12462.55595023339
 31
0.0
  0
LINE
  5
1019B84
330
A
100
AcDbEntity
  8
0
100
AcDbLine
 10
22582.16467172761
 20
-13462.55595023341
 30
0.0
 11
22582.16467172761
 21
-13562.55595023342
 31
0.0
  0
LINE
  5
1019B85
330
A
100
AcDbEntity
  8
0
100
AcDbLine
 10
22607.56467172761
 20
-12362.55595023339
 30
0.0
 11
22607.56467172761
 21
-12462.55595023339
 31
0.0
  0
LINE
  5
1019B86
330
A
100
AcDbEntity
  8
0
100
AcDbLine
 10
22607.56467172761
 20
-13462.55595023341
 30
0.0
 11
22607.56467172761
 21
-13562.55595023342
 31
0.0
  0
LINE
  5
1019B87
330
A
100
AcDbEntity
  8
0
100
AcDbLine
 10
22576.36467172761
 20
-12462.55595023339
 30
0.0
 11
22576.36467172761
 21
-13462.55595023341
 31
0.0
  0
LINE
  5
1019B88
330
A
100
AcDbEntity
  8
0
100
AcDbLine
 10
22613.36467172761
 20
-12462.55595023339
 30
0.0
 11
22613.36467172761
 21
-13462.55595023341
 31
0.0
  0
LINE
  5
1019B89
330
A
100
AcDbEntity
  8
0
100
AcDbLine
 10
23246.16467172761
 20
-13562.55595023342
 30
0.0
 11
23246.16467172761
 21
-13462.55595023341
 31
0.0
  0
LINE
  5
1019B8A
330
A
100
AcDbEntity
  8
0
100
AcDbLine
 10
23271.56467172761
 20
-13562.55595023342
 30
0.0
 11
23271.56467172761
 21
-13462.55595023341
 31
0.0
  0
LINE
  5
1019B8B
330
A
100
AcDbEntity
  8
0
100
AcDbLine
 10
22582.16467172761
 20
-13562.55595023342
 30
0.0
 11
22607.56467172761
 21
-13562.55595023342
 31
0.0
  0
LINE
  5
1019B8C
330
A
100
AcDbEntity
  8
0
100
AcDbLine
 10
22576.36467172761
 20
-13462.55595023341
 30
0.0
 11
22613.36467172761
 21
-13462.55595023341
 31
0.0
  0
LINE
  5
1019B8D
330
A
100
AcDbEntity
  8
0
  6
CENTER
100
AcDbLine
 10
23258.86467172761
 20
-12362.55595023339
 30
0.0
 11
23258.86467172761
 21
-12462.70397214389
 31
0.0
  0
LINE
  5
1019B8F
330
A
100
AcDbEntity
  8
0
100
AcDbLine
 10
23246.16467172761
 20
-13562.55595023342
 30
0.0
 11
23271.56467172761
 21
-13562.55595023342
 31
0.0
  0
LINE
  5
1019B90
330
A
100
AcDbEntity
  8
0
100
AcDbLine
 10
23246.16467172761
 20
-12362.55595023339
 30
0.0
 11
23246.16467172761
 21
-12462.55595023339
 31
0.0
  0
LINE
  5
1019B91
330
A
100
AcDbEntity
  8
0
100
AcDbLine
 10
23271.56467172761
 20
-12362.55595023339
 30
0.0
 11
23271.56467172761
 21
-12462.55595023339
 31
0.0
  0
ARC
  5
1019B92
330
A
100
AcDbEntity
  8
0
  6
CENTER
100
AcDbCircle
 10
23380.86467172761
 20
-12962.55595023342
 30
0.0
 40
259.0
100
AcDbArc
 50
285.3359832067651
 51
74.66401679323495
  0
ARC
  5
1019B93
330
A
100
AcDbEntity
  8
0
100
AcDbCircle
 10
23380.86467172761
 20
-12962.55595023342
 30
0.0
 40
240.5
100
AcDbArc
 50
285.3359832067651
 51
74.66401679323495
  0
ARC
  5
1019B94
330
A
100
AcDbEntity
  8
0
100
AcDbCircle
 10
23380.86467172761
 20
-12962.55595023342
 30
0.0
 40
277.5
100
AcDbArc
 50
285.3359832067651
 51
74.66401679323495
  0
ARC
  5
1019B95
330
A
100
AcDbEntity
  8
0
100
AcDbCircle
 10
23517.86518444808
 20
-13462.11151211444
 30
0.0
 40
277.5008686209183
100
AcDbArc
 50
105.3360437930348
 51
180.0917634582438
  0
ARC
  5
1019B96
330
A
100
AcDbEntity
  8
0
100
AcDbCircle
 10
23517.86526301753
 20
-13462.11162858974
 30
0.0
 40
240.5010017287367
100
AcDbArc
 50
105.3360638264749
 51
180.1058530701766
  0
ARC
  5
1019B97
330
A
100
AcDbEntity
  8
0
  6
CENTER
100
AcDbCircle
 10
23517.86467172761
 20
-12463.00114843485
 30
0.0
 40
259.0
100
AcDbArc
 50
180.0
 51
254.664016793235
  0
ARC
  5
1019B98
330
A
100
AcDbEntity
  8
0
100
AcDbCircle
 10
23517.86518444808
 20
-12463.00038835238
 30
0.0
 40
277.5008686209218
100
AcDbArc
 50
179.9082365417561
 51
254.6639562069652
  0
ARC
  5
1019B99
330
A
100
AcDbEntity
  8
0
100
AcDbCircle
 10
23517.86526301753
 20
-12463.00027187709
 30
0.0
 40
240.5010017287348
100
AcDbArc
 50
179.8941469298234
 51
254.6639361735251
  0
LINE
  5
1019B9A
330
A
100
AcDbEntity
  8
0
  6
CENTER
100
AcDbLine
 10
23258.86467172761
 20
-12462.55595023339
 30
0.0
 11
23277.36467172761
 21
-12462.55595023339
 31
0.0
  0
LINE
  5
1019B9B
330
A
100
AcDbEntity
  8
0
  6
CENTER
100
AcDbLine
 10
23258.86467172761
 20
-12462.55595023339
 30
0.0
 11
23240.36467172761
 21
-12462.55595023339
 31
0.0
  0
LINE
  5
1019B9C
330
A
100
AcDbEntity
  8
0
  6
CENTER
100
AcDbLine
 10
23258.86467172761
 20
-13462.55595023341
 30
0.0
 11
23277.36467172761
 21
-13462.55595023341
 31
0.0
  0
LINE
  5
1019B9D
330
A
100
AcDbEntity
  8
0
  6
CENTER
100
AcDbLine
 10
23258.86467172761
 20
-13462.55595023341
 30
0.0
 11
23240.36467172761
 21
-13462.55595023341
 31
0.0
  0
LWPOLYLINE
  5
1019B9E
330
A
100
AcDbEntity
  8
0
  6
CENTER
100
AcDbPolyline
 90
        3
 70
     0
 43
0.0
 10
23449.36467172766
 20
-13212.33335113267
 42
0.3378201412212278
 10
23258.86467172761
 20
-13462.11075203197
 10
23258.86467172761
 20
-13562.55595023342
  0
LINE
  5
1019DEF
330
A
100
AcDbEntity
  8
0
100
AcDbLine
 10
24498.39841551922
 20
-12362.55595023339
 30
0.0
 11
24526.97841551922
 21
-12362.55595023339
 31
0.0
  0
LINE
  5
1019DF0
330
A
100
AcDbEntity
  8
0
100
AcDbLine
 10
24489.68841551922
 20
-12462.55595023338
 30
0.0
 11
24535.68841551922
 21
-12462.55595023339
 31
0.0
  0
LINE
  5
1019DF1
330
A
100
AcDbEntity
  8
0
100
AcDbLine
 10
25162.39841551922
 20
-12362.55595023338
 30
0.0
 11
25190.97841551922
 21
-12362.55595023339
 31
0.0
  0
LINE
  5
1019DF2
330
A
100
AcDbEntity
  8
0
  6
CENTER
100
AcDbLine
 10
24512.68841551922
 20
-12362.55595023339
 30
0.0
 11
24512.68841551922
 21
-13562.55595023342
 31
0.0
  0
LINE
  5
1019DF3
330
A
100
AcDbEntity
  8
0
100
AcDbLine
 10
24498.39841551922
 20
-12362.55595023339
 30
0.0
 11
24498.39841551922
 21
-12462.55595023339
 31
0.0
  0
LINE
  5
1019DF4
330
A
100
AcDbEntity
  8
0
100
AcDbLine
 10
24498.39841551922
 20
-13462.5559502334
 30
0.0
 11
24498.39841551922
 21
-13562.55595023342
 31
0.0
  0
LINE
  5
1019DF5
330
A
100
AcDbEntity
  8
0
100
AcDbLine
 10
24526.97841551922
 20
-12362.55595023339
 30
0.0
 11
24526.97841551922
 21
-12462.55595023339
 31
0.0
  0
LINE
  5
1019DF6
330
A
100
AcDbEntity
  8
0
100
AcDbLine
 10
24526.97841551922
 20
-13462.5559502334
 30
0.0
 11
24526.97841551922
 21
-13562.55595023342
 31
0.0
  0
LINE
  5
1019DF7
330
A
100
AcDbEntity
  8
0
100
AcDbLine
 10
24489.68841551922
 20
-12462.55595023339
 30
0.0
 11
24489.68841551922
 21
-13462.5559502334
 31
0.0
  0
LINE
  5
1019DF8
330
A
100
AcDbEntity
  8
0
100
AcDbLine
 10
24535.68841551922
 20
-12462.55595023339
 30
0.0
 11
24535.68841551922
 21
-13462.5559502334
 31
0.0
  0
LINE
  5
1019DF9
330
A
100
AcDbEntity
  8
0
100
AcDbLine
 10
25162.39841551922
 20
-13562.55595023342
 30
0.0
 11
25162.39841551922
 21
-13462.55595023341
 31
0.0
  0
LINE
  5
1019DFA
330
A
100
AcDbEntity
  8
0
100
AcDbLine
 10
25190.97841551922
 20
-13562.55595023342
 30
0.0
 11
25190.97841551922
 21
-13462.55595023341
 31
0.0
  0
LINE
  5
1019DFB
330
A
100
AcDbEntity
  8
0
100
AcDbLine
 10
24498.39841551922
 20
-13562.55595023342
 30
0.0
 11
24526.97841551922
 21
-13562.55595023342
 31
0.0
  0
LINE
  5
1019DFC
330
A
100
AcDbEntity
  8
0
100
AcDbLine
 10
24489.68841551922
 20
-13462.55595023341
 30
0.0
 11
24535.68841551922
 21
-13462.55595023341
 31
0.0
  0
LINE
  5
1019DFD
330
A
100
AcDbEntity
  8
0
100
AcDbLine
 10
25162.39841551922
 20
-12362.55595023339
 30
0.0
 11
25162.39841551922
 21
-12462.55595023339
 31
0.0
  0
LINE
  5
1019DFE
330
A
100
AcDbEntity
  8
0
100
AcDbLine
 10
25190.97841551922
 20
-12362.55595023339
 30
0.0
 11
25190.97841551922
 21
-12462.55595023339
 31
0.0
  0
LINE
  5
1019E00
330
A
100
AcDbEntity
  8
0
100
AcDbLine
 10
25162.39841551922
 20
-13562.55595023341
 30
0.0
 11
25190.97841551922
 21
-13562.55595023342
 31
0.0
  0
LINE
  5
1019E01
330
A
100
AcDbEntity
  8
0
100
AcDbLine
 10
25173.51341551922
 20
-13462.55595023341
 30
0.0
 11
25179.86341551922
 21
-13462.55595023341
 31
0.0
  0
ARC
  5
1019E02
330
A
100
AcDbEntity
  8
0
  6
CENTER
100
AcDbCircle
 10
25298.68841551922
 20
-12962.55595023342
 30
0.0
 40
259.0
100
AcDbArc
 50
285.3359832067651
 51
74.66401679323495
  0
ARC
  5
1019E03
330
A
100
AcDbEntity
  8
0
100
AcDbCircle
 10
25298.68841551922
 20
-12962.55595023342
 30
0.0
 40
236.0
100
AcDbArc
 50
285.3359832067651
 51
74.66401679323495
  0
ARC
  5
1019E04
330
A
100
AcDbEntity
  8
0
100
AcDbCircle
 10
25298.68841551922
 20
-12962.55595023342
 30
0.0
 40
282.0
100
AcDbArc
 50
285.3359832067651
 51
74.66401679323495
  0
ARC
  5
1019E05
330
A
100
AcDbEntity
  8
0
100
AcDbCircle
 10
25435.68892008547
 20
-13462.11150002622
 30
0.0
 40
282.0008548065136
100
AcDbArc
 50
105.3360418780763
 51
180.0903016114462
  0
ARC
  5
1019E06
330
A
100
AcDbEntity
  8
0
100
AcDbCircle
 10
25435.6890180385
 20
-13462.1116452367
 30
0.0
 40
236.0010207528636
100
AcDbArc
 50
105.3360669240538
 51
180.1078673985606
  0
ARC
  5
1019E07
330
A
100
AcDbEntity
  8
0
100
AcDbCircle
 10
25435.68892008547
 20
-12463.0004004406
 30
0.0
 40
282.0008548065199
100
AcDbArc
 50
179.9096983885537
 51
254.6639581219237
  0
ARC
  5
1019E08
330
A
100
AcDbEntity
  8
0
100
AcDbCircle
 10
25435.68901803849
 20
-12463.00025523013
 30
0.0
 40
236.0010207528592
100
AcDbArc
 50
179.8921326014394
 51
254.6639330759461
  0
LINE
  5
1019E09
330
A
100
AcDbEntity
  8
0
  6
CENTER
100
AcDbLine
 10
25176.68841551922
 20
-12462.55595023339
 30
0.0
 11
25199.68841551922
 21
-12462.55595023339
 31
0.0
  0
LINE
  5
1019E0A
330
A
100
AcDbEntity
  8
0
  6
CENTER
100
AcDbLine
 10
25176.68841551922
 20
-12462.55595023339
 30
0.0
 11
25153.68841551922
 21
-12462.55595023339
 31
0.0
  0
LINE
  5
1019E0B
330
A
100
AcDbEntity
  8
0
  6
CENTER
100
AcDbLine
 10
25176.68841551922
 20
-13462.55595023341
 30
0.0
 11
25199.68841551922
 21
-13462.55595023341
 31
0.0
  0
LINE
  5
1019E0C
330
A
100
AcDbEntity
  8
0
  6
CENTER
100
AcDbLine
 10
25176.68841551922
 20
-13462.55595023341
 30
0.0
 11
25153.68841551922
 21
-13462.55595023341
 31
0.0
  0
LWPOLYLINE
  5
1019E0D
330
A
100
AcDbEntity
  8
0
  6
CENTER
100
AcDbPolyline
 90
        3
 70
     0
 43
0.0
 10
25176.68841551922
 20
-12362.55595023339
 10
25176.68841551922
 20
-12463.00114843485
 42
0.3378201412212278
 10
25367.18841551928
 20
-12712.77854933414
  0
LWPOLYLINE
  5
1019E0E
330
A
100
AcDbEntity
  8
0
  6
CENTER
100
AcDbPolyline
 90
        3
 70
     0
 43
0.0
 10
25367.18841551928
 20
-13212.33335113267
 42
0.3378201412212278
 10
25176.68841551922
 20
-13462.11075203197
 10
25176.68841551922
 20
-13562.55595023342
  0
TEXT
  5
1019E0F
330
A
100
AcDbEntity
  8
C6
 48
2.0
100
AcDbText
 10
12913.73497468561
 20
-11412.41703814159
 30
0.0
 40
100.0
  1
IF9-700R1
  7
KANJI
100
AcDbText
  0
TEXT
  5
1019E10
330
A
100
AcDbEntity
  8
C6
 48
2.0
100
AcDbText
 10
14831.55871847723
 20
-11412.41703814159
 30
0.0
 40
100.0
  1
IF12-700R1
  7
KANJI
100
AcDbText
  0
TEXT
  5
1019E11
330
A
100
AcDbEntity
  8
C6
 48
2.0
100
AcDbText
 10
16749.38246226884
 20
-11412.41703814159
 30
0.0
 40
100.0
  1
IF15-700R1
  7
KANJI
100
AcDbText
  0
TEXT
  5
1019E12
330
A
100
AcDbEntity
  8
C6
 48
2.0
100
AcDbText
 10
18667.20620606046
 20
-11412.41703814159
 30
0.0
 40
100.0
  1
IF19-700R1
  7
KANJI
100
AcDbText
  0
TEXT
  5
1019E13
330
A
100
AcDbEntity
  8
C6
 48
2.0
100
AcDbText
 10
20585.02994985208
 20
-11412.41703814159
 30
0.0
 40
100.0
  1
IF22-700R1
  7
KANJI
100
AcDbText
  0
TEXT
  5
1019E14
330
A
100
AcDbEntity
  8
C6
 48
2.0
100
AcDbText
 10
22502.8536936437
 20
-11412.41703814159
 30
0.0
 40
100.0
  1
IF25-700R1
  7
KANJI
100
AcDbText
  0
TEXT
  5
1019E15
330
A
100
AcDbEntity
  8
C6
 48
2.0
100
AcDbText
 10
24420.67743743531
 20
-11412.41703814159
 30
0.0
 40
100.0
  1
IF28-700R1
  7
KANJI
100
AcDbText
  0
TEXT
  5
1019E16
330
A
100
AcDbEntity
  8
C6
 48
2.0
100
AcDbText
 10
26338.50118122693
 20
-11412.41703814159
 30
0.0
 40
100.0
  1
IF31-700R1
  7
KANJI
100
AcDbText
  0
TEXT
  5
1019E18
330
A
100
AcDbEntity
  8
C6
 48
2.0
100
AcDbText
 10
28256.32492501855
 20
-11412.41703814159
 30
0.0
 40
100.0
  1
IF34-700R1
  7
KANJI
100
AcDbText
  0
TEXT
  5
1019E19
330
A
100
AcDbEntity
  8
C6
 48
2.0
100
AcDbText
 10
30174.14866881017
 20
-11412.41703814159
 30
0.0
 40
100.0
  1
IF38-700R1
  7
KANJI
100
AcDbText
  0
TEXT
  5
1019E1A
330
A
100
AcDbEntity
  8
C6
 48
2.0
100
AcDbText
 10
32091.97241260179
 20
-11412.41703814159
 30
0.0
 40
100.0
  1
IF41-700R1
  7
KANJI
100
AcDbText
  0
TEXT
  5
1019E1B
330
A
100
AcDbEntity
  8
C6
 48
2.0
100
AcDbText
 10
34009.79615639341
 20
-11412.41703814159
 30
0.0
 40
100.0
  1
IF44-700R1
  7
KANJI
100
AcDbText
  0
LINE
  5
1019FC3
330
A
100
AcDbEntity
  8
0
100
AcDbLine
 10
26414.63715931084
 20
-12362.55595023339
 30
0.0
 11
26446.38715931084
 21
-12362.55595023339
 31
0.0
  0
LINE
  5
1019FC4
330
A
100
AcDbEntity
  8
0
100
AcDbLine
 10
26407.51215931084
 20
-12462.55595023338
 30
0.0
 11
26453.51215931084
 21
-12462.55595023339
 31
0.0
  0
LINE
  5
1019FC5
330
A
100
AcDbEntity
  8
0
100
AcDbLine
 10
27078.63715931084
 20
-12362.55595023338
 30
0.0
 11
27110.38715931084
 21
-12362.55595023339
 31
0.0
  0
LINE
  5
1019FC6
330
A
100
AcDbEntity
  8
0
  6
CENTER
100
AcDbLine
 10
26430.51215931084
 20
-12362.55595023339
 30
0.0
 11
26430.51215931084
 21
-13562.55595023342
 31
0.0
  0
LINE
  5
1019FC7
330
A
100
AcDbEntity
  8
0
100
AcDbLine
 10
26414.63715931084
 20
-12362.55595023339
 30
0.0
 11
26414.63715931084
 21
-12462.55595023339
 31
0.0
  0
LINE
  5
1019FC8
330
A
100
AcDbEntity
  8
0
100
AcDbLine
 10
26414.63715931084
 20
-13462.5559502334
 30
0.0
 11
26414.63715931084
 21
-13562.55595023342
 31
0.0
  0
LINE
  5
1019FC9
330
A
100
AcDbEntity
  8
0
100
AcDbLine
 10
26446.38715931084
 20
-12362.55595023339
 30
0.0
 11
26446.38715931084
 21
-12462.55595023339
 31
0.0
  0
LINE
  5
1019FCA
330
A
100
AcDbEntity
  8
0
100
AcDbLine
 10
26446.38715931084
 20
-13462.5559502334
 30
0.0
 11
26446.38715931084
 21
-13562.55595023342
 31
0.0
  0
LINE
  5
1019FCB
330
A
100
AcDbEntity
  8
0
100
AcDbLine
 10
26407.51215931084
 20
-12462.55595023339
 30
0.0
 11
26407.51215931084
 21
-13462.5559502334
 31
0.0
  0
LINE
  5
1019FCC
330
A
100
AcDbEntity
  8
0
100
AcDbLine
 10
26453.51215931084
 20
-12462.55595023339
 30
0.0
 11
26453.51215931084
 21
-13462.5559502334
 31
0.0
  0
LINE
  5
1019FCD
330
A
100
AcDbEntity
  8
0
100
AcDbLine
 10
26414.63715931084
 20
-13562.55595023342
 30
0.0
 11
26446.38715931084
 21
-13562.55595023342
 31
0.0
  0
LINE
  5
1019FCE
330
A
100
AcDbEntity
  8
0
100
AcDbLine
 10
26407.51215931084
 20
-13462.55595023341
 30
0.0
 11
26453.51215931084
 21
-13462.55595023341
 31
0.0
  0
LINE
  5
1019FD0
330
A
100
AcDbEntity
  8
0
100
AcDbLine
 10
27078.63715931084
 20
-13562.55595023341
 30
0.0
 11
27110.38715931084
 21
-13562.55595023342
 31
0.0
  0
LINE
  5
1019FD1
330
A
100
AcDbEntity
  8
0
100
AcDbLine
 10
27091.33715931084
 20
-13462.55595023341
 30
0.0
 11
27097.68715931084
 21
-13462.55595023341
 31
0.0
  0
ARC
  5
1019FD2
330
A
100
AcDbEntity
  8
0
  6
CENTER
100
AcDbCircle
 10
27216.51215931084
 20
-12962.55595023342
 30
0.0
 40
259.0
100
AcDbArc
 50
285.3359832067651
 51
74.66401679323495
  0
ARC
  5
1019FD3
330
A
100
AcDbEntity
  8
0
100
AcDbCircle
 10
27216.51215931084
 20
-12962.55595023342
 30
0.0
 40
236.0
100
AcDbArc
 50
285.3359832067651
 51
74.66401679323495
  0
ARC
  5
1019FD4
330
A
100
AcDbEntity
  8
0
100
AcDbCircle
 10
27216.51215931084
 20
-12962.55595023342
 30
0.0
 40
282.0
100
AcDbArc
 50
285.3359832067651
 51
74.66401679323495
  0
ARC
  5
1019FD5
330
A
100
AcDbEntity
  8
0
100
AcDbCircle
 10
27353.51266387709
 20
-13462.11150002622
 30
0.0
 40
282.0008548065136
100
AcDbArc
 50
105.3360418780763
 51
180.0903016114462
  0
ARC
  5
1019FD6
330
A
100
AcDbEntity
  8
0
100
AcDbCircle
 10
27353.51276183012
 20
-13462.1116452367
 30
0.0
 40
236.0010207528636
100
AcDbArc
 50
105.3360669240538
 51
180.1078673985606
  0
ARC
  5
1019FD7
330
A
100
AcDbEntity
  8
0
100
AcDbCircle
 10
27353.51266387709
 20
-12463.0004004406
 30
0.0
 40
282.0008548065199
100
AcDbArc
 50
179.9096983885537
 51
254.6639581219237
  0
ARC
  5
1019FD8
330
A
100
AcDbEntity
  8
0
100
AcDbCircle
 10
27353.51276183011
 20
-12463.00025523013
 30
0.0
 40
236.0010207528592
100
AcDbArc
 50
179.8921326014394
 51
254.6639330759461
  0
LINE
  5
1019FD9
330
A
100
AcDbEntity
  8
0
  6
CENTER
100
AcDbLine
 10
27094.51215931084
 20
-12462.55595023339
 30
0.0
 11
27117.51215931084
 21
-12462.55595023339
 31
0.0
  0
LINE
  5
1019FDA
330
A
100
AcDbEntity
  8
0
  6
CENTER
100
AcDbLine
 10
27094.51215931084
 20
-12462.55595023339
 30
0.0
 11
27071.51215931084
 21
-12462.55595023339
 31
0.0
  0
LINE
  5
1019FDB
330
A
100
AcDbEntity
  8
0
  6
CENTER
100
AcDbLine
 10
27094.51215931084
 20
-13462.55595023341
 30
0.0
 11
27117.51215931084
 21
-13462.55595023341
 31
0.0
  0
LINE
  5
1019FDC
330
A
100
AcDbEntity
  8
0
  6
CENTER
100
AcDbLine
 10
27094.51215931084
 20
-13462.55595023341
 30
0.0
 11
27071.51215931084
 21
-13462.55595023341
 31
0.0
  0
LWPOLYLINE
  5
1019FDD
330
A
100
AcDbEntity
  8
0
  6
CENTER
100
AcDbPolyline
 90
        3
 70
     0
 43
0.0
 10
27094.51215931084
 20
-12362.55595023339
 10
27094.51215931084
 20
-12463.00114843485
 42
0.3378201412212278
 10
27285.01215931089
 20
-12712.77854933414
  0
LWPOLYLINE
  5
1019FDE
330
A
100
AcDbEntity
  8
0
100
AcDbPolyline
 90
        2
 70
     0
 43
0.0
 10
27078.63715931084
 20
-12362.55595023339
 10
27078.63715931084
 20
-12462.55595023339
  0
LWPOLYLINE
  5
1019FDF
330
A
100
AcDbEntity
  8
0
100
AcDbPolyline
 90
        2
 70
     0
 43
0.0
 10
27110.38715931084
 20
-12362.55595023339
 10
27110.38715931084
 20
-12462.55595023339
  0
LWPOLYLINE
  5
1019FE0
330
A
100
AcDbEntity
  8
0
  6
CENTER
100
AcDbPolyline
 90
        3
 70
     0
 43
0.0
 10
27285.01215931089
 20
-13212.33335113267
 42
0.3378201412212278
 10
27094.51215931084
 20
-13462.11075203197
 10
27094.51215931084
 20
-13562.55595023342
  0
LWPOLYLINE
  5
1019FE1
330
A
100
AcDbEntity
  8
0
100
AcDbPolyline
 90
        2
 70
     0
 43
0.0
 10
27078.63715931084
 20
-13462.55595023341
 10
27078.63715931084
 20
-13562.55595023342
  0
LWPOLYLINE
  5
1019FE2
330
A
100
AcDbEntity
  8
0
100
AcDbPolyline
 90
        2
 70
     0
 43
0.0
 10
27110.38715931084
 20
-13462.55595023341
 10
27110.38715931084
 20
-13562.55595023342
  0
LINE
  5
101A0C8
330
A
100
AcDbEntity
  8
0
100
AcDbLine
 10
28330.87590310246
 20
-12362.55595023339
 30
0.0
 11
28365.79590310246
 21
-12362.55595023339
 31
0.0
  0
LINE
  5
101A0C9
330
A
100
AcDbEntity
  8
0
100
AcDbLine
 10
28325.33590310246
 20
-12462.55595023338
 30
0.0
 11
28371.33590310246
 21
-12462.55595023339
 31
0.0
  0
LINE
  5
101A0CA
330
A
100
AcDbEntity
  8
0
100
AcDbLine
 10
28994.87590310246
 20
-12362.55595023338
 30
0.0
 11
29029.79590310246
 21
-12362.55595023339
 31
0.0
  0
LINE
  5
101A0CB
330
A
100
AcDbEntity
  8
0
  6
CENTER
100
AcDbLine
 10
28348.33590310246
 20
-12362.55595023339
 30
0.0
 11
28348.33590310246
 21
-13562.55595023342
 31
0.0
  0
LINE
  5
101A0CC
330
A
100
AcDbEntity
  8
0
100
AcDbLine
 10
28330.87590310246
 20
-12362.55595023339
 30
0.0
 11
28330.87590310246
 21
-12462.55595023339
 31
0.0
  0
LINE
  5
101A0CD
330
A
100
AcDbEntity
  8
0
100
AcDbLine
 10
28330.87590310246
 20
-13462.55595023341
 30
0.0
 11
28330.87590310246
 21
-13562.55595023342
 31
0.0
  0
LINE
  5
101A0CE
330
A
100
AcDbEntity
  8
0
100
AcDbLine
 10
28365.79590310246
 20
-12362.55595023339
 30
0.0
 11
28365.79590310246
 21
-12462.55595023339
 31
0.0
  0
LINE
  5
101A0CF
330
A
100
AcDbEntity
  8
0
100
AcDbLine
 10
28365.79590310246
 20
-13462.5559502334
 30
0.0
 11
28365.79590310246
 21
-13562.55595023342
 31
0.0
  0
LINE
  5
101A0D0
330
A
100
AcDbEntity
  8
0
100
AcDbLine
 10
28325.33590310246
 20
-12462.55595023339
 30
0.0
 11
28325.33590310246
 21
-13462.5559502334
 31
0.0
  0
LINE
  5
101A0D1
330
A
100
AcDbEntity
  8
0
100
AcDbLine
 10
28371.33590310246
 20
-12462.55595023339
 30
0.0
 11
28371.33590310246
 21
-13462.5559502334
 31
0.0
  0
LINE
  5
101A0D2
330
A
100
AcDbEntity
  8
0
100
AcDbLine
 10
28330.87590310246
 20
-13562.55595023342
 30
0.0
 11
28365.79590310246
 21
-13562.55595023342
 31
0.0
  0
LINE
  5
101A0D3
330
A
100
AcDbEntity
  8
0
100
AcDbLine
 10
28325.33590310246
 20
-13462.55595023341
 30
0.0
 11
28371.33590310246
 21
-13462.55595023341
 31
0.0
  0
LINE
  5
101A0D5
330
A
100
AcDbEntity
  8
0
100
AcDbLine
 10
28994.87590310246
 20
-13562.55595023341
 30
0.0
 11
29029.79590310246
 21
-13562.55595023342
 31
0.0
  0
ARC
  5
101A0D6
330
A
100
AcDbEntity
  8
0
  6
CENTER
100
AcDbCircle
 10
29134.33590310246
 20
-12962.55595023342
 30
0.0
 40
259.0
100
AcDbArc
 50
285.3359832067651
 51
74.66401679323495
  0
ARC
  5
101A0D7
330
A
100
AcDbEntity
  8
0
100
AcDbCircle
 10
29134.33590310246
 20
-12962.55595023342
 30
0.0
 40
236.0
100
AcDbArc
 50
285.3359832067651
 51
74.66401679323495
  0
ARC
  5
101A0D8
330
A
100
AcDbEntity
  8
0
100
AcDbCircle
 10
29134.33590310246
 20
-12962.55595023342
 30
0.0
 40
282.0
100
AcDbArc
 50
285.3359832067651
 51
74.66401679323495
  0
ARC
  5
101A0D9
330
A
100
AcDbEntity
  8
0
100
AcDbCircle
 10
29271.33640766871
 20
-13462.11150002622
 30
0.0
 40
282.0008548065136
100
AcDbArc
 50
105.3360418780763
 51
180.0903016114462
  0
ARC
  5
101A0DA
330
A
100
AcDbEntity
  8
0
100
AcDbCircle
 10
29271.33650562174
 20
-13462.1116452367
 30
0.0
 40
236.0010207528636
100
AcDbArc
 50
105.3360669240538
 51
180.1078673985606
  0
ARC
  5
101A0DB
330
A
100
AcDbEntity
  8
0
100
AcDbCircle
 10
29271.33640766871
 20
-12463.0004004406
 30
0.0
 40
282.0008548065199
100
AcDbArc
 50
179.9096983885537
 51
254.6639581219237
  0
ARC
  5
101A0DC
330
A
100
AcDbEntity
  8
0
100
AcDbCircle
 10
29271.33650562174
 20
-12463.00025523013
 30
0.0
 40
236.0010207528592
100
AcDbArc
 50
179.8921326014394
 51
254.6639330759461
  0
LINE
  5
101A0DD
330
A
100
AcDbEntity
  8
0
  6
CENTER
100
AcDbLine
 10
29012.33590310246
 20
-12462.55595023339
 30
0.0
 11
29035.33590310246
 21
-12462.55595023339
 31
0.0
  0
LINE
  5
101A0DE
330
A
100
AcDbEntity
  8
0
  6
CENTER
100
AcDbLine
 10
29012.33590310246
 20
-12462.55595023339
 30
0.0
 11
28989.33590310246
 21
-12462.55595023339
 31
0.0
  0
LINE
  5
101A0DF
330
A
100
AcDbEntity
  8
0
  6
CENTER
100
AcDbLine
 10
29012.33590310246
 20
-13462.55595023341
 30
0.0
 11
29035.33590310246
 21
-13462.55595023341
 31
0.0
  0
LINE
  5
101A0E0
330
A
100
AcDbEntity
  8
0
  6
CENTER
100
AcDbLine
 10
29012.33590310246
 20
-13462.55595023341
 30
0.0
 11
28989.33590310246
 21
-13462.55595023341
 31
0.0
  0
LWPOLYLINE
  5
101A0E1
330
A
100
AcDbEntity
  8
0
  6
CENTER
100
AcDbPolyline
 90
        3
 70
     0
 43
0.0
 10
29012.33590310246
 20
-12362.55595023339
 10
29012.33590310246
 20
-12463.00114843485
 42
0.3378201412212278
 10
29202.83590310251
 20
-12712.77854933414
  0
LWPOLYLINE
  5
101A0E2
330
A
100
AcDbEntity
  8
0
100
AcDbPolyline
 90
        2
 70
     0
 43
0.0
 10
28994.87590310246
 20
-12362.55595023339
 10
28994.87590310246
 20
-12462.55595023339
  0
LWPOLYLINE
  5
101A0E3
330
A
100
AcDbEntity
  8
0
100
AcDbPolyline
 90
        2
 70
     0
 43
0.0
 10
29029.79590310246
 20
-12362.55595023339
 10
29029.79590310246
 20
-12462.55595023339
  0
LWPOLYLINE
  5
101A0E4
330
A
100
AcDbEntity
  8
0
  6
CENTER
100
AcDbPolyline
 90
        3
 70
     0
 43
0.0
 10
29202.83590310251
 20
-13212.33335113267
 42
0.3378201412212278
 10
29012.33590310246
 20
-13462.11075203197
 10
29012.33590310246
 20
-13562.55595023342
  0
LWPOLYLINE
  5
101A0E5
330
A
100
AcDbEntity
  8
0
100
AcDbPolyline
 90
        2
 70
     0
 43
0.0
 10
28994.87590310246
 20
-13462.55595023341
 10
28994.87590310246
 20
-13562.55595023342
  0
LWPOLYLINE
  5
101A0E6
330
A
100
AcDbEntity
  8
0
100
AcDbPolyline
 90
        2
 70
     0
 43
0.0
 10
29029.79590310246
 20
-13462.55595023341
 10
29029.79590310246
 20
-13562.55595023342
  0
LINE
  5
101A3E2
330
A
100
AcDbEntity
  8
0
100
AcDbLine
 10
30247.10964689408
 20
-12362.55595023339
 30
0.0
 11
30285.20964689408
 21
-12362.55595023339
 31
0.0
  0
LINE
  5
101A3E3
330
A
100
AcDbEntity
  8
0
100
AcDbLine
 10
30235.15964689408
 20
-12462.55595023338
 30
0.0
 11
30297.15964689408
 21
-12462.55595023339
 31
0.0
  0
LINE
  5
101A3E4
330
A
100
AcDbEntity
  8
0
100
AcDbLine
 10
30911.10964689408
 20
-12362.55595023339
 30
0.0
 11
30949.20964689408
 21
-12362.55595023339
 31
0.0
  0
LINE
  5
101A3E5
330
A
100
AcDbEntity
  8
0
  6
CENTER
100
AcDbLine
 10
30266.15964689408
 20
-12362.55595023339
 30
0.0
 11
30266.15964689408
 21
-13562.55595023342
 31
0.0
  0
LINE
  5
101A3E6
330
A
100
AcDbEntity
  8
0
100
AcDbLine
 10
30247.10964689408
 20
-12362.55595023339
 30
0.0
 11
30247.10964689408
 21
-12462.55595023338
 31
0.0
  0
LINE
  5
101A3E7
330
A
100
AcDbEntity
  8
0
100
AcDbLine
 10
30247.10964689408
 20
-13462.55595023341
 30
0.0
 11
30247.10964689408
 21
-13562.55595023342
 31
0.0
  0
LINE
  5
101A3E8
330
A
100
AcDbEntity
  8
0
100
AcDbLine
 10
30285.20964689408
 20
-12362.55595023339
 30
0.0
 11
30285.20964689408
 21
-12462.55595023339
 31
0.0
  0
LINE
  5
101A3E9
330
A
100
AcDbEntity
  8
0
100
AcDbLine
 10
30285.20964689408
 20
-13462.55595023341
 30
0.0
 11
30285.20964689408
 21
-13562.55595023342
 31
0.0
  0
LINE
  5
101A3EA
330
A
100
AcDbEntity
  8
0
100
AcDbLine
 10
30235.15964689408
 20
-12462.55595023338
 30
0.0
 11
30235.15964689408
 21
-13462.55595023342
 31
0.0
  0
LINE
  5
101A3EB
330
A
100
AcDbEntity
  8
0
100
AcDbLine
 10
30297.15964689408
 20
-12462.55595023339
 30
0.0
 11
30297.15964689408
 21
-13462.55595023341
 31
0.0
  0
LINE
  5
101A3EC
330
A
100
AcDbEntity
  8
0
100
AcDbLine
 10
30911.10964689408
 20
-13562.55595023342
 30
0.0
 11
30911.10964689408
 21
-13462.55595023341
 31
0.0
  0
LINE
  5
101A3ED
330
A
100
AcDbEntity
  8
0
100
AcDbLine
 10
30949.20964689408
 20
-13562.55595023342
 30
0.0
 11
30949.20964689408
 21
-13462.55595023341
 31
0.0
  0
LINE
  5
101A3EE
330
A
100
AcDbEntity
  8
0
100
AcDbLine
 10
30247.10964689408
 20
-13562.55595023342
 30
0.0
 11
30285.20964689408
 21
-13562.55595023342
 31
0.0
  0
LINE
  5
101A3EF
330
A
100
AcDbEntity
  8
0
100
AcDbLine
 10
30235.15964689408
 20
-13462.55595023341
 30
0.0
 11
30297.15964689408
 21
-13462.55595023341
 31
0.0
  0
LINE
  5
101A3F1
330
A
100
AcDbEntity
  8
0
100
AcDbLine
 10
30911.10964689408
 20
-13562.55595023341
 30
0.0
 11
30949.20964689408
 21
-13562.55595023342
 31
0.0
  0
LINE
  5
101A3F2
330
A
100
AcDbEntity
  8
0
100
AcDbLine
 10
30926.98464689408
 20
-13462.55595023341
 30
0.0
 11
30933.33464689408
 21
-13462.55595023341
 31
0.0
  0
ARC
  5
101A3F3
330
A
100
AcDbEntity
  8
0
  6
CENTER
100
AcDbCircle
 10
31052.15964689408
 20
-12962.55595023342
 30
0.0
 40
259.0
100
AcDbArc
 50
285.3359832067651
 51
74.66401679323495
  0
ARC
  5
101A3F4
330
A
100
AcDbEntity
  8
0
100
AcDbCircle
 10
31052.15964689408
 20
-12962.55595023342
 30
0.0
 40
228.0
100
AcDbArc
 50
285.3359832067651
 51
74.66401679323495
  0
ARC
  5
101A3F5
330
A
100
AcDbEntity
  8
0
100
AcDbCircle
 10
31052.15964689408
 20
-12962.55595023342
 30
0.0
 40
290.0
100
AcDbArc
 50
285.3359832067651
 51
74.66401679323495
  0
ARC
  5
101A3F6
330
A
100
AcDbEntity
  8
0
100
AcDbCircle
 10
31189.16013758675
 20
-13462.11147945932
 30
0.0
 40
290.0008313026912
100
AcDbArc
 50
105.3360386908906
 51
180.0878146084363
  0
ARC
  5
101A3F7
330
A
100
AcDbEntity
  8
0
100
AcDbCircle
 10
31189.16027046659
 20
-13462.11167644706
 30
0.0
 40
228.0010564200293
100
AcDbArc
 50
105.3360728892304
 51
180.111644346794
  0
LWPOLYLINE
  5
101A3F8
330
A
100
AcDbEntity
  8
0
  6
CENTER
100
AcDbPolyline
 90
        3
 70
     0
 43
0.0
 10
30930.15964689408
 20
-12362.55595023339
 10
30930.15964689408
 20
-12463.00114843485
 42
0.337820141221236
 10
31120.65964689414
 20
-12712.77854933414
  0
LWPOLYLINE
  5
101A3F9
330
A
100
AcDbEntity
  8
0
100
AcDbPolyline
 90
        2
 70
     0
 43
0.0
 10
30911.10964689408
 20
-12362.55595023339
 10
30911.10964689408
 20
-12462.55595023339
  0
LWPOLYLINE
  5
101A3FA
330
A
100
AcDbEntity
  8
0
100
AcDbPolyline
 90
        2
 70
     0
 43
0.0
 10
30949.20964689408
 20
-12362.55595023339
 10
30949.20964689408
 20
-12462.55595023339
  0
ARC
  5
101A3FB
330
A
100
AcDbEntity
  8
0
100
AcDbCircle
 10
31189.16013758675
 20
-12463.00042100748
 30
0.0
 40
290.0008313026983
100
AcDbArc
 50
179.9121853915637
 51
254.6639613091094
  0
ARC
  5
101A3FC
330
A
100
AcDbEntity
  8
0
100
AcDbCircle
 10
31189.16027046659
 20
-12463.00022401976
 30
0.0
 40
228.0010564200289
100
AcDbArc
 50
179.888355653206
 51
254.6639271107695
  0
LINE
  5
101A3FD
330
A
100
AcDbEntity
  8
0
  6
CENTER
100
AcDbLine
 10
30930.15964689408
 20
-13462.55595023341
 30
0.0
 11
30961.15964689408
 21
-13462.55595023341
 31
0.0
  0
LINE
  5
101A3FE
330
A
100
AcDbEntity
  8
0
  6
CENTER
100
AcDbLine
 10
30930.15964689408
 20
-13462.55595023341
 30
0.0
 11
30899.15964689408
 21
-13462.55595023341
 31
0.0
  0
LINE
  5
101A3FF
330
A
100
AcDbEntity
  8
0
  6
CENTER
100
AcDbLine
 10
30930.15964689408
 20
-12462.55595023339
 30
0.0
 11
30961.15964689408
 21
-12462.55595023339
 31
0.0
  0
LINE
  5
101A400
330
A
100
AcDbEntity
  8
0
  6
CENTER
100
AcDbLine
 10
30930.15964689408
 20
-12462.55595023339
 30
0.0
 11
30899.15964689408
 21
-12462.55595023339
 31
0.0
  0
LWPOLYLINE
  5
101A401
330
A
100
AcDbEntity
  8
0
  6
CENTER
100
AcDbPolyline
 90
        3
 70
     0
 43
0.0
 10
31120.65964689413
 20
-13212.33335113267
 42
0.3378201412212278
 10
30930.15964689408
 20
-13462.11075203197
 10
30930.15964689408
 20
-13562.55595023342
  0
LINE
  5
101A493
330
A
100
AcDbEntity
  8
0
100
AcDbLine
 10
32163.3433906857
 20
-12362.55595023339
 30
0.0
 11
32204.6233906857
 21
-12362.55595023338
 31
0.0
  0
LINE
  5
101A494
330
A
100
AcDbEntity
  8
0
100
AcDbLine
 10
32152.9833906857
 20
-12462.55595023338
 30
0.0
 11
32214.9833906857
 21
-12462.55595023339
 31
0.0
  0
LINE
  5
101A495
330
A
100
AcDbEntity
  8
0
100
AcDbLine
 10
32827.34339068571
 20
-12362.55595023339
 30
0.0
 11
32868.6233906857
 21
-12362.55595023339
 31
0.0
  0
LINE
  5
101A496
330
A
100
AcDbEntity
  8
0
  6
CENTER
100
AcDbLine
 10
32183.9833906857
 20
-12362.55595023339
 30
0.0
 11
32183.9833906857
 21
-13562.55595023342
 31
0.0
  0
LINE
  5
101A497
330
A
100
AcDbEntity
  8
0
100
AcDbLine
 10
32163.3433906857
 20
-12362.55595023339
 30
0.0
 11
32163.3433906857
 21
-12462.55595023338
 31
0.0
  0
LINE
  5
101A498
330
A
100
AcDbEntity
  8
0
100
AcDbLine
 10
32163.3433906857
 20
-13462.55595023341
 30
0.0
 11
32163.3433906857
 21
-13562.55595023342
 31
0.0
  0
LINE
  5
101A499
330
A
100
AcDbEntity
  8
0
100
AcDbLine
 10
32204.6233906857
 20
-12362.55595023339
 30
0.0
 11
32204.6233906857
 21
-12462.55595023339
 31
0.0
  0
LINE
  5
101A49A
330
A
100
AcDbEntity
  8
0
100
AcDbLine
 10
32204.6233906857
 20
-13462.55595023341
 30
0.0
 11
32204.6233906857
 21
-13562.55595023342
 31
0.0
  0
LINE
  5
101A49B
330
A
100
AcDbEntity
  8
0
100
AcDbLine
 10
32152.9833906857
 20
-12462.55595023338
 30
0.0
 11
32152.9833906857
 21
-13462.55595023342
 31
0.0
  0
LINE
  5
101A49C
330
A
100
AcDbEntity
  8
0
100
AcDbLine
 10
32214.9833906857
 20
-12462.55595023339
 30
0.0
 11
32214.9833906857
 21
-13462.55595023341
 31
0.0
  0
LINE
  5
101A49D
330
A
100
AcDbEntity
  8
0
100
AcDbLine
 10
32163.3433906857
 20
-13562.55595023342
 30
0.0
 11
32204.6233906857
 21
-13562.55595023342
 31
0.0
  0
LINE
  5
101A49E
330
A
100
AcDbEntity
  8
0
100
AcDbLine
 10
32152.9833906857
 20
-13462.55595023341
 30
0.0
 11
32214.9833906857
 21
-13462.55595023341
 31
0.0
  0
LINE
  5
101A4A0
330
A
100
AcDbEntity
  8
0
100
AcDbLine
 10
32827.34339068571
 20
-13562.55595023341
 30
0.0
 11
32868.6233906857
 21
-13562.55595023342
 31
0.0
  0
LINE
  5
101A4A1
330
A
100
AcDbEntity
  8
0
100
AcDbLine
 10
32844.80839068571
 20
-13462.55595023341
 30
0.0
 11
32851.1583906857
 21
-13462.55595023341
 31
0.0
  0
ARC
  5
101A4A2
330
A
100
AcDbEntity
  8
0
  6
CENTER
100
AcDbCircle
 10
32969.9833906857
 20
-12962.55595023342
 30
0.0
 40
259.0
100
AcDbArc
 50
285.3359832067651
 51
74.66401679323495
  0
ARC
  5
101A4A3
330
A
100
AcDbEntity
  8
0
100
AcDbCircle
 10
32969.9833906857
 20
-12962.55595023342
 30
0.0
 40
228.0
100
AcDbArc
 50
285.3359832067651
 51
74.66401679323495
  0
ARC
  5
101A4A4
330
A
100
AcDbEntity
  8
0
100
AcDbCircle
 10
32969.9833906857
 20
-12962.55595023342
 30
0.0
 40
290.0
100
AcDbArc
 50
285.3359832067651
 51
74.66401679323495
  0
ARC
  5
101A4A5
330
A
100
AcDbEntity
  8
0
100
AcDbCircle
 10
33106.98388137836
 20
-13462.11147945932
 30
0.0
 40
290.0008313026912
100
AcDbArc
 50
105.3360386908906
 51
180.0878146084363
  0
ARC
  5
101A4A6
330
A
100
AcDbEntity
  8
0
100
AcDbCircle
 10
33106.98401425821
 20
-13462.11167644706
 30
0.0
 40
228.0010564200293
100
AcDbArc
 50
105.3360728892304
 51
180.111644346794
  0
LWPOLYLINE
  5
101A4A7
330
A
100
AcDbEntity
  8
0
  6
CENTER
100
AcDbPolyline
 90
        3
 70
     0
 43
0.0
 10
32847.9833906857
 20
-12362.55595023339
 10
32847.9833906857
 20
-12463.00114843485
 42
0.337820141221236
 10
33038.48339068577
 20
-12712.77854933414
  0
LWPOLYLINE
  5
101A4A8
330
A
100
AcDbEntity
  8
0
100
AcDbPolyline
 90
        2
 70
     0
 43
0.0
 10
32827.34339068571
 20
-12362.55595023339
 10
32827.34339068571
 20
-12462.55595023339
  0
LWPOLYLINE
  5
101A4A9
330
A
100
AcDbEntity
  8
0
100
AcDbPolyline
 90
        2
 70
     0
 43
0.0
 10
32868.6233906857
 20
-12362.55595023339
 10
32868.6233906857
 20
-12462.55595023339
  0
ARC
  5
101A4AA
330
A
100
AcDbEntity
  8
0
100
AcDbCircle
 10
33106.98388137837
 20
-12463.00042100748
 30
0.0
 40
290.0008313026983
100
AcDbArc
 50
179.9121853915637
 51
254.6639613091094
  0
ARC
  5
101A4AB
330
A
100
AcDbEntity
  8
0
100
AcDbCircle
 10
33106.98401425821
 20
-12463.00022401976
 30
0.0
 40
228.0010564200289
100
AcDbArc
 50
179.888355653206
 51
254.6639271107695
  0
LINE
  5
101A4AC
330
A
100
AcDbEntity
  8
0
  6
CENTER
100
AcDbLine
 10
32847.9833906857
 20
-13462.55595023341
 30
0.0
 11
32878.9833906857
 21
-13462.55595023341
 31
0.0
  0
LINE
  5
101A4AD
330
A
100
AcDbEntity
  8
0
  6
CENTER
100
AcDbLine
 10
32847.9833906857
 20
-13462.55595023341
 30
0.0
 11
32816.98339068571
 21
-13462.55595023341
 31
0.0
  0
LINE
  5
101A4AE
330
A
100
AcDbEntity
  8
0
  6
CENTER
100
AcDbLine
 10
32847.9833906857
 20
-12462.55595023339
 30
0.0
 11
32878.9833906857
 21
-12462.55595023339
 31
0.0
  0
LINE
  5
101A4AF
330
A
100
AcDbEntity
  8
0
  6
CENTER
100
AcDbLine
 10
32847.9833906857
 20
-12462.55595023339
 30
0.0
 11
32816.98339068571
 21
-12462.55595023339
 31
0.0
  0
LWPOLYLINE
  5
101A4B0
330
A
100
AcDbEntity
  8
0
  6
CENTER
100
AcDbPolyline
 90
        3
 70
     0
 43
0.0
 10
33038.48339068575
 20
-13212.33335113267
 42
0.3378201412212278
 10
32847.9833906857
 20
-13462.11075203197
 10
32847.9833906857
 20
-13562.55595023342
  0
LWPOLYLINE
  5
101A4B1
330
A
100
AcDbEntity
  8
0
100
AcDbPolyline
 90
        2
 70
     0
 43
0.0
 10
32827.34339068571
 20
-13462.55595023341
 10
32827.34339068571
 20
-13562.55595023342
  0
LWPOLYLINE
  5
101A4B2
330
A
100
AcDbEntity
  8
0
100
AcDbPolyline
 90
        2
 70
     0
 43
0.0
 10
32868.6233906857
 20
-13462.55595023341
 10
32868.6233906857
 20
-13562.55595023342
  0
LINE
  5
101A590
330
A
100
AcDbEntity
  8
0
100
AcDbLine
 10
34079.58213447732
 20
-12362.55595023339
 30
0.0
 11
34124.03213447731
 21
-12362.55595023338
 31
0.0
  0
LINE
  5
101A591
330
A
100
AcDbEntity
  8
0
100
AcDbLine
 10
34070.80713447731
 20
-12462.55595023338
 30
0.0
 11
34132.80713447731
 21
-12462.55595023339
 31
0.0
  0
LINE
  5
101A592
330
A
100
AcDbEntity
  8
0
100
AcDbLine
 10
34743.58213447731
 20
-12362.55595023339
 30
0.0
 11
34788.03213447731
 21
-12362.55595023339
 31
0.0
  0
LINE
  5
101A593
330
A
100
AcDbEntity
  8
0
  6
CENTER
100
AcDbLine
 10
34101.80713447731
 20
-12362.55595023339
 30
0.0
 11
34101.80713447731
 21
-13562.55595023342
 31
0.0
  0
LINE
  5
101A594
330
A
100
AcDbEntity
  8
0
100
AcDbLine
 10
34079.58213447732
 20
-12362.55595023339
 30
0.0
 11
34079.58213447732
 21
-12462.55595023338
 31
0.0
  0
LINE
  5
101A595
330
A
100
AcDbEntity
  8
0
100
AcDbLine
 10
34079.58213447732
 20
-13462.55595023341
 30
0.0
 11
34079.58213447732
 21
-13562.55595023342
 31
0.0
  0
LINE
  5
101A596
330
A
100
AcDbEntity
  8
0
100
AcDbLine
 10
34124.03213447731
 20
-12362.55595023339
 30
0.0
 11
34124.03213447731
 21
-12462.55595023339
 31
0.0
  0
LINE
  5
101A597
330
A
100
AcDbEntity
  8
0
100
AcDbLine
 10
34124.03213447731
 20
-13462.55595023341
 30
0.0
 11
34124.03213447731
 21
-13562.55595023342
 31
0.0
  0
LINE
  5
101A598
330
A
100
AcDbEntity
  8
0
100
AcDbLine
 10
34070.80713447731
 20
-12462.55595023338
 30
0.0
 11
34070.80713447731
 21
-13462.55595023342
 31
0.0
  0
LINE
  5
101A599
330
A
100
AcDbEntity
  8
0
100
AcDbLine
 10
34132.80713447731
 20
-12462.55595023339
 30
0.0
 11
34132.80713447731
 21
-13462.55595023341
 31
0.0
  0
LINE
  5
101A59A
330
A
100
AcDbEntity
  8
0
100
AcDbLine
 10
34079.58213447732
 20
-13562.55595023342
 30
0.0
 11
34124.03213447731
 21
-13562.55595023342
 31
0.0
  0
LINE
  5
101A59B
330
A
100
AcDbEntity
  8
0
100
AcDbLine
 10
34070.80713447731
 20
-13462.55595023341
 30
0.0
 11
34132.80713447731
 21
-13462.55595023341
 31
0.0
  0
LINE
  5
101A59C
330
A
100
AcDbEntity
  8
0
100
AcDbLine
 10
34743.58213447731
 20
-13562.55595023341
 30
0.0
 11
34788.03213447731
 21
-13562.55595023342
 31
0.0
  0
LINE
  5
101A59D
330
A
100
AcDbEntity
  8
0
100
AcDbLine
 10
34762.63213447732
 20
-13462.55595023341
 30
0.0
 11
34768.98213447731
 21
-13462.55595023341
 31
0.0
  0
ARC
  5
101A59E
330
A
100
AcDbEntity
  8
0
  6
CENTER
100
AcDbCircle
 10
34887.80713447731
 20
-12962.55595023342
 30
0.0
 40
259.0
100
AcDbArc
 50
285.3359832067651
 51
74.66401679323495
  0
ARC
  5
101A59F
330
A
100
AcDbEntity
  8
0
100
AcDbCircle
 10
34887.80713447731
 20
-12962.55595023342
 30
0.0
 40
228.0
100
AcDbArc
 50
285.3359832067651
 51
74.66401679323495
  0
ARC
  5
101A5A0
330
A
100
AcDbEntity
  8
0
100
AcDbCircle
 10
34887.80713447731
 20
-12962.55595023342
 30
0.0
 40
290.0
100
AcDbArc
 50
285.3359832067651
 51
74.66401679323495
  0
ARC
  5
101A5A1
330
A
100
AcDbEntity
  8
0
100
AcDbCircle
 10
35024.80762516998
 20
-13462.11147945932
 30
0.0
 40
290.0008313026912
100
AcDbArc
 50
105.3360386908906
 51
180.0878146084363
  0
ARC
  5
101A5A2
330
A
100
AcDbEntity
  8
0
100
AcDbCircle
 10
35024.80775804982
 20
-13462.11167644706
 30
0.0
 40
228.0010564200293
100
AcDbArc
 50
105.3360728892304
 51
180.111644346794
  0
LWPOLYLINE
  5
101A5A3
330
A
100
AcDbEntity
  8
0
  6
CENTER
100
AcDbPolyline
 90
        3
 70
     0
 43
0.0
 10
34765.80713447731
 20
-12362.55595023339
 10
34765.80713447731
 20
-12463.00114843485
 42
0.337820141221236
 10
34956.30713447738
 20
-12712.77854933414
  0
LWPOLYLINE
  5
101A5A4
330
A
100
AcDbEntity
  8
0
100
AcDbPolyline
 90
        2
 70
     0
 43
0.0
 10
34743.58213447731
 20
-12362.55595023339
 10
34743.58213447731
 20
-12462.55595023339
  0
LWPOLYLINE
  5
101A5A5
330
A
100
AcDbEntity
  8
0
100
AcDbPolyline
 90
        2
 70
     0
 43
0.0
 10
34788.03213447731
 20
-12362.55595023339
 10
34788.03213447731
 20
-12462.55595023339
  0
ARC
  5
101A5A6
330
A
100
AcDbEntity
  8
0
100
AcDbCircle
 10
35024.80762516998
 20
-12463.00042100748
 30
0.0
 40
290.0008313026983
100
AcDbArc
 50
179.9121853915637
 51
254.6639613091094
  0
ARC
  5
101A5A7
330
A
100
AcDbEntity
  8
0
100
AcDbCircle
 10
35024.80775804982
 20
-12463.00022401976
 30
0.0
 40
228.0010564200289
100
AcDbArc
 50
179.888355653206
 51
254.6639271107695
  0
LINE
  5
101A5A8
330
A
100
AcDbEntity
  8
0
  6
CENTER
100
AcDbLine
 10
34765.80713447731
 20
-13462.55595023341
 30
0.0
 11
34796.80713447731
 21
-13462.55595023341
 31
0.0
  0
LINE
  5
101A5A9
330
A
100
AcDbEntity
  8
0
  6
CENTER
100
AcDbLine
 10
34765.80713447731
 20
-13462.55595023341
 30
0.0
 11
34734.80713447731
 21
-13462.55595023341
 31
0.0
  0
LINE
  5
101A5AA
330
A
100
AcDbEntity
  8
0
  6
CENTER
100
AcDbLine
 10
34765.80713447731
 20
-12462.55595023339
 30
0.0
 11
34796.80713447731
 21
-12462.55595023339
 31
0.0
  0
LINE
  5
101A5AB
330
A
100
AcDbEntity
  8
0
  6
CENTER
100
AcDbLine
 10
34765.80713447731
 20
-12462.55595023339
 30
0.0
 11
34734.80713447731
 21
-12462.55595023339
 31
0.0
  0
LWPOLYLINE
  5
101A5AC
330
A
100
AcDbEntity
  8
0
  6
CENTER
100
AcDbPolyline
 90
        3
 70
     0
 43
0.0
 10
34956.30713447737
 20
-13212.33335113267
 42
0.3378201412212278
 10
34765.80713447731
 20
-13462.11075203197
 10
34765.80713447731
 20
-13562.55595023342
  0
LWPOLYLINE
  5
101A5AD
330
A
100
AcDbEntity
  8
0
100
AcDbPolyline
 90
        2
 70
     0
 43
0.0
 10
34743.58213447731
 20
-13462.55595023341
 10
34743.58213447731
 20
-13562.55595023342
  0
LWPOLYLINE
  5
101A5AE
330
A
100
AcDbEntity
  8
0
100
AcDbPolyline
 90
        2
 70
     0
 43
0.0
 10
34788.03213447731
 20
-13462.55595023341
 10
34788.03213447731
 20
-13562.55595023342
  0
ENDSEC
  0
SECTION
  2
OBJECTS
  0
DICTIONARY
  5
19
330
0
100
AcDbDictionary
281
     1
  3
ACAD_CIP_PREVIOUS_PRODUCT_INFO
350
1017159
  3
ACAD_COLOR
350
2F42
  3
ACAD_DETAILVIEWSTYLE
350
1017154
  3
ACAD_GROUP
350
1A
  3
ACAD_LAYOUT
350
4EC
  3
ACAD_MATERIAL
350
2F41
  3
ACAD_MLEADERSTYLE
350
16D5A
  3
ACAD_MLINESTYLE
350
1B
  3
ACAD_PLOTSETTINGS
350
4ED
  3
ACAD_PLOTSTYLENAME
350
4EA
  3
ACAD_SCALELIST
350
16D48
  3
ACAD_SECTIONVIEWSTYLE
350
1017152
  3
ACAD_TABLESTYLE
350
2F43
  3
ACAD_VISUALSTYLE
350
16D2F
  3
ACDB_RECOMPOSE_DATA
350
101A63A
  3
AcDbVariableDictionary
350
334C
  3
AcDsDecomposeData
350
101A640
  0
DICTIONARY
  5
16DF9
330
2
100
AcDbDictionary
280
     1
281
     1
  3
ACAD_LAYERSTATES
360
16DFA
  0
DICTIONARY
  5
16D62
330
14
100
AcDbDictionary
280
     1
281
     1
  3
ADSK_XREC_LAYER_RECONCILED
360
16D63
  0
DICTIONARY
  5
16D6C
330
3568
100
AcDbDictionary
280
     1
281
     1
  3
ADSK_XREC_LAYER_RECONCILED
360
16D6D
  0
DICTIONARY
  5
5293
330
A
100
AcDbDictionary
280
     1
281
     1
  3
ACAD_SORTENTS
360
5294
  0
XRECORD
  5
1017159
102
{ACAD_REACTORS
330
19
102
}
330
19
100
AcDbXrecord
280
     1
300
ACDLT
300
2017
300
ACDLT_F_S
  0
DICTIONARY
  5
2F42
102
{ACAD_REACTORS
330
19
102
}
330
19
100
AcDbDictionary
281
     1
  0
DICTIONARY
  5
1017154
102
{ACAD_REACTORS
330
19
102
}
330
19
100
AcDbDictionary
281
     1
  3
Metric50
350
1017155
  0
DICTIONARY
  5
1A
102
{ACAD_REACTORS
330
19
102
}
330
19
100
AcDbDictionary
281
     1
  0
DICTIONARY
  5
4EC
102
{ACAD_REACTORS
330
19
102
}
330
19
100
AcDbDictionary
281
     1
  3
Model
350
4EE
  3
ﾚｲｱｳﾄ1
350
4EF
  0
DICTIONARY
  5
2F41
102
{ACAD_REACTORS
330
19
102
}
330
19
100
AcDbDictionary
281
     1
  3
ByBlock
350
16D1F
  3
ByLayer
350
16D17
  3
Global
350
16D27
  0
DICTIONARY
  5
16D5A
102
{ACAD_REACTORS
330
19
102
}
330
19
100
AcDbDictionary
281
     1
  3
Standard
350
16D5B
  0
DICTIONARY
  5
1B
102
{ACAD_REACTORS
330
19
102
}
330
19
100
AcDbDictionary
281
     1
  3
STANDARD
350
1C
  0
DICTIONARY
  5
4ED
102
{ACAD_REACTORS
330
19
102
}
330
19
100
AcDbDictionary
281
     1
  0
ACDBDICTIONARYWDFLT
  5
4EA
102
{ACAD_REACTORS
330
19
102
}
330
19
100
AcDbDictionary
281
     1
  3
Normal
350
4EB
100
AcDbDictionaryWithDefault
340
4EB
  0
DICTIONARY
  5
16D48
102
{ACAD_REACTORS
330
19
102
}
330
19
100
AcDbDictionary
281
     1
  3
A0
350
16D49
  3
A1
350
16D4A
  3
A2
350
16D4B
  3
A3
350
16D4C
  3
A4
350
16D4D
  3
A5
350
16D4E
  3
A6
350
16D4F
  3
A7
350
16D50
  3
A8
350
16D51
  3
A9
350
16D52
  3
B0
350
16D53
  3
B1
350
16D54
  3
B2
350
16D55
  3
B3
350
16D56
  3
B4
350
16D57
  3
B5
350
16D58
  3
B6
350
16D59
  0
DICTIONARY
  5
1017152
102
{ACAD_REACTORS
330
19
102
}
330
19
100
AcDbDictionary
281
     1
  3
Metric50
350
1017153
  0
DICTIONARY
  5
2F43
102
{ACAD_REACTORS
330
19
102
}
330
19
100
AcDbDictionary
281
     1
  3
Standard
350
2F44
  0
DICTIONARY
  5
16D2F
102
{ACAD_REACTORS
330
19
102
}
330
19
100
AcDbDictionary
281
     1
  3
2dWireframe
350
16D35
  3
Basic
350
16D34
  3
Brighten
350
16D3B
  3
ColorChange
350
16D3F
  3
Conceptual
350
16D38
  3
Dim
350
16D3A
  3
EdgeColorOff
350
16D47
  3
Facepattern
350
16D3E
  3
Flat
350
16D30
  3
FlatWithEdges
350
16D31
  3
Gouraud
350
16D32
  3
GouraudWithEdges
350
16D33
  3
Hidden
350
16D37
  3
JitterOff
350
16D45
  3
Linepattern
350
16D3D
  3
OverhangOff
350
16D46
  3
Realistic
350
16D39
  3
Shaded
350
16D44
  3
Shaded with edges
350
16D43
  3
Shades of Gray
350
16D40
  3
Sketchy
350
16D41
  3
Thicken
350
16D3C
  3
Wireframe
350
16D36
  3
X-Ray
350
16D42
  0
XRECORD
  5
101A63A
102
{ACAD_REACTORS
330
19
102
}
330
19
100
AcDbXrecord
280
     1
 90
        1
330
2F44
  0
DICTIONARY
  5
334C
102
{ACAD_REACTORS
330
19
102
}
330
19
100
AcDbDictionary
281
     1
  3
CANNOSCALE
350
17103
  3
CMLEADERSTYLE
350
17102
  3
CTABLESTYLE
350
334D
  3
CVIEWDETAILSTYLE
350
1017323
  3
CVIEWSECTIONSTYLE
350
1017324
  3
DIMASSOC
350
334E
  3
INDEXCTL
350
17105
  3
LAYEREVAL
350
1017327
  3
LAYERNOTIFY
350
1017328
  3
LIGHTINGUNITS
350
1017326
  3
MSLTSCALE
350
1017325
  3
PROJECTNAME
350
334F
  3
SORTENTS
350
17104
  0
DICTIONARY
  5
101A640
102
{ACAD_REACTORS
330
19
102
}
330
19
100
AcDbDictionary
281
     1
  3
AcDsRecords
350
101A642
  3
AcDsSchemas
350
101A641
1001
ACAD
1070
     2
  0
DICTIONARY
  5
16DFA
102
{ACAD_REACTORS
330
16DF9
102
}
330
16DF9
100
AcDbDictionary
281
     1
  0
XRECORD
  5
16D63
102
{ACAD_REACTORS
330
16D62
102
}
330
16D62
100
AcDbXrecord
280
     1
290
     1
  0
XRECORD
  5
16D6D
102
{ACAD_REACTORS
330
16D6C
102
}
330
16D6C
100
AcDbXrecord
280
     1
290
     1
  0
SORTENTSTABLE
  5
5294
102
{ACAD_REACTORS
330
5293
102
}
330
5293
100
AcDbSortentsTable
330
A
331
1019FD9
  5
101A028
331
1019FDD
  5
101A02C
331
1019FE1
  5
101A0C8
331
1019330
  5
1019331
331
1019334
  5
1019335
331
1019338
  5
101933A
331
101933C
  5
101933D
331
101A0C8
  5
101A0CA
331
101A0CC
  5
101A0CE
331
101A0D0
  5
101A0D2
331
101A496
  5
101A49E
331
10197E5
  5
1019788
331
10197E9
  5
10197E9
331
1019A38
  5
1019A38
331
1019A3C
  5
1019A3C
331
1019A40
  5
1019A40
331
1019DFB
  5
1019E0E
331
1019A44
  5
1019A44
331
1019E03
  5
1019E15
331
1019E07
  5
1019E1A
331
1019470
  5
1019471
331
1019474
  5
1019475
331
1019340
  5
1019341
331
1019344
  5
1019345
331
10190C1
  5
10190C2
331
101946C
  5
101946D
331
10190C5
  5
10190C6
331
101A3E5
  5
101A3F6
331
101A3E9
  5
101A3FA
331
101A0D8
  5
101A0DA
331
101A3ED
  5
101A3FE
331
101A0DC
  5
101A0DE
331
101A0E0
  5
101A0E2
331
101A49A
  5
101A4A3
331
101A0E4
  5
101A0E6
331
101A49E
  5
101A4A7
331
101A4A2
  5
101A4AA
331
101A4A6
  5
101A4AE
331
101995F
  5
1019967
331
1019963
  5
101996B
331
1019967
  5
101996F
331
1019E0B
  5
1019EFC
331
1019E0F
  5
1019F00
331
1019E13
  5
1019FC5
331
10198AB
  5
10198AB
331
1019FC6
  5
1019FD1
331
1019348
  5
1019349
331
10194C8
  5
10194C8
331
1017321
  5
101737A
331
10190C9
  5
10190CA
331
10194CC
  5
10194CC
331
10190CD
  5
10190CE
331
10194D0
  5
10195AC
331
10195A8
  5
10194D4
331
10190D1
  5
10190D3
331
10190D5
  5
10190D6
331
10195B0
  5
10195EA
331
101A3F1
  5
101A401
331
101A3F5
  5
101A44A
331
101A3F9
  5
101A44E
331
101A3FD
  5
101A496
331
101A4AA
  5
101A4B2
331
101A4AE
  5
101A4FB
331
101A4B2
  5
101A4FF
331
1019789
  5
1019791
331
1019795
  5
10197E5
331
10195EC
  5
10195B2
331
101996B
  5
1019973
331
101996F
  5
1019977
331
1019973
  5
10199C0
331
1019977
  5
10199C4
331
10196DB
  5
10196DB
331
1019B80
  5
1019B80
331
1019E1B
  5
1019FCC
331
1019B84
  5
1019B84
331
1019B88
  5
1019B88
331
1019B8C
  5
1019B8C
331
1019FCA
  5
1019FD5
331
1019FCE
  5
1019FD9
331
1019FD2
  5
1019FDC
331
1019FD6
  5
1019FE0
331
10190D9
  5
10190DA
331
10190DD
  5
10190DE
331
101932D
  5
101932E
331
101A401
  5
101A49A
331
1019799
  5
101979D
331
101966B
  5
101966B
331
10195F0
  5
10194D3
331
101979D
  5
1019797
331
1019A29
  5
1019A29
331
1019A2D
  5
1019A2D
331
1019B90
  5
1019B90
331
1019A31
  5
1019A31
331
1019B94
  5
1019B94
331
1019A35
  5
1019A35
331
1019DF0
  5
1019E03
331
1019B98
  5
1019B98
331
1019DF4
  5
1019E07
331
1019B9C
  5
1019B9C
331
1019FDA
  5
101A029
331
1019FDE
  5
101A02D
331
1019FE2
  5
101A0C9
331
1019331
  5
1019332
331
1019335
  5
1019336
331
101933D
  5
101933E
331
101A0C9
  5
101A0CB
331
101A0CD
  5
101A0CF
331
101A0D1
  5
101A0D3
331
101A0D5
  5
101A0D7
331
101A493
  5
101A49B
331
101A497
  5
101A4A0
331
10197E6
  5
101978A
331
10197EA
  5
10197EA
331
1019A39
  5
1019A39
331
1019A3D
  5
1019A3D
331
1019DF8
  5
1019E0B
331
1019A41
  5
1019A41
331
1019DFC
  5
1019E0F
331
1019A45
  5
1019A45
331
1019E00
  5
1019E12
331
1019E04
  5
1019E16
331
1019471
  5
1019472
331
1019475
  5
1019476
331
1019341
  5
1019342
331
1019345
  5
1019346
331
10190C2
  5
10190C4
331
101946D
  5
101946E
331
10190C6
  5
10190C7
331
101A3E2
  5
101A3F3
331
101A3E6
  5
101A3F7
331
101A3EA
  5
101A3FB
331
101A0D9
  5
101A0DB
331
101A3EE
  5
101A3FF
331
101A0DD
  5
101A0DF
331
101A0E1
  5
101A0E3
331
101A49B
  5
101A4A4
331
101A0E5
  5
101A171
331
101A4A3
  5
101A4AB
331
101A4A7
  5
101A4AF
331
1019782
  5
1019782
331
1019786
  5
1019786
331
1019960
  5
1019968
331
1019964
  5
101996C
331
1019E08
  5
1019E1B
331
1019E0C
  5
1019EFD
331
1019E10
  5
1019F01
331
1019E14
  5
1019FC6
331
10198AC
  5
10198AC
331
1019FC3
  5
1019FCD
331
1019FC7
  5
1019FD2
331
1019349
  5
101946A
331
10194C9
  5
10194C9
331
10190CA
  5
10190CB
331
10190CE
  5
10190CF
331
10195AD
  5
10195F1
331
10194D5
  5
10195E9
331
10190D6
  5
10190D7
331
10195B1
  5
10195EE
331
101A3F2
  5
101A447
331
101A3F6
  5
101A44B
331
101A3FA
  5
101A493
331
101A3FE
  5
101A497
331
101A4AB
  5
101A4F8
331
101A4AF
  5
101A4FC
331
1019792
  5
101978C
331
1019968
  5
1019970
331
1019796
  5
101979B
331
10195ED
  5
10195B1
331
101996C
  5
1019974
331
1019970
  5
1019978
331
1019974
  5
10199C1
331
1019E18
  5
1019FC9
331
1019B81
  5
1019B81
331
1019B85
  5
1019B85
331
1019B89
  5
1019B89
331
1019B8D
  5
1019B8D
331
1019FCB
  5
1019FD6
331
1019FD3
  5
1019FDD
331
1019FD7
  5
1019FE1
331
10190DA
  5
10190DB
331
10190DE
  5
10190DF
331
101932A
  5
101932B
331
101932E
  5
101932F
331
101979A
  5
1019789
331
10195F1
  5
10194CE
331
101979E
  5
101978F
331
10195F9
  5
10195F9
331
1019978
  5
10199C5
331
1019A2A
  5
1019A2A
331
1019A2E
  5
1019A2E
331
1019B91
  5
1019B91
331
1019A32
  5
1019A32
331
1019B95
  5
1019B95
331
1019A36
  5
1019A36
331
1019DF1
  5
1019E04
331
1019B99
  5
1019B99
331
1019DF5
  5
1019E08
331
1019B9D
  5
1019B9D
331
1019FDB
  5
101A02A
331
1019FDF
  5
101A02E
331
1019332
  5
1019333
331
1019336
  5
1019337
331
101933A
  5
101933B
331
101933E
  5
101933F
331
101A0CA
  5
101A0CC
331
101A0CE
  5
101A0D0
331
101A0D2
  5
101A0D5
331
101A0D6
  5
101A0D8
331
101A494
  5
101A49C
331
10197E7
  5
10197E7
331
1019A3A
  5
1019A3A
331
1019A3E
  5
1019A3E
331
1019DF9
  5
1019E0C
331
1019A42
  5
1019A42
331
1019DFD
  5
1019E10
331
1019E01
  5
1019E13
331
1019E05
  5
1019E18
331
1019472
  5
1019473
331
1019342
  5
1019343
331
1019346
  5
1019347
331
1017317
  5
1017317
331
101946A
  5
101946B
331
101946E
  5
101946F
331
10190C7
  5
10190C8
331
101A3E3
  5
101A3F4
331
101A3E7
  5
101A3F8
331
101A3EB
  5
101A3FC
331
101A0DA
  5
101A0DC
331
101A3EF
  5
101A400
331
101A0DE
  5
101A0E0
331
101A498
  5
101A4A1
331
101A0E2
  5
101A0E4
331
101A49C
  5
101A4A5
331
101A0E6
  5
101A172
331
101A4A0
  5
101A4A8
331
101A4A4
  5
101A4AC
331
1019783
  5
1019783
331
101995D
  5
1019965
331
1019961
  5
1019969
331
1019965
  5
101996D
331
1019E09
  5
1019EA8
331
1019E0D
  5
1019EFE
331
1019E11
  5
1019FC3
331
1019E15
  5
1019FC7
331
1019FC4
  5
1019FCE
331
10194CA
  5
10194CA
331
10190CB
  5
10190CC
331
10194CE
  5
10195AA
331
10190CF
  5
10190D1
331
10194D2
  5
10195AE
331
10190D3
  5
10190D4
331
10195AE
  5
10195F0
331
10190D7
  5
10190D8
331
10195B2
  5
10195ED
331
101A3F3
  5
101A448
331
101A3F7
  5
101A44C
331
101A3FB
  5
101A494
331
101A3FF
  5
101A498
331
101A4A8
  5
101A4B0
331
101A4AC
  5
101A4F9
331
101A4B0
  5
101A4FD
331
101978F
  5
1019799
331
1019793
  5
101978B
331
10195EA
  5
10194D2
331
1019969
  5
1019971
331
1019797
  5
101979A
331
10195EE
  5
10195A7
331
101996D
  5
1019975
331
1019971
  5
1019979
331
1019975
  5
10199C2
331
1019E19
  5
1019FCA
331
1019B82
  5
1019B82
331
1019B86
  5
1019B86
331
1019B8A
  5
1019B8A
331
1019FC8
  5
1019FD3
331
1019FCC
  5
1019FD7
331
1019FD0
  5
1019FDA
331
1019FD4
  5
1019FDE
331
10190DB
  5
10190DC
331
10190DF
  5
101932A
331
101932B
  5
101932C
331
101932F
  5
1019330
331
101979B
  5
1019787
331
101979F
  5
101978E
331
1019979
  5
10199C6
331
1019A2B
  5
1019A2B
331
1019A2F
  5
1019A2F
331
1019B92
  5
1019B92
331
1019A33
  5
1019A33
331
1019B96
  5
1019B96
331
1019A37
  5
1019A37
331
1019DF2
  5
1019E05
331
1019B9A
  5
1019B9A
331
1019DF6
  5
1019E09
331
1019B9E
  5
1019B9E
331
1019FD8
  5
1019FE2
331
1019FDC
  5
101A02B
331
1019FE0
  5
101A02F
331
1019333
  5
1019334
331
1019337
  5
1019338
331
101933B
  5
101933C
331
101933F
  5
1019340
331
101A0CB
  5
101A0CD
331
101A0CF
  5
101A0D1
331
101A0D3
  5
101A0D6
331
101A0D7
  5
101A0D9
331
101A495
  5
101A49D
331
10197E8
  5
10197E8
331
1019A3B
  5
1019A3B
331
1019A3F
  5
1019A3F
331
1019DFA
  5
1019E0D
331
1019A43
  5
1019A43
331
1019DFE
  5
1019E11
331
1019E02
  5
1019E14
331
1019E06
  5
1019E19
331
1019473
  5
1019474
331
1019343
  5
1019344
331
1019347
  5
1019348
331
10190C0
  5
10190C1
331
101946B
  5
101946C
331
10190C4
  5
10190C5
331
101946F
  5
1019470
331
10195A7
  5
10194D5
331
101A3E4
  5
101A3F5
331
101A3E8
  5
101A3F9
331
101A3EC
  5
101A3FD
331
101A0DB
  5
101A0DD
331
101A0DF
  5
101A0E1
331
101A499
  5
101A4A2
331
101A0E3
  5
101A0E5
331
101A49D
  5
101A4A6
331
101A4A1
  5
101A4A9
331
101A4A5
  5
101A4AD
331
1019784
  5
1019784
331
101995E
  5
1019966
331
1019962
  5
101996A
331
1019966
  5
101996E
331
1019E0A
  5
1019EFB
331
1019E0E
  5
1019EFF
331
1019E12
  5
1019FC4
331
1019E16
  5
1019FC8
331
1019B7F
  5
1019B7F
331
1019FC5
  5
1019FD0
331
101731C
  5
101731D
331
10190C8
  5
10190C9
331
10190CC
  5
10190CD
331
10194CF
  5
10195AB
331
10194D3
  5
10195AF
331
10190D4
  5
10190D5
331
10195AF
  5
10195EB
331
101A3F4
  5
101A449
331
101A3F8
  5
101A44D
331
101A3FC
  5
101A495
331
101A4A9
  5
101A4B1
331
101A4AD
  5
101A4FA
331
101A4B1
  5
101A4FE
331
1019788
  5
1019790
331
101978C
  5
1019794
331
1019794
  5
10197E6
331
10195EB
  5
10194CD
331
101996A
  5
1019972
331
10195EF
  5
10194D7
331
101996E
  5
1019976
331
1019972
  5
101997A
331
1019976
  5
10199C3
331
10196DA
  5
10196DA
331
1019E1A
  5
1019FCB
331
1019B83
  5
1019B83
331
1019B87
  5
1019B87
331
1019B8B
  5
1019B8B
331
1019B8F
  5
1019B8F
331
1019FC9
  5
1019FD4
331
1019FCD
  5
1019FD8
331
1019FD1
  5
1019FDB
331
1019FD5
  5
1019FDF
331
10190D8
  5
10190D9
331
10190DC
  5
10190DD
331
101932C
  5
101932D
331
101A400
  5
101A499
331
1019798
  5
101979E
331
101966A
  5
101966A
331
101979C
  5
1019798
331
10195F7
  5
10195F7
331
101997A
  5
10199C7
331
1019A28
  5
1019A28
331
1019A2C
  5
1019A2C
331
1019A30
  5
1019A30
331
1019B93
  5
1019B93
331
1019A34
  5
1019A34
331
1019DEF
  5
1019E02
331
1019B97
  5
1019B97
331
1019DF3
  5
1019E06
331
1019B9B
  5
1019B9B
331
1019DF7
  5
1019E0A
  0
ACDBDETAILVIEWSTYLE
  5
1017155
102
{ACAD_XDICTIONARY
360
101A675
102
}
102
{ACAD_REACTORS
330
1017154
102
}
330
1017154
100
AcDbModelDocViewStyle
 70
     0
  3
Metric50
290
     0
100
AcDbDetailViewStyle
 70
     0
 71
     0
 90
        3
 71
     1
340
4E7
 62
   256
 40
5.0
340
0
 62
   256
 40
5.0
300

 40
0.0
280
     1
 71
     2
340
13
 90
       25
 62
   256
 71
     3
340
4E7
 62
   256
 40
5.0
 90
        0
 40
15.0
 90
        1
300
%<\AcVar ViewDetailId>% (%<\AcVar ViewScale \f "%sn">%)
 71
     4
340
13
 90
       25
 62
   256
340
13
 90
       25
 62
   256
280
     0
  0
LAYOUT
  5
4EE
102
{ACAD_REACTORS
330
4EC
102
}
330
4EC
100
AcDbPlotSettings
  1

  2
Canon LASER SHOT LBP-1710
  4
A3
  6

 40
5.873749732971191
 41
5.873747825622557
 42
5.873748779296875
 43
5.873748779296875
 44
296.9259948730469
 45
419.9466552734373
 46
-4.5
 47
-4.49
 48
993.6028128978476
 49
-225.7964931124821
140
1619.370166979213
141
215.4799722210864
142
1.0
143
1.5
 70
 11940
 72
     1
 73
     1
 74
     4
  7
INABA-CAD-Canon.ctb
 75
     0
147
0.6666666666666666
 76
     0
 77
     2
 78
   300
148
-993.6028128978476
149
225.7964931124821
100
AcDbLayout
  1
Model
 70
     1
 71
     0
 10
0.0
 20
0.0
 11
12.0
 21
9.0
 12
0.0
 22
0.0
 32
0.0
 14
0.0
 24
0.0
 34
0.0
 15
0.0
 25
0.0
 35
0.0
146
0.0
 13
0.0
 23
0.0
 33
0.0
 16
1.0
 26
0.0
 36
0.0
 17
0.0
 27
1.0
 37
0.0
 76
     0
330
A
331
16D10
  0
LAYOUT
  5
4EF
102
{ACAD_REACTORS
330
4EC
102
}
330
4EC
100
AcDbPlotSettings
  1

  2
Canon LASER SHOT LBP-1710(業務側)
  4

  6

 40
0.0
 41
0.0
 42
0.0
 43
0.0
 44
0.0
 45
0.0
 46
0.0
 47
0.0
 48
0.0
 49
0.0
140
0.0
141
0.0
142
1.0
143
1.0
 70
   688
 72
     0
 73
     0
 74
     5
  7
INABA-CAD-Canon.ctb
 75
    16
147
1.0
 76
     0
 77
     2
 78
   300
148
0.0
149
0.0
100
AcDbLayout
  1
ﾚｲｱｳﾄ1
 70
     0
 71
     1
 10
0.0
 20
0.0
 11
12.0
 21
9.0
 12
0.0
 22
0.0
 32
0.0
 14
1.000000000000000E+20
 24
1.000000000000000E+20
 34
1.000000000000000E+20
 15
-1.000000000000000E+20
 25
-1.000000000000000E+20
 35
-1.000000000000000E+20
146
0.0
 13
0.0
 23
0.0
 33
0.0
 16
1.0
 26
0.0
 36
0.0
 17
0.0
 27
1.0
 37
0.0
 76
     0
330
B
  0
MATERIAL
  5
16D1F
102
{ACAD_XDICTIONARY
360
16D20
102
}
102
{ACAD_REACTORS
330
2F41
102
}
330
2F41
100
AcDbMaterial
  1
ByBlock
 72
     0
 43
0.0208333333333333
 43
0.0
 43
0.0
 43
0.0
 43
0.0
 43
0.0208333333333333
 43
0.0
 43
0.0
 43
0.0
 43
0.0
 43
1.0
 43
0.0
 43
0.0
 43
0.0
 43
0.0
 43
1.0
 77
     0
 47
0.0208333333333333
 47
0.0
 47
0.0
 47
0.0
 47
0.0
 47
0.0208333333333333
 47
0.0
 47
0.0
 47
0.0
 47
0.0
 47
1.0
 47
0.0
 47
0.0
 47
0.0
 47
0.0
 47
1.0
171
     0
 49
0.0208333333333333
 49
0.0
 49
0.0
 49
0.0
 49
0.0
 49
0.0208333333333333
 49
0.0
 49
0.0
 49
0.0
 49
0.0
 49
1.0
 49
0.0
 49
0.0
 49
0.0
 49
0.0
 49
1.0
175
     0
142
0.0208333333333333
142
0.0
142
0.0
142
0.0
142
0.0
142
0.0208333333333333
142
0.0
142
0.0
142
0.0
142
0.0
142
1.0
142
0.0
142
0.0
142
0.0
142
0.0
142
1.0
179
     0
144
0.0208333333333333
144
0.0
144
0.0
144
0.0
144
0.0
144
0.0208333333333333
144
0.0
144
0.0
144
0.0
144
0.0
144
1.0
144
0.0
144
0.0
144
0.0
144
0.0
144
1.0
147
0.0208333333333333
147
0.0
147
0.0
147
0.0
147
0.0
147
0.0208333333333333
147
0.0
147
0.0
147
0.0
147
0.0
147
1.0
147
0.0
147
0.0
147
0.0
147
0.0
147
1.0
  0
MATERIAL
  5
16D17
102
{ACAD_XDICTIONARY
360
16D18
102
}
102
{ACAD_REACTORS
330
2F41
102
}
330
2F41
100
AcDbMaterial
  1
ByLayer
 72
     0
 43
0.0208333333333333
 43
0.0
 43
0.0
 43
0.0
 43
0.0
 43
0.0208333333333333
 43
0.0
 43
0.0
 43
0.0
 43
0.0
 43
1.0
 43
0.0
 43
0.0
 43
0.0
 43
0.0
 43
1.0
 77
     0
 47
0.0208333333333333
 47
0.0
 47
0.0
 47
0.0
 47
0.0
 47
0.0208333333333333
 47
0.0
 47
0.0
 47
0.0
 47
0.0
 47
1.0
 47
0.0
 47
0.0
 47
0.0
 47
0.0
 47
1.0
171
     0
 49
0.0208333333333333
 49
0.0
 49
0.0
 49
0.0
 49
0.0
 49
0.0208333333333333
 49
0.0
 49
0.0
 49
0.0
 49
0.0
 49
1.0
 49
0.0
 49
0.0
 49
0.0
 49
0.0
 49
1.0
175
     0
142
0.0208333333333333
142
0.0
142
0.0
142
0.0
142
0.0
142
0.0208333333333333
142
0.0
142
0.0
142
0.0
142
0.0
142
1.0
142
0.0
142
0.0
142
0.0
142
0.0
142
1.0
179
     0
144
0.0208333333333333
144
0.0
144
0.0
144
0.0
144
0.0
144
0.0208333333333333
144
0.0
144
0.0
144
0.0
144
0.0
144
1.0
144
0.0
144
0.0
144
0.0
144
0.0
144
1.0
147
0.0208333333333333
147
0.0
147
0.0
147
0.0
147
0.0
147
0.0208333333333333
147
0.0
147
0.0
147
0.0
147
0.0
147
1.0
147
0.0
147
0.0
147
0.0
147
0.0
147
1.0
  0
MATERIAL
  5
16D27
102
{ACAD_XDICTIONARY
360
16D28
102
}
102
{ACAD_REACTORS
330
2F41
102
}
330
2F41
100
AcDbMaterial
  1
Global
 72
     0
 43
0.0208333333333333
 43
0.0
 43
0.0
 43
0.0
 43
0.0
 43
0.0208333333333333
 43
0.0
 43
0.0
 43
0.0
 43
0.0
 43
1.0
 43
0.0
 43
0.0
 43
0.0
 43
0.0
 43
1.0
 77
     0
 47
0.0208333333333333
 47
0.0
 47
0.0
 47
0.0
 47
0.0
 47
0.0208333333333333
 47
0.0
 47
0.0
 47
0.0
 47
0.0
 47
1.0
 47
0.0
 47
0.0
 47
0.0
 47
0.0
 47
1.0
171
     0
 49
0.0208333333333333
 49
0.0
 49
0.0
 49
0.0
 49
0.0
 49
0.0208333333333333
 49
0.0
 49
0.0
 49
0.0
 49
0.0
 49
1.0
 49
0.0
 49
0.0
 49
0.0
 49
0.0
 49
1.0
175
     0
142
0.0208333333333333
142
0.0
142
0.0
142
0.0
142
0.0
142
0.0208333333333333
142
0.0
142
0.0
142
0.0
142
0.0
142
1.0
142
0.0
142
0.0
142
0.0
142
0.0
142
1.0
179
     0
144
0.0208333333333333
144
0.0
144
0.0
144
0.0
144
0.0
144
0.0208333333333333
144
0.0
144
0.0
144
0.0
144
0.0
144
1.0
144
0.0
144
0.0
144
0.0
144
0.0
144
1.0
147
0.0208333333333333
147
0.0
147
0.0
147
0.0
147
0.0
147
0.0208333333333333
147
0.0
147
0.0
147
0.0
147
0.0
147
1.0
147
0.0
147
0.0
147
0.0
147
0.0
147
1.0
  0
MLEADERSTYLE
  5
16D5B
102
{ACAD_REACTORS
330
16D5A
102
}
330
16D5A
100
AcDbMLeaderStyle
179
     2
170
     2
171
     1
172
     0
 90
        2
 40
0.0
 41
0.0
173
     1
 91
-1056964608
340
11
 92
       -2
290
     1
 42
2.0
291
     1
 43
0.36
  3
Standard
 44
4.0
300

342
17
174
     1
178
     6
175
     1
176
     0
 93
-1056964608
 45
4.0
292
     0
297
     0
 46
4.0
 94
-1056964608
 47
1.0
 49
1.0
140
1.0
293
     1
141
0.0
294
     1
177
     0
142
1.0
295
     0
296
     0
143
0.125
271
     0
272
     9
273
     9
1001
ACAD_MLEADERVER
1070
     2
  0
MLINESTYLE
  5
1C
102
{ACAD_REACTORS
330
1B
102
}
330
1B
100
AcDbMlineStyle
  2
STANDARD
 70
     0
  3

 62
     0
 51
90.0
 52
90.0
 71
     2
 49
0.5
 62
   256
  6
BYLAYER
 49
-0.5
 62
   256
  6
BYLAYER
  0
ACDBPLACEHOLDER
  5
4EB
102
{ACAD_REACTORS
330
4EA
102
}
330
4EA
  0
SCALE
  5
16D49
102
{ACAD_REACTORS
330
16D48
102
}
330
16D48
100
AcDbScale
 70
     0
300
1:1
140
1.0
141
1.0
290
     1
  0
SCALE
  5
16D4A
102
{ACAD_REACTORS
330
16D48
102
}
330
16D48
100
AcDbScale
 70
     0
300
1:2
140
1.0
141
2.0
290
     0
  0
SCALE
  5
16D4B
102
{ACAD_REACTORS
330
16D48
102
}
330
16D48
100
AcDbScale
 70
     0
300
1:4
140
1.0
141
4.0
290
     0
  0
SCALE
  5
16D4C
102
{ACAD_REACTORS
330
16D48
102
}
330
16D48
100
AcDbScale
 70
     0
300
1:5
140
1.0
141
5.0
290
     0
  0
SCALE
  5
16D4D
102
{ACAD_REACTORS
330
16D48
102
}
330
16D48
100
AcDbScale
 70
     0
300
1:8
140
1.0
141
8.0
290
     0
  0
SCALE
  5
16D4E
102
{ACAD_REACTORS
330
16D48
102
}
330
16D48
100
AcDbScale
 70
     0
300
1:10
140
1.0
141
10.0
290
     0
  0
SCALE
  5
16D4F
102
{ACAD_REACTORS
330
16D48
102
}
330
16D48
100
AcDbScale
 70
     0
300
1:16
140
1.0
141
16.0
290
     0
  0
SCALE
  5
16D50
102
{ACAD_REACTORS
330
16D48
102
}
330
16D48
100
AcDbScale
 70
     0
300
1:20
140
1.0
141
20.0
290
     0
  0
SCALE
  5
16D51
102
{ACAD_REACTORS
330
16D48
102
}
330
16D48
100
AcDbScale
 70
     0
300
1:30
140
1.0
141
30.0
290
     0
  0
SCALE
  5
16D52
102
{ACAD_REACTORS
330
16D48
102
}
330
16D48
100
AcDbScale
 70
     0
300
1:40
140
1.0
141
40.0
290
     0
  0
SCALE
  5
16D53
102
{ACAD_REACTORS
330
16D48
102
}
330
16D48
100
AcDbScale
 70
     0
300
1:50
140
1.0
141
50.0
290
     0
  0
SCALE
  5
16D54
102
{ACAD_REACTORS
330
16D48
102
}
330
16D48
100
AcDbScale
 70
     0
300
1:100
140
1.0
141
100.0
290
     0
  0
SCALE
  5
16D55
102
{ACAD_REACTORS
330
16D48
102
}
330
16D48
100
AcDbScale
 70
     0
300
2:1
140
2.0
141
1.0
290
     0
  0
SCALE
  5
16D56
102
{ACAD_REACTORS
330
16D48
102
}
330
16D48
100
AcDbScale
 70
     0
300
4:1
140
4.0
141
1.0
290
     0
  0
SCALE
  5
16D57
102
{ACAD_REACTORS
330
16D48
102
}
330
16D48
100
AcDbScale
 70
     0
300
8:1
140
8.0
141
1.0
290
     0
  0
SCALE
  5
16D58
102
{ACAD_REACTORS
330
16D48
102
}
330
16D48
100
AcDbScale
 70
     0
300
10:1
140
10.0
141
1.0
290
     0
  0
SCALE
  5
16D59
102
{ACAD_REACTORS
330
16D48
102
}
330
16D48
100
AcDbScale
 70
     0
300
100:1
140
100.0
141
1.0
290
     0
  0
ACDBSECTIONVIEWSTYLE
  5
1017153
102
{ACAD_XDICTIONARY
360
101A673
102
}
102
{ACAD_REACTORS
330
1017152
102
}
330
1017152
100
AcDbModelDocViewStyle
 70
     0
  3
Metric50
290
     0
100
AcDbSectionViewStyle
 70
     0
 71
     0
 90
      102
 71
     1
340
4E7
 62
   256
 40
5.0
340
0
340
0
 62
   256
 40
5.0
300
I, O, Q, S, X, Z
 40
10.0
 90
        0
 40
2.5
 90
        0
 71
     2
340
13
 90
       25
 62
   256
340
13
 90
       50
 62
   256
 40
5.0
 40
2.5
 40
5.0
 71
     3
340
4E7
 62
   256
 40
5.0
 90
        0
 40
15.0
 90
        1
300
%<\AcVar ViewSectionStartId>%-%<\AcVar ViewSectionEndId>% (%<\AcVar ViewScale \f "%sn">%)
 71
     4
 62
   256
 62
   257
300
ANSI31
 40
1.0
 90
        0
290
     0
290
     0
 90
        6
 40
0.0
 40
1.570796326794896
 40
0.2617993877991494
 40
1.308996938995747
 40
-0.2617993877991494
 40
1.832595714594044
  0
TABLESTYLE
  5
2F44
102
{ACAD_XDICTIONARY
360
17107
102
}
102
{ACAD_REACTORS
330
2F43
102
}
330
2F43
100
AcDbTableStyle
280
     0
  3
Standard
 70
     0
 71
     0
 40
1.5
 41
1.5
280
     0
281
     0
  7
MX_NOTE_STANDARD
140
4.5
170
     2
 62
     0
 63
     7
283
     0
 90
        4
 91
        0
  1

274
    -2
284
     1
 64
     0
275
    -2
285
     1
 65
     0
276
    -2
286
     1
 66
     0
277
    -2
287
     1
 67
     0
278
    -2
288
     1
 68
     0
279
    -2
289
     1
 69
     0
  7
MX_NOTE_STANDARD
140
6.0
170
     5
 62
     0
 63
     7
283
     0
 90
        4
 91
        0
  1

274
    -2
284
     1
 64
     0
275
    -2
285
     1
 65
     0
276
    -2
286
     1
 66
     0
277
    -2
287
     1
 67
     0
278
    -2
288
     1
 68
     0
279
    -2
289
     1
 69
     0
  7
MX_NOTE_STANDARD
140
4.5
170
     5
 62
     0
 63
     7
283
     0
 90
        4
 91
        0
  1

274
    -2
284
     1
 64
     0
275
    -2
285
     1
 65
     0
276
    -2
286
     1
 66
     0
277
    -2
287
     1
 67
     0
278
    -2
288
     1
 68
     0
279
    -2
289
     1
 69
     0
  0
VISUALSTYLE
  5
16D35
102
{ACAD_XDICTIONARY
360
101A64D
102
}
102
{ACAD_REACTORS
330
16D2F
102
}
330
16D2F
100
AcDbVisualStyle
  2

 70
     4
177
     2
291
     0
 71
     0
176
     1
 72
     2
176
     1
 73
     0
176
     1
 90
        0
176
     1
 40
0.6
176
     1
 41
30.0
176
     1
 63
     7
176
     1
 74
     1
176
     1
 91
        4
176
     1
 64
     7
176
     1
 65
   257
176
     1
 75
     1
176
     1
175
     1
176
     1
 42
1.0
176
     1
 92
        0
176
     1
 66
   257
176
     1
 43
1.0
176
     1
 76
     1
176
     1
 77
     6
176
     1
 78
     2
176
     1
 67
     7
176
     1
 79
     5
176
     1
170
     0
176
     1
171
     0
176
     1
290
     0
176
     1
 93
        1
176
     1
 44
0.0
176
     1
173
     0
176
     1
1001
ACAD
1000
AcDbSavedByObjectVersion
1070
     0
  0
VISUALSTYLE
  5
16D34
102
{ACAD_XDICTIONARY
360
101A64B
102
}
102
{ACAD_REACTORS
330
16D2F
102
}
330
16D2F
100
AcDbVisualStyle
  2

 70
     7
177
     2
291
     1
 71
     1
176
     1
 72
     0
176
     1
 73
     1
176
     1
 90
        0
176
     1
 40
0.6
176
     1
 41
30.0
176
     1
 63
     7
176
     1
 74
     0
176
     1
 91
        4
176
     1
 64
     7
176
     1
 65
   257
176
     1
 75
     1
176
     1
175
     1
176
     1
 42
1.0
176
     1
 92
        8
176
     1
 66
     7
176
     1
 43
1.0
176
     1
 76
     1
176
     1
 77
     6
176
     1
 78
     2
176
     1
 67
     7
176
     1
 79
     5
176
     1
170
     0
176
     1
171
     0
176
     1
290
     0
176
     1
 93
        1
176
     1
 44
0.0
176
     1
173
     0
176
     1
1001
ACAD
1000
AcDbSavedByObjectVersion
1070
     0
  0
VISUALSTYLE
  5
16D3B
102
{ACAD_XDICTIONARY
360
101A659
102
}
102
{ACAD_REACTORS
330
16D2F
102
}
330
16D2F
100
AcDbVisualStyle
  2

 70
    12
177
     2
291
     1
 71
     2
176
     1
 72
     2
176
     1
 73
     0
176
     1
 90
        0
176
     1
 40
0.6
176
     1
 41
30.0
176
     1
 63
     7
176
     1
 74
     1
176
     1
 91
        4
176
     1
 64
     7
176
     1
 65
   257
176
     1
 75
     1
176
     1
175
     1
176
     1
 42
1.0
176
     1
 92
        8
176
     1
 66
     7
176
     1
 43
1.0
176
     1
 76
     1
176
     1
 77
     6
176
     1
 78
     2
176
     1
 67
     7
176
     1
 79
     5
176
     1
170
     0
176
     1
171
     0
176
     1
290
     0
176
     1
 93
        1
176
     1
 44
50.0
176
     1
173
     0
176
     1
1001
ACAD
1000
AcDbSavedByObjectVersion
1070
     0
  0
VISUALSTYLE
  5
16D3F
102
{ACAD_XDICTIONARY
360
101A661
102
}
102
{ACAD_REACTORS
330
16D2F
102
}
330
16D2F
100
AcDbVisualStyle
  2

 70
    16
177
     2
291
     1
 71
     2
176
     1
 72
     2
176
     1
 73
     3
176
     1
 90
        0
176
     1
 40
0.6
176
     1
 41
30.0
176
     1
 63
     8
176
     1
 74
     1
176
     1
 91
        4
176
     1
 64
     7
176
     1
 65
   257
176
     1
 75
     1
176
     1
175
     1
176
     1
 42
1.0
176
     1
 92
        8
176
     1
 66
     8
176
     1
 43
1.0
176
     1
 76
     1
176
     1
 77
     6
176
     1
 78
     2
176
     1
 67
     7
176
     1
 79
     5
176
     1
170
     0
176
     1
171
     0
176
     1
290
     0
176
     1
 93
        1
176
     1
 44
0.0
176
     1
173
     0
176
     1
1001
ACAD
1000
AcDbSavedByObjectVersion
1070
     0
  0
VISUALSTYLE
  5
16D38
102
{ACAD_XDICTIONARY
360
101A653
102
}
102
{ACAD_REACTORS
330
16D2F
102
}
330
16D2F
100
AcDbVisualStyle
  2

 70
     9
177
     2
291
     0
 71
     3
176
     1
 72
     2
176
     1
 73
     0
176
     1
 90
        0
176
     1
 40
0.6
176
     1
 41
30.0
176
     1
 63
     7
176
     1
 74
     2
176
     1
 91
        2
176
     1
 64
     7
176
     1
 65
   257
176
     1
 75
     1
176
     1
175
     1
176
     1
 42
179.0
176
     1
 92
        8
176
     1
 66
     7
176
     1
 43
1.0
176
     1
 76
     1
176
     1
 77
     6
176
     1
 78
     2
176
     1
 67
     7
176
     1
 79
     3
176
     1
170
     0
176
     1
171
     0
176
     1
290
     0
176
     1
 93
        1
176
     1
 44
0.0
176
     1
173
     0
176
     1
1001
ACAD
1000
AcDbSavedByObjectVersion
1070
     0
  0
VISUALSTYLE
  5
16D3A
102
{ACAD_XDICTIONARY
360
101A657
102
}
102
{ACAD_REACTORS
330
16D2F
102
}
330
16D2F
100
AcDbVisualStyle
  2

 70
    11
177
     2
291
     1
 71
     2
176
     1
 72
     2
176
     1
 73
     0
176
     1
 90
        0
176
     1
 40
0.6
176
     1
 41
30.0
176
     1
 63
     7
176
     1
 74
     1
176
     1
 91
        4
176
     1
 64
     7
176
     1
 65
   257
176
     1
 75
     1
176
     1
175
     1
176
     1
 42
1.0
176
     1
 92
        8
176
     1
 66
     7
176
     1
 43
1.0
176
     1
 76
     1
176
     1
 77
     6
176
     1
 78
     2
176
     1
 67
     7
176
     1
 79
     5
176
     1
170
     0
176
     1
171
     0
176
     1
290
     0
176
     1
 93
        1
176
     1
 44
-50.0
176
     1
173
     0
176
     1
1001
ACAD
1000
AcDbSavedByObjectVersion
1070
     0
  0
VISUALSTYLE
  5
16D47
102
{ACAD_XDICTIONARY
360
101A671
102
}
102
{ACAD_REACTORS
330
16D2F
102
}
330
16D2F
100
AcDbVisualStyle
  2

 70
    22
177
     2
291
     1
 71
     2
176
     0
 72
     2
176
     0
 73
     0
176
     0
 90
        0
176
     0
 40
0.6
176
     0
 41
30.0
176
     0
 63
     7
176
     0
 74
     1
176
     0
 91
        4
176
     0
 64
     7
176
     0
 65
   257
176
     0
 75
     1
176
     0
175
     1
176
     0
 42
1.0
176
     0
 92
        8
176
     2
 66
     7
176
     0
 43
1.0
176
     0
 76
     1
176
     0
 77
     6
176
     0
 78
     2
176
     0
 67
     7
176
     0
 79
     5
176
     0
170
     0
176
     0
171
     0
176
     0
290
     0
176
     0
 93
        1
176
     0
 44
0.0
176
     0
173
     0
176
     0
1001
ACAD
1000
AcDbSavedByObjectVersion
1070
     0
  0
VISUALSTYLE
  5
16D3E
102
{ACAD_XDICTIONARY
360
101A65F
102
}
102
{ACAD_REACTORS
330
16D2F
102
}
330
16D2F
100
AcDbVisualStyle
  2

 70
    15
177
     2
291
     1
 71
     2
176
     1
 72
     2
176
     1
 73
     0
176
     1
 90
        0
176
     1
 40
0.6
176
     1
 41
30.0
176
     1
 63
     7
176
     1
 74
     1
176
     1
 91
        4
176
     1
 64
     7
176
     1
 65
   257
176
     1
 75
     1
176
     1
175
     1
176
     1
 42
1.0
176
     1
 92
        8
176
     1
 66
     7
176
     1
 43
1.0
176
     1
 76
     1
176
     1
 77
     6
176
     1
 78
     2
176
     1
 67
     7
176
     1
 79
     5
176
     1
170
     0
176
     1
171
     0
176
     1
290
     0
176
     1
 93
        1
176
     1
 44
0.0
176
     1
173
     0
176
     1
1001
ACAD
1000
AcDbSavedByObjectVersion
1070
     0
  0
VISUALSTYLE
  5
16D30
102
{ACAD_XDICTIONARY
360
101A643
102
}
102
{ACAD_REACTORS
330
16D2F
102
}
330
16D2F
100
AcDbVisualStyle
  2

 70
     0
177
     2
291
     1
 71
     2
176
     1
 72
     1
176
     1
 73
     1
176
     1
 90
        2
176
     1
 40
0.6
176
     1
 41
30.0
176
     1
 63
     7
176
     1
 74
     0
176
     1
 91
        0
176
     1
 64
     7
176
     1
 65
   257
176
     1
 75
     1
176
     1
175
     1
176
     1
 42
1.0
176
     1
 92
        8
176
     1
 66
     7
176
     1
 43
1.0
176
     1
 76
     1
176
     1
 77
     6
176
     1
 78
     2
176
     1
 67
     7
176
     1
 79
     5
176
     1
170
     0
176
     1
171
     0
176
     1
290
     0
176
     1
 93
       13
176
     1
 44
0.0
176
     1
173
     0
176
     1
1001
ACAD
1000
AcDbSavedByObjectVersion
1070
     0
  0
VISUALSTYLE
  5
16D31
102
{ACAD_XDICTIONARY
360
101A645
102
}
102
{ACAD_REACTORS
330
16D2F
102
}
330
16D2F
100
AcDbVisualStyle
  2

 70
     1
177
     2
291
     1
 71
     2
176
     1
 72
     1
176
     1
 73
     1
176
     1
 90
        2
176
     1
 40
0.6
176
     1
 41
30.0
176
     1
 63
     7
176
     1
 74
     1
176
     1
 91
        0
176
     1
 64
     7
176
     1
 65
   257
176
     1
 75
     1
176
     1
175
     1
176
     1
 42
1.0
176
     1
 92
        0
176
     1
 66
   257
176
     1
 43
1.0
176
     1
 76
     1
176
     1
 77
     6
176
     1
 78
     2
176
     1
 67
     7
176
     1
 79
     5
176
     1
170
     0
176
     1
171
     0
176
     1
290
     0
176
     1
 93
       13
176
     1
 44
0.0
176
     1
173
     0
176
     1
1001
ACAD
1000
AcDbSavedByObjectVersion
1070
     0
  0
VISUALSTYLE
  5
16D32
102
{ACAD_XDICTIONARY
360
101A647
102
}
102
{ACAD_REACTORS
330
16D2F
102
}
330
16D2F
100
AcDbVisualStyle
  2

 70
     2
177
     2
291
     1
 71
     2
176
     1
 72
     2
176
     1
 73
     1
176
     1
 90
        2
176
     1
 40
0.6
176
     1
 41
30.0
176
     1
 63
     7
176
     1
 74
     0
176
     1
 91
        0
176
     1
 64
     7
176
     1
 65
   257
176
     1
 75
     1
176
     1
175
     1
176
     1
 42
1.0
176
     1
 92
        0
176
     1
 66
     7
176
     1
 43
1.0
176
     1
 76
     1
176
     1
 77
     6
176
     1
 78
     2
176
     1
 67
     7
176
     1
 79
     5
176
     1
170
     0
176
     1
171
     0
176
     1
290
     0
176
     1
 93
       13
176
     1
 44
0.0
176
     1
173
     0
176
     1
1001
ACAD
1000
AcDbSavedByObjectVersion
1070
     0
  0
VISUALSTYLE
  5
16D33
102
{ACAD_XDICTIONARY
360
101A649
102
}
102
{ACAD_REACTORS
330
16D2F
102
}
330
16D2F
100
AcDbVisualStyle
  2

 70
     3
177
     2
291
     1
 71
     2
176
     1
 72
     2
176
     1
 73
     1
176
     1
 90
        2
176
     1
 40
0.6
176
     1
 41
30.0
176
     1
 63
     7
176
     1
 74
     1
176
     1
 91
        0
176
     1
 64
     7
176
     1
 65
   257
176
     1
 75
     1
176
     1
175
     1
176
     1
 42
1.0
176
     1
 92
        0
176
     1
 66
   257
176
     1
 43
1.0
176
     1
 76
     1
176
     1
 77
     6
176
     1
 78
     2
176
     1
 67
     7
176
     1
 79
     5
176
     1
170
     0
176
     1
171
     0
176
     1
290
     0
176
     1
 93
       13
176
     1
 44
0.0
176
     1
173
     0
176
     1
1001
ACAD
1000
AcDbSavedByObjectVersion
1070
     0
  0
VISUALSTYLE
  5
16D37
102
{ACAD_XDICTIONARY
360
101A651
102
}
102
{ACAD_REACTORS
330
16D2F
102
}
330
16D2F
100
AcDbVisualStyle
  2

 70
     6
177
     2
291
     0
 71
     1
176
     1
 72
     2
176
     1
 73
     2
176
     1
 90
        0
176
     1
 40
0.6
176
     1
 41
30.0
176
     1
 63
     7
176
     1
 74
     2
176
     1
 91
        2
176
     1
 64
     7
176
     1
 65
   257
176
     1
 75
     2
176
     1
175
     1
176
     1
 42
40.0
176
     1
 92
        0
176
     1
 66
   257
176
     1
 43
1.0
176
     1
 76
     1
176
     1
 77
     6
176
     1
 78
     2
176
     1
 67
     7
176
     1
 79
     3
176
     1
170
     0
176
     1
171
     0
176
     1
290
     0
176
     1
 93
        1
176
     1
 44
0.0
176
     1
173
     0
176
     1
1001
ACAD
1000
AcDbSavedByObjectVersion
1070
     0
  0
VISUALSTYLE
  5
16D45
102
{ACAD_XDICTIONARY
360
101A66D
102
}
102
{ACAD_REACTORS
330
16D2F
102
}
330
16D2F
100
AcDbVisualStyle
  2

 70
    20
177
     2
291
     1
 71
     2
176
     0
 72
     2
176
     0
 73
     0
176
     0
 90
        0
176
     0
 40
0.6
176
     0
 41
30.0
176
     0
 63
     7
176
     0
 74
     1
176
     0
 91
        4
176
     0
 64
     7
176
     0
 65
   257
176
     0
 75
     1
176
     0
175
     1
176
     0
 42
1.0
176
     0
 92
       10
176
     2
 66
     7
176
     0
 43
1.0
176
     0
 76
     1
176
     0
 77
     6
176
     0
 78
     2
176
     0
 67
     7
176
     0
 79
     5
176
     0
170
     0
176
     0
171
     0
176
     0
290
     0
176
     0
 93
        1
176
     0
 44
0.0
176
     0
173
     0
176
     0
1001
ACAD
1000
AcDbSavedByObjectVersion
1070
     0
  0
VISUALSTYLE
  5
16D3D
102
{ACAD_XDICTIONARY
360
101A65D
102
}
102
{ACAD_REACTORS
330
16D2F
102
}
330
16D2F
100
AcDbVisualStyle
  2

 70
    14
177
     2
291
     1
 71
     2
176
     1
 72
     2
176
     1
 73
     0
176
     1
 90
        0
176
     1
 40
0.6
176
     1
 41
30.0
176
     1
 63
     7
176
     1
 74
     1
176
     1
 91
        4
176
     1
 64
     7
176
     1
 65
   257
176
     1
 75
     7
176
     1
175
     7
176
     1
 42
1.0
176
     1
 92
        8
176
     1
 66
     7
176
     1
 43
1.0
176
     1
 76
     1
176
     1
 77
     6
176
     1
 78
     2
176
     1
 67
     7
176
     1
 79
     5
176
     1
170
     0
176
     1
171
     0
176
     1
290
     0
176
     1
 93
        1
176
     1
 44
0.0
176
     1
173
     0
176
     1
1001
ACAD
1000
AcDbSavedByObjectVersion
1070
     0
  0
VISUALSTYLE
  5
16D46
102
{ACAD_XDICTIONARY
360
101A66F
102
}
102
{ACAD_REACTORS
330
16D2F
102
}
330
16D2F
100
AcDbVisualStyle
  2

 70
    21
177
     2
291
     1
 71
     2
176
     0
 72
     2
176
     0
 73
     0
176
     0
 90
        0
176
     0
 40
0.6
176
     0
 41
30.0
176
     0
 63
     7
176
     0
 74
     1
176
     0
 91
        4
176
     0
 64
     7
176
     0
 65
   257
176
     0
 75
     1
176
     0
175
     1
176
     0
 42
1.0
176
     0
 92
        9
176
     2
 66
     7
176
     0
 43
1.0
176
     0
 76
     1
176
     0
 77
     6
176
     0
 78
     2
176
     0
 67
     7
176
     0
 79
     5
176
     0
170
     0
176
     0
171
     0
176
     0
290
     0
176
     0
 93
        1
176
     0
 44
0.0
176
     0
173
     0
176
     0
1001
ACAD
1000
AcDbSavedByObjectVersion
1070
     0
  0
VISUALSTYLE
  5
16D39
102
{ACAD_XDICTIONARY
360
101A655
102
}
102
{ACAD_REACTORS
330
16D2F
102
}
330
16D2F
100
AcDbVisualStyle
  2

 70
     8
177
     2
291
     0
 71
     2
176
     1
 72
     3
176
     1
 73
     0
176
     1
 90
        2
176
     1
 40
0.6
176
     1
 41
30.0
176
     1
 63
     7
176
     1
 74
     0
176
     1
 91
        0
176
     1
 64
     7
176
     1
 65
   257
176
     1
 75
     1
176
     1
175
     1
176
     1
 42
1.0
176
     1
 92
        8
176
     1
 66
   257
176
     1
 43
1.0
176
     1
 76
     1
176
     1
 77
     6
176
     1
 78
     2
176
     1
 67
     7
176
     1
 79
     3
176
     1
170
     0
176
     1
171
     0
176
     1
290
     0
176
     1
 93
       13
176
     1
 44
0.0
176
     1
173
     0
176
     1
1001
ACAD
1000
AcDbSavedByObjectVersion
1070
     0
  0
VISUALSTYLE
  5
16D44
102
{ACAD_XDICTIONARY
360
101A66B
102
}
102
{ACAD_REACTORS
330
16D2F
102
}
330
16D2F
100
AcDbVisualStyle
  2

 70
    27
177
     2
291
     0
 71
     2
176
     1
 72
     2
176
     1
 73
     1
176
     1
 90
        2
176
     1
 40
0.6
176
     1
 41
30.0
176
     1
 63
     7
176
     1
 74
     0
176
     1
 91
        4
176
     1
 64
     7
176
     1
 65
   257
176
     1
 75
     1
176
     1
175
     1
176
     1
 42
1.0
176
     1
 92
        8
176
     1
 66
   257
176
     1
 43
1.0
176
     1
 76
     1
176
     1
 77
     6
176
     1
 78
     2
176
     1
 67
     8
176
     1
 79
     3
176
     1
170
     0
176
     1
171
     0
176
     1
290
     0
176
     1
 93
        5
176
     1
 44
0.0
176
     1
173
     0
176
     1
1001
ACAD
1000
AcDbSavedByObjectVersion
1070
     0
  0
VISUALSTYLE
  5
16D43
102
{ACAD_XDICTIONARY
360
101A669
102
}
102
{ACAD_REACTORS
330
16D2F
102
}
330
16D2F
100
AcDbVisualStyle
  2

 70
    26
177
     2
291
     0
 71
     2
176
     1
 72
     2
176
     1
 73
     1
176
     1
 90
        2
176
     1
 40
0.6
176
     1
 41
30.0
176
     1
 63
     7
176
     1
 74
     1
176
     1
 91
        2
176
     1
 64
     7
176
     1
 65
   257
176
     1
 75
     2
176
     1
175
     1
176
     1
 42
1.0
176
     1
 92
        8
176
     1
 66
   257
176
     1
 43
1.0
176
     1
 76
     1
176
     1
 77
     6
176
     1
 78
     2
176
     1
 67
     7
176
     1
 79
     3
176
     1
170
     0
176
     1
171
     0
176
     1
290
     0
176
     1
 93
        5
176
     1
 44
0.0
176
     1
173
     0
176
     1
1001
ACAD
1000
AcDbSavedByObjectVersion
1070
     0
  0
VISUALSTYLE
  5
16D40
102
{ACAD_XDICTIONARY
360
101A663
102
}
102
{ACAD_REACTORS
330
16D2F
102
}
330
16D2F
100
AcDbVisualStyle
  2

 70
    23
177
     2
291
     0
 71
     2
176
     1
 72
     2
176
     1
 73
     3
176
     1
 90
        0
176
     1
 40
0.6
176
     1
 41
30.0
176
     1
 63
     7
176
     1
 74
     2
176
     1
 91
        2
176
     1
 64
     7
176
     1
 65
     7
176
     1
 75
     1
176
     1
175
     1
176
     1
 42
40.0
176
     1
 92
        8
176
     1
 66
     7
176
     1
 43
1.0
176
     1
 76
     1
176
     1
 77
     6
176
     1
 78
     2
176
     1
 67
     7
176
     1
 79
     3
176
     1
170
     0
176
     1
171
     0
176
     1
290
     0
176
     1
 93
        1
176
     1
 44
0.0
176
     1
173
     0
176
     1
1001
ACAD
1000
AcDbSavedByObjectVersion
1070
     0
  0
VISUALSTYLE
  5
16D41
102
{ACAD_XDICTIONARY
360
101A665
102
}
102
{ACAD_REACTORS
330
16D2F
102
}
330
16D2F
100
AcDbVisualStyle
  2

 70
    24
177
     2
291
     0
 71
     1
176
     1
 72
     2
176
     1
 73
     2
176
     1
 90
        0
176
     1
 40
0.6
176
     1
 41
30.0
176
     1
 63
     7
176
     1
 74
     2
176
     1
 91
        2
176
     1
 64
     7
176
     1
 65
     7
176
     1
 75
     1
176
     1
175
     1
176
     1
 42
40.0
176
     1
 92
       11
176
     1
 66
     7
176
     1
 43
1.0
176
     1
 76
     1
176
     1
 77
     6
176
     1
 78
     2
176
     1
 67
     7
176
     1
 79
     6
176
     1
170
     0
176
     1
171
     0
176
     1
290
     0
176
     1
 93
        1
176
     1
 44
0.0
176
     1
173
     0
176
     1
1001
ACAD
1000
AcDbSavedByObjectVersion
1070
     0
  0
VISUALSTYLE
  5
16D3C
102
{ACAD_XDICTIONARY
360
101A65B
102
}
102
{ACAD_REACTORS
330
16D2F
102
}
330
16D2F
100
AcDbVisualStyle
  2

 70
    13
177
     2
291
     1
 71
     2
176
     1
 72
     2
176
     1
 73
     0
176
     1
 90
        0
176
     1
 40
0.6
176
     1
 41
30.0
176
     1
 63
     7
176
     1
 74
     1
176
     1
 91
        4
176
     1
 64
     7
176
     1
 65
   257
176
     1
 75
     1
176
     1
175
     1
176
     1
 42
1.0
176
     1
 92
       12
176
     1
 66
     7
176
     1
 43
1.0
176
     1
 76
     1
176
     1
 77
     6
176
     1
 78
     2
176
     1
 67
     7
176
     1
 79
     5
176
     1
170
     0
176
     1
171
     0
176
     1
290
     0
176
     1
 93
        1
176
     1
 44
0.0
176
     1
173
     0
176
     1
1001
ACAD
1000
AcDbSavedByObjectVersion
1070
     0
  0
VISUALSTYLE
  5
16D36
102
{ACAD_XDICTIONARY
360
101A64F
102
}
102
{ACAD_REACTORS
330
16D2F
102
}
330
16D2F
100
AcDbVisualStyle
  2

 70
     5
177
     2
291
     0
 71
     0
176
     1
 72
     2
176
     1
 73
     0
176
     1
 90
        0
176
     1
 40
0.6
176
     1
 41
30.0
176
     1
 63
     7
176
     1
 74
     1
176
     1
 91
        4
176
     1
 64
     7
176
     1
 65
   257
176
     1
 75
     1
176
     1
175
     1
176
     1
 42
1.0
176
     1
 92
        0
176
     1
 66
   257
176
     1
 43
1.0
176
     1
 76
     1
176
     1
 77
     6
176
     1
 78
     2
176
     1
 67
     7
176
     1
 79
     3
176
     1
170
     0
176
     1
171
     0
176
     1
290
     0
176
     1
 93
        1
176
     1
 44
0.0
176
     1
173
     0
176
     1
1001
ACAD
1000
AcDbSavedByObjectVersion
1070
     0
  0
VISUALSTYLE
  5
16D42
102
{ACAD_XDICTIONARY
360
101A667
102
}
102
{ACAD_REACTORS
330
16D2F
102
}
330
16D2F
100
AcDbVisualStyle
  2

 70
    25
177
     2
291
     0
 71
     2
176
     1
 72
     2
176
     1
 73
     1
176
     1
 90
        1
176
     1
 40
0.5
176
     1
 41
30.0
176
     1
 63
     7
176
     1
 74
     1
176
     1
 91
        0
176
     1
 64
     7
176
     1
 65
   257
176
     1
 75
     1
176
     1
175
     1
176
     1
 42
1.0
176
     1
 92
        8
176
     1
 66
     7
176
     1
 43
1.0
176
     1
 76
     1
176
     1
 77
     6
176
     1
 78
     2
176
     1
 67
     7
176
     1
 79
     3
176
     1
170
     0
176
     1
171
     0
176
     1
290
     0
176
     1
 93
       13
176
     1
 44
0.0
176
     1
173
     0
176
     1
1001
ACAD
1000
AcDbSavedByObjectVersion
1070
     0
  0
DICTIONARYVAR
  5
17103
102
{ACAD_REACTORS
330
334C
102
}
330
334C
100
DictionaryVariables
280
     0
  1
1:1
  0
DICTIONARYVAR
  5
17102
102
{ACAD_REACTORS
330
334C
102
}
330
334C
100
DictionaryVariables
280
     0
  1
STANDARD
  0
DICTIONARYVAR
  5
334D
102
{ACAD_REACTORS
330
334C
102
}
330
334C
100
DictionaryVariables
280
     0
  1
STANDARD
  0
DICTIONARYVAR
  5
1017323
102
{ACAD_REACTORS
330
334C
102
}
330
334C
100
DictionaryVariables
280
     0
  1
Metric50
  0
DICTIONARYVAR
  5
1017324
102
{ACAD_REACTORS
330
334C
102
}
330
334C
100
DictionaryVariables
280
     0
  1
Metric50
  0
DICTIONARYVAR
  5
334E
102
{ACAD_REACTORS
330
334C
102
}
330
334C
100
DictionaryVariables
280
     0
  1
1
  0
DICTIONARYVAR
  5
17105
102
{ACAD_REACTORS
330
334C
102
}
330
334C
100
DictionaryVariables
280
     0
  1
0
  0
DICTIONARYVAR
  5
1017327
102
{ACAD_REACTORS
330
334C
102
}
330
334C
100
DictionaryVariables
280
     0
  1
1
  0
DICTIONARYVAR
  5
1017328
102
{ACAD_REACTORS
330
334C
102
}
330
334C
100
DictionaryVariables
280
     0
  1
15
  0
DICTIONARYVAR
  5
1017326
102
{ACAD_REACTORS
330
334C
102
}
330
334C
100
DictionaryVariables
280
     0
  1
0
  0
DICTIONARYVAR
  5
1017325
102
{ACAD_REACTORS
330
334C
102
}
330
334C
100
DictionaryVariables
280
     0
  1
0
  0
DICTIONARYVAR
  5
334F
102
{ACAD_REACTORS
330
334C
102
}
330
334C
100
DictionaryVariables
280
     0
  1

  0
DICTIONARYVAR
  5
17104
102
{ACAD_REACTORS
330
334C
102
}
330
334C
100
DictionaryVariables
280
     0
  1
127
  0
DICTIONARY
  5
101A642
102
{ACAD_REACTORS
330
101A640
102
}
330
101A640
100
AcDbDictionary
281
     1
  0
DICTIONARY
  5
101A641
102
{ACAD_REACTORS
330
101A640
102
}
330
101A640
100
AcDbDictionary
281
     1
  3
1115494448
350
101A63B
  3
1115494464
350
101A63C
  3
1115494480
350
101A63D
  3
1115494496
350
101A63E
  3
1115494512
350
101A63F
  0
DICTIONARY
  5
101A675
330
1017155
100
AcDbDictionary
280
     1
281
     1
  3
ACAD_XREC_ROUNDTRIP
360
101A676
  0
DICTIONARY
  5
16D20
330
16D1F
100
AcDbDictionary
280
     1
281
     1
  3
ACAD_XREC_ROUNDTRIP
360
1711B
  3
BUMPTILE
360
16D22
  3
DIFFUSETILE
360
16D21
  3
OPACITYTILE
360
16D25
  3
REFLECTIONTILE
360
16D24
  3
REFRACTIONTILE
360
16D26
  3
SPECULARTILE
360
16D23
  0
DICTIONARY
  5
16D18
330
16D17
100
AcDbDictionary
280
     1
281
     1
  3
ACAD_XREC_ROUNDTRIP
360
1711A
  3
BUMPTILE
360
16D1A
  3
DIFFUSETILE
360
16D19
  3
OPACITYTILE
360
16D1D
  3
REFLECTIONTILE
360
16D1C
  3
REFRACTIONTILE
360
16D1E
  3
SPECULARTILE
360
16D1B
  0
DICTIONARY
  5
16D28
330
16D27
100
AcDbDictionary
280
     1
281
     1
  3
ACAD_XREC_ROUNDTRIP
360
1711C
  3
BUMPTILE
360
16D2A
  3
DIFFUSETILE
360
16D29
  3
OPACITYTILE
360
16D2D
  3
REFLECTIONTILE
360
16D2C
  3
REFRACTIONTILE
360
16D2E
  3
SPECULARTILE
360
16D2B
  0
DICTIONARY
  5
101A673
330
1017153
100
AcDbDictionary
280
     1
281
     1
  3
ACAD_XREC_ROUNDTRIP
360
101A674
  0
DICTIONARY
  5
17107
330
2F44
100
AcDbDictionary
280
     1
281
     1
  3
ACAD_ROUNDTRIP_2008_TABLESTYLE_CELLSTYLEMAP
360
101A639
  0
DICTIONARY
  5
101A64D
330
16D35
100
AcDbDictionary
280
     1
281
     1
  3
ACAD_XREC_ROUNDTRIP
360
101A64E
  0
DICTIONARY
  5
101A64B
330
16D34
100
AcDbDictionary
280
     1
281
     1
  3
ACAD_XREC_ROUNDTRIP
360
101A64C
  0
DICTIONARY
  5
101A659
330
16D3B
100
AcDbDictionary
280
     1
281
     1
  3
ACAD_XREC_ROUNDTRIP
360
101A65A
  0
DICTIONARY
  5
101A661
330
16D3F
100
AcDbDictionary
280
     1
281
     1
  3
ACAD_XREC_ROUNDTRIP
360
101A662
  0
DICTIONARY
  5
101A653
330
16D38
100
AcDbDictionary
280
     1
281
     1
  3
ACAD_XREC_ROUNDTRIP
360
101A654
  0
DICTIONARY
  5
101A657
330
16D3A
100
AcDbDictionary
280
     1
281
     1
  3
ACAD_XREC_ROUNDTRIP
360
101A658
  0
DICTIONARY
  5
101A671
330
16D47
100
AcDbDictionary
280
     1
281
     1
  3
ACAD_XREC_ROUNDTRIP
360
101A672
  0
DICTIONARY
  5
101A65F
330
16D3E
100
AcDbDictionary
280
     1
281
     1
  3
ACAD_XREC_ROUNDTRIP
360
101A660
  0
DICTIONARY
  5
101A643
330
16D30
100
AcDbDictionary
280
     1
281
     1
  3
ACAD_XREC_ROUNDTRIP
360
101A644
  0
DICTIONARY
  5
101A645
330
16D31
100
AcDbDictionary
280
     1
281
     1
  3
ACAD_XREC_ROUNDTRIP
360
101A646
  0
DICTIONARY
  5
101A647
330
16D32
100
AcDbDictionary
280
     1
281
     1
  3
ACAD_XREC_ROUNDTRIP
360
101A648
  0
DICTIONARY
  5
101A649
330
16D33
100
AcDbDictionary
280
     1
281
     1
  3
ACAD_XREC_ROUNDTRIP
360
101A64A
  0
DICTIONARY
  5
101A651
330
16D37
100
AcDbDictionary
280
     1
281
     1
  3
ACAD_XREC_ROUNDTRIP
360
101A652
  0
DICTIONARY
  5
101A66D
330
16D45
100
AcDbDictionary
280
     1
281
     1
  3
ACAD_XREC_ROUNDTRIP
360
101A66E
  0
DICTIONARY
  5
101A65D
330
16D3D
100
AcDbDictionary
280
     1
281
     1
  3
ACAD_XREC_ROUNDTRIP
360
101A65E
  0
DICTIONARY
  5
101A66F
330
16D46
100
AcDbDictionary
280
     1
281
     1
  3
ACAD_XREC_ROUNDTRIP
360
101A670
  0
DICTIONARY
  5
101A655
330
16D39
100
AcDbDictionary
280
     1
281
     1
  3
ACAD_XREC_ROUNDTRIP
360
101A656
  0
DICTIONARY
  5
101A66B
330
16D44
100
AcDbDictionary
280
     1
281
     1
  3
ACAD_XREC_ROUNDTRIP
360
101A66C
  0
DICTIONARY
  5
101A669
330
16D43
100
AcDbDictionary
280
     1
281
     1
  3
ACAD_XREC_ROUNDTRIP
360
101A66A
  0
DICTIONARY
  5
101A663
330
16D40
100
AcDbDictionary
280
     1
281
     1
  3
ACAD_XREC_ROUNDTRIP
360
101A664
  0
DICTIONARY
  5
101A665
330
16D41
100
AcDbDictionary
280
     1
281
     1
  3
ACAD_XREC_ROUNDTRIP
360
101A666
  0
DICTIONARY
  5
101A65B
330
16D3C
100
AcDbDictionary
280
     1
281
     1
  3
ACAD_XREC_ROUNDTRIP
360
101A65C
  0
DICTIONARY
  5
101A64F
330
16D36
100
AcDbDictionary
280
     1
281
     1
  3
ACAD_XREC_ROUNDTRIP
360
101A650
  0
DICTIONARY
  5
101A667
330
16D42
100
AcDbDictionary
280
     1
281
     1
  3
ACAD_XREC_ROUNDTRIP
360
101A668
  0
XRECORD
  5
101A63B
102
{ACAD_REACTORS
330
101A641
102
}
330
101A641
100
AcDbXrecord
280
     1
  1
AcDb_Thumbnail_Schema
102
{ATTRRECORD
341
101A63C
  2
AcDbDs::TreatedAsObjectData
280
     1
291
     1
102
ATTRRECORD}
102
{ATTRRECORD
341
101A63D
  2
AcDbDs::Legacy
280
     1
291
     1
102
ATTRRECORD}
  2
AcDbDs::ID
280
    10
 91
        8
102
{ATTRRECORD
341
101A63E
  2
AcDs:Indexable
280
     1
291
     1
102
ATTRRECORD}
102
{ATTRRECORD
341
101A63F
  2
AcDbDs::HandleAttribute
280
     7
282
     1
102
ATTRRECORD}
  2
Thumbnail_Data
280
    15
 91
        0
  0
XRECORD
  5
101A63C
102
{ACAD_REACTORS
330
101A641
102
}
330
101A641
100
AcDbXrecord
280
     1
  1
AcDbDs::TreatedAsObjectDataSchema
  2
AcDbDs::TreatedAsObjectData
280
     1
 91
        0
  0
XRECORD
  5
101A63D
102
{ACAD_REACTORS
330
101A641
102
}
330
101A641
100
AcDbXrecord
280
     1
  1
AcDbDs::LegacySchema
  2
AcDbDs::Legacy
280
     1
 91
        0
  0
XRECORD
  5
101A63E
102
{ACAD_REACTORS
330
101A641
102
}
330
101A641
100
AcDbXrecord
280
     1
  1
AcDbDs::IndexedPropertySchema
  2
AcDs:Indexable
280
     1
 91
        0
  0
XRECORD
  5
101A63F
102
{ACAD_REACTORS
330
101A641
102
}
330
101A641
100
AcDbXrecord
280
     1
  1
AcDbDs::HandleAttributeSchema
  2
AcDbDs::HandleAttribute
280
     7
 91
        1
284
     1
  0
XRECORD
  5
101A676
102
{ACAD_REACTORS
330
101A675
102
}
330
101A675
100
AcDbXrecord
280
     1
102
DISPLAYNAME
  1
Metric50
102
FLAGS
 90
        0
  0
XRECORD
  5
1711B
102
{ACAD_REACTORS
330
16D20
102
}
330
16D20
100
AcDbXrecord
280
     1
102
MATERIAL
148
0.0
149
0.0
149
0.0
 93
        0
 94
      127
282
     0
 72
     0
 77
     0
171
     0
175
     0
179
     0
273
     0
  0
XRECORD
  5
16D22
102
{ACAD_REACTORS
330
16D20
102
}
330
16D20
100
AcDbXrecord
280
     1
270
     1
271
     1
  0
XRECORD
  5
16D21
102
{ACAD_REACTORS
330
16D20
102
}
330
16D20
100
AcDbXrecord
280
     1
270
     1
271
     1
  0
XRECORD
  5
16D25
102
{ACAD_REACTORS
330
16D20
102
}
330
16D20
100
AcDbXrecord
280
     1
270
     1
271
     1
  0
XRECORD
  5
16D24
102
{ACAD_REACTORS
330
16D20
102
}
330
16D20
100
AcDbXrecord
280
     1
270
     1
271
     1
  0
XRECORD
  5
16D26
102
{ACAD_REACTORS
330
16D20
102
}
330
16D20
100
AcDbXrecord
280
     1
270
     1
271
     1
  0
XRECORD
  5
16D23
102
{ACAD_REACTORS
330
16D20
102
}
330
16D20
100
AcDbXrecord
280
     1
270
     1
271
     1
  0
XRECORD
  5
1711A
102
{ACAD_REACTORS
330
16D18
102
}
330
16D18
100
AcDbXrecord
280
     1
102
MATERIAL
148
0.0
149
0.0
149
0.0
 93
        0
 94
      127
282
     0
 72
     0
 77
     0
171
     0
175
     0
179
     0
273
     0
  0
XRECORD
  5
16D1A
102
{ACAD_REACTORS
330
16D18
102
}
330
16D18
100
AcDbXrecord
280
     1
270
     1
271
     1
  0
XRECORD
  5
16D19
102
{ACAD_REACTORS
330
16D18
102
}
330
16D18
100
AcDbXrecord
280
     1
270
     1
271
     1
  0
XRECORD
  5
16D1D
102
{ACAD_REACTORS
330
16D18
102
}
330
16D18
100
AcDbXrecord
280
     1
270
     1
271
     1
  0
XRECORD
  5
16D1C
102
{ACAD_REACTORS
330
16D18
102
}
330
16D18
100
AcDbXrecord
280
     1
270
     1
271
     1
  0
XRECORD
  5
16D1E
102
{ACAD_REACTORS
330
16D18
102
}
330
16D18
100
AcDbXrecord
280
     1
270
     1
271
     1
  0
XRECORD
  5
16D1B
102
{ACAD_REACTORS
330
16D18
102
}
330
16D18
100
AcDbXrecord
280
     1
270
     1
271
     1
  0
XRECORD
  5
1711C
102
{ACAD_REACTORS
330
16D28
102
}
330
16D28
100
AcDbXrecord
280
     1
102
MATERIAL
148
0.0
149
0.0
149
0.0
 93
        0
 94
      127
282
     0
 72
     0
 77
     0
171
     0
175
     0
179
     0
273
     0
  0
XRECORD
  5
16D2A
102
{ACAD_REACTORS
330
16D28
102
}
330
16D28
100
AcDbXrecord
280
     1
270
     1
271
     1
  0
XRECORD
  5
16D29
102
{ACAD_REACTORS
330
16D28
102
}
330
16D28
100
AcDbXrecord
280
     1
270
     1
271
     1
  0
XRECORD
  5
16D2D
102
{ACAD_REACTORS
330
16D28
102
}
330
16D28
100
AcDbXrecord
280
     1
270
     1
271
     1
  0
XRECORD
  5
16D2C
102
{ACAD_REACTORS
330
16D28
102
}
330
16D28
100
AcDbXrecord
280
     1
270
     1
271
     1
  0
XRECORD
  5
16D2E
102
{ACAD_REACTORS
330
16D28
102
}
330
16D28
100
AcDbXrecord
280
     1
270
     1
271
     1
  0
XRECORD
  5
16D2B
102
{ACAD_REACTORS
330
16D28
102
}
330
16D28
100
AcDbXrecord
280
     1
270
     1
271
     1
  0
XRECORD
  5
101A674
102
{ACAD_REACTORS
330
101A673
102
}
330
101A673
100
AcDbXrecord
280
     1
102
DISPLAYNAME
  1
Metric50
102
FLAGS
 90
        0
  0
CELLSTYLEMAP
  5
101A639
102
{ACAD_REACTORS
330
17107
102
}
330
17107
100
AcDbCellStyleMap
 90
        3
300
CELLSTYLE
  1
TABLEFORMAT_BEGIN
 90
        5
170
     1
 91
        0
 92
    32768
 62
   257
 93
        1
300
CONTENTFORMAT
  1
CONTENTFORMAT_BEGIN
 90
        0
 91
        0
 92
        4
 93
        0
300

 40
0.0
140
1.0
 94
        5
 62
     0
340
17
144
6.0
309
CONTENTFORMAT_END
171
     1
301
MARGIN
  1
CELLMARGIN_BEGIN
 40
1.5
 40
1.5
 40
1.5
 40
1.5
 40
0.18
 40
0.18
309
CELLMARGIN_END
 94
        6
 95
        1
302
GRIDFORMAT
  1
GRIDFORMAT_BEGIN
 90
        0
 91
        1
 62
     0
 92
       -2
340
0
 93
        0
 40
0.045
309
GRIDFORMAT_END
 95
        2
302
GRIDFORMAT
  1
GRIDFORMAT_BEGIN
 90
        0
 91
        1
 62
     0
 92
       -2
340
0
 93
        0
 40
0.045
309
GRIDFORMAT_END
 95
        4
302
GRIDFORMAT
  1
GRIDFORMAT_BEGIN
 90
        0
 91
        1
 62
     0
 92
       -2
340
0
 93
        0
 40
0.045
309
GRIDFORMAT_END
 95
        8
302
GRIDFORMAT
  1
GRIDFORMAT_BEGIN
 90
        0
 91
        1
 62
     0
 92
       -2
340
0
 93
        0
 40
0.045
309
GRIDFORMAT_END
 95
       16
302
GRIDFORMAT
  1
GRIDFORMAT_BEGIN
 90
        0
 91
        1
 62
     0
 92
       -2
340
0
 93
        0
 40
0.045
309
GRIDFORMAT_END
 95
       32
302
GRIDFORMAT
  1
GRIDFORMAT_BEGIN
 90
        0
 91
        1
 62
     0
 92
       -2
340
0
 93
        0
 40
0.045
309
GRIDFORMAT_END
309
TABLEFORMAT_END
  1
CELLSTYLE_BEGIN
 90
        1
 91
        1
300
_TITLE
309
CELLSTYLE_END
300
CELLSTYLE
  1
TABLEFORMAT_BEGIN
 90
        5
170
     1
 91
        0
 92
        0
 62
   257
 93
        1
300
CONTENTFORMAT
  1
CONTENTFORMAT_BEGIN
 90
        0
 91
        0
 92
        4
 93
        0
300

 40
0.0
140
1.0
 94
        5
 62
     0
340
17
144
4.5
309
CONTENTFORMAT_END
171
     1
301
MARGIN
  1
CELLMARGIN_BEGIN
 40
1.5
 40
1.5
 40
1.5
 40
1.5
 40
0.18
 40
0.18
309
CELLMARGIN_END
 94
        6
 95
        1
302
GRIDFORMAT
  1
GRIDFORMAT_BEGIN
 90
        0
 91
        1
 62
     0
 92
       -2
340
0
 93
        0
 40
0.045
309
GRIDFORMAT_END
 95
        2
302
GRIDFORMAT
  1
GRIDFORMAT_BEGIN
 90
        0
 91
        1
 62
     0
 92
       -2
340
0
 93
        0
 40
0.045
309
GRIDFORMAT_END
 95
        4
302
GRIDFORMAT
  1
GRIDFORMAT_BEGIN
 90
        0
 91
        1
 62
     0
 92
       -2
340
0
 93
        0
 40
0.045
309
GRIDFORMAT_END
 95
        8
302
GRIDFORMAT
  1
GRIDFORMAT_BEGIN
 90
        0
 91
        1
 62
     0
 92
       -2
340
0
 93
        0
 40
0.045
309
GRIDFORMAT_END
 95
       16
302
GRIDFORMAT
  1
GRIDFORMAT_BEGIN
 90
        0
 91
        1
 62
     0
 92
       -2
340
0
 93
        0
 40
0.045
309
GRIDFORMAT_END
 95
       32
302
GRIDFORMAT
  1
GRIDFORMAT_BEGIN
 90
        0
 91
        1
 62
     0
 92
       -2
340
0
 93
        0
 40
0.045
309
GRIDFORMAT_END
309
TABLEFORMAT_END
  1
CELLSTYLE_BEGIN
 90
        2
 91
        1
300
_HEADER
309
CELLSTYLE_END
300
CELLSTYLE
  1
TABLEFORMAT_BEGIN
 90
        5
170
     1
 91
        0
 92
        0
 62
   257
 93
        1
300
CONTENTFORMAT
  1
CONTENTFORMAT_BEGIN
 90
        0
 91
        0
 92
        4
 93
        0
300

 40
0.0
140
1.0
 94
        2
 62
     0
340
17
144
4.5
309
CONTENTFORMAT_END
171
     1
301
MARGIN
  1
CELLMARGIN_BEGIN
 40
1.5
 40
1.5
 40
1.5
 40
1.5
 40
0.18
 40
0.18
309
CELLMARGIN_END
 94
        6
 95
        1
302
GRIDFORMAT
  1
GRIDFORMAT_BEGIN
 90
        0
 91
        1
 62
     0
 92
       -2
340
0
 93
        0
 40
0.045
309
GRIDFORMAT_END
 95
        2
302
GRIDFORMAT
  1
GRIDFORMAT_BEGIN
 90
        0
 91
        1
 62
     0
 92
       -2
340
0
 93
        0
 40
0.045
309
GRIDFORMAT_END
 95
        4
302
GRIDFORMAT
  1
GRIDFORMAT_BEGIN
 90
        0
 91
        1
 62
     0
 92
       -2
340
0
 93
        0
 40
0.045
309
GRIDFORMAT_END
 95
        8
302
GRIDFORMAT
  1
GRIDFORMAT_BEGIN
 90
        0
 91
        1
 62
     0
 92
       -2
340
0
 93
        0
 40
0.045
309
GRIDFORMAT_END
 95
       16
302
GRIDFORMAT
  1
GRIDFORMAT_BEGIN
 90
        0
 91
        1
 62
     0
 92
       -2
340
0
 93
        0
 40
0.045
309
GRIDFORMAT_END
 95
       32
302
GRIDFORMAT
  1
GRIDFORMAT_BEGIN
 90
        0
 91
        1
 62
     0
 92
       -2
340
0
 93
        0
 40
0.045
309
GRIDFORMAT_END
309
TABLEFORMAT_END
  1
CELLSTYLE_BEGIN
 90
        3
 91
        2
300
_DATA
309
CELLSTYLE_END
  0
XRECORD
  5
101A64E
102
{ACAD_REACTORS
330
101A64D
102
}
330
101A64D
100
AcDbXrecord
280
     1
102
RTVSPost2010Prop28
280
     1
102
RTVSPost2010PropOp28
 70
     1
102
RTVSPost2010Prop29
280
     1
102
RTVSPost2010PropOp29
 70
     1
102
RTVSPost2010Prop30
280
     0
102
RTVSPost2010PropOp30
 70
     1
102
RTVSPost2010Prop31
280
     0
102
RTVSPost2010PropOp31
 70
     1
102
RTVSPost2010Prop32
280
     0
102
RTVSPost2010PropOp32
 70
     1
102
RTVSPost2010Prop33
280
     0
102
RTVSPost2010PropOp33
 70
     1
102
RTVSPost2010Prop34
280
     0
102
RTVSPost2010PropOp34
 70
     1
102
RTVSPost2010Prop35
280
     0
102
RTVSPost2010PropOp35
 70
     1
102
RTVSPost2010Prop36
280
     0
102
RTVSPost2010PropOp36
 70
     1
102
RTVSPost2010Prop37
 90
       50
102
RTVSPost2010PropOp37
 70
     1
102
RTVSPost2010Prop38
140
0.0
102
RTVSPost2010PropOp38
 70
     1
102
RTVSPost2010Prop39
140
1.0
102
RTVSPost2010PropOp39
 70
     1
102
RTVSPost2010Prop40
 90
        0
102
RTVSPost2010PropOp40
 70
     1
102
RTVSPost2010Prop41ColorIndex
 90
       18
102
RTVSPost2010Prop41ColorRGB
 90
-16777216
102
RTVSPost2010PropOp41
 70
     1
102
RTVSPost2010Prop42
 90
       50
102
RTVSPost2010PropOp42
 70
     1
102
RTVSPost2010Prop43
 90
        3
102
RTVSPost2010PropOp43
 70
     1
102
RTVSPost2010Prop44ColorIndex
 90
        5
102
RTVSPost2010Prop44ColorRGB
 90
      255
102
RTVSPost2010PropOp44
 70
     1
102
RTVSPost2010Prop45
280
     0
102
RTVSPost2010PropOp45
 70
     1
102
RTVSPost2010Prop46
 90
       50
102
RTVSPost2010PropOp46
 70
     1
102
RTVSPost2010Prop47
 90
       50
102
RTVSPost2010PropOp47
 70
     1
102
RTVSPost2010Prop48
 90
       50
102
RTVSPost2010PropOp48
 70
     1
102
RTVSPost2010Prop49
280
     0
102
RTVSPost2010PropOp49
 70
     1
102
RTVSPost2010Prop50
 90
       50
102
RTVSPost2010PropOp50
 70
     1
102
RTVSPost2010Prop51ColorIndex
 90
      256
102
RTVSPost2010Prop51ColorRGB
 90
-16777216
102
RTVSPost2010PropOp51
 70
     0
102
RTVSPost2010Prop52
140
1.0
102
RTVSPost2010PropOp52
 70
     0
102
RTVSPost2010Prop53
 90
        2
102
RTVSPost2010PropOp53
 70
     1
102
RTVSPost2010Prop54
  1
strokes_ogs.tif
102
RTVSPost2010PropOp54
 70
     1
102
RTVSPost2010Prop55
280
     0
102
RTVSPost2010PropOp55
 70
     1
102
RTVSPost2010Prop56
140
1.0
102
RTVSPost2010PropOp56
 70
     1
102
RTVSPost2010Prop57
140
1.0
102
RTVSPost2010PropOp57
 70
     1
  0
XRECORD
  5
101A64C
102
{ACAD_REACTORS
330
101A64B
102
}
330
101A64B
100
AcDbXrecord
280
     1
102
RTVSPost2010Prop28
280
     0
102
RTVSPost2010PropOp28
 70
     1
102
RTVSPost2010Prop29
280
     1
102
RTVSPost2010PropOp29
 70
     1
102
RTVSPost2010Prop30
280
     1
102
RTVSPost2010PropOp30
 70
     1
102
RTVSPost2010Prop31
280
     0
102
RTVSPost2010PropOp31
 70
     1
102
RTVSPost2010Prop32
280
     0
102
RTVSPost2010PropOp32
 70
     1
102
RTVSPost2010Prop33
280
     0
102
RTVSPost2010PropOp33
 70
     1
102
RTVSPost2010Prop34
280
     0
102
RTVSPost2010PropOp34
 70
     1
102
RTVSPost2010Prop35
280
     0
102
RTVSPost2010PropOp35
 70
     1
102
RTVSPost2010Prop36
280
     0
102
RTVSPost2010PropOp36
 70
     1
102
RTVSPost2010Prop37
 90
       50
102
RTVSPost2010PropOp37
 70
     1
102
RTVSPost2010Prop38
140
0.0
102
RTVSPost2010PropOp38
 70
     1
102
RTVSPost2010Prop39
140
1.0
102
RTVSPost2010PropOp39
 70
     1
102
RTVSPost2010Prop40
 90
        0
102
RTVSPost2010PropOp40
 70
     1
102
RTVSPost2010Prop41ColorIndex
 90
       18
102
RTVSPost2010Prop41ColorRGB
 90
-16777216
102
RTVSPost2010PropOp41
 70
     1
102
RTVSPost2010Prop42
 90
       50
102
RTVSPost2010PropOp42
 70
     1
102
RTVSPost2010Prop43
 90
        3
102
RTVSPost2010PropOp43
 70
     1
102
RTVSPost2010Prop44ColorIndex
 90
        5
102
RTVSPost2010Prop44ColorRGB
 90
      255
102
RTVSPost2010PropOp44
 70
     1
102
RTVSPost2010Prop45
280
     0
102
RTVSPost2010PropOp45
 70
     1
102
RTVSPost2010Prop46
 90
       50
102
RTVSPost2010PropOp46
 70
     1
102
RTVSPost2010Prop47
 90
       50
102
RTVSPost2010PropOp47
 70
     1
102
RTVSPost2010Prop48
 90
       50
102
RTVSPost2010PropOp48
 70
     1
102
RTVSPost2010Prop49
280
     0
102
RTVSPost2010PropOp49
 70
     1
102
RTVSPost2010Prop50
 90
       50
102
RTVSPost2010PropOp50
 70
     1
102
RTVSPost2010Prop51ColorIndex
 90
      256
102
RTVSPost2010Prop51ColorRGB
 90
-16777216
102
RTVSPost2010PropOp51
 70
     0
102
RTVSPost2010Prop52
140
1.0
102
RTVSPost2010PropOp52
 70
     0
102
RTVSPost2010Prop53
 90
        2
102
RTVSPost2010PropOp53
 70
     1
102
RTVSPost2010Prop54
  1
strokes_ogs.tif
102
RTVSPost2010PropOp54
 70
     1
102
RTVSPost2010Prop55
280
     0
102
RTVSPost2010PropOp55
 70
     1
102
RTVSPost2010Prop56
140
1.0
102
RTVSPost2010PropOp56
 70
     1
102
RTVSPost2010Prop57
140
1.0
102
RTVSPost2010PropOp57
 70
     1
  0
XRECORD
  5
101A65A
102
{ACAD_REACTORS
330
101A659
102
}
330
101A659
100
AcDbXrecord
280
     1
102
RTVSPost2010Prop28
280
     0
102
RTVSPost2010PropOp28
 70
     1
102
RTVSPost2010Prop29
280
     1
102
RTVSPost2010PropOp29
 70
     1
102
RTVSPost2010Prop30
280
     1
102
RTVSPost2010PropOp30
 70
     1
102
RTVSPost2010Prop31
280
     0
102
RTVSPost2010PropOp31
 70
     1
102
RTVSPost2010Prop32
280
     0
102
RTVSPost2010PropOp32
 70
     1
102
RTVSPost2010Prop33
280
     0
102
RTVSPost2010PropOp33
 70
     1
102
RTVSPost2010Prop34
280
     0
102
RTVSPost2010PropOp34
 70
     1
102
RTVSPost2010Prop35
280
     0
102
RTVSPost2010PropOp35
 70
     1
102
RTVSPost2010Prop36
280
     0
102
RTVSPost2010PropOp36
 70
     1
102
RTVSPost2010Prop37
 90
       50
102
RTVSPost2010PropOp37
 70
     1
102
RTVSPost2010Prop38
140
0.0
102
RTVSPost2010PropOp38
 70
     1
102
RTVSPost2010Prop39
140
1.0
102
RTVSPost2010PropOp39
 70
     1
102
RTVSPost2010Prop40
 90
        0
102
RTVSPost2010PropOp40
 70
     1
102
RTVSPost2010Prop41ColorIndex
 90
       18
102
RTVSPost2010Prop41ColorRGB
 90
-16777216
102
RTVSPost2010PropOp41
 70
     1
102
RTVSPost2010Prop42
 90
       50
102
RTVSPost2010PropOp42
 70
     1
102
RTVSPost2010Prop43
 90
        3
102
RTVSPost2010PropOp43
 70
     1
102
RTVSPost2010Prop44ColorIndex
 90
        5
102
RTVSPost2010Prop44ColorRGB
 90
      255
102
RTVSPost2010PropOp44
 70
     1
102
RTVSPost2010Prop45
280
     0
102
RTVSPost2010PropOp45
 70
     1
102
RTVSPost2010Prop46
 90
       50
102
RTVSPost2010PropOp46
 70
     1
102
RTVSPost2010Prop47
 90
       50
102
RTVSPost2010PropOp47
 70
     1
102
RTVSPost2010Prop48
 90
       50
102
RTVSPost2010PropOp48
 70
     1
102
RTVSPost2010Prop49
280
     0
102
RTVSPost2010PropOp49
 70
     1
102
RTVSPost2010Prop50
 90
       50
102
RTVSPost2010PropOp50
 70
     1
102
RTVSPost2010Prop51ColorIndex
 90
      256
102
RTVSPost2010Prop51ColorRGB
 90
-16777216
102
RTVSPost2010PropOp51
 70
     0
102
RTVSPost2010Prop52
140
1.0
102
RTVSPost2010PropOp52
 70
     0
102
RTVSPost2010Prop53
 90
        2
102
RTVSPost2010PropOp53
 70
     1
102
RTVSPost2010Prop54
  1
strokes_ogs.tif
102
RTVSPost2010PropOp54
 70
     1
102
RTVSPost2010Prop55
280
     0
102
RTVSPost2010PropOp55
 70
     1
102
RTVSPost2010Prop56
140
1.0
102
RTVSPost2010PropOp56
 70
     1
102
RTVSPost2010Prop57
140
1.0
102
RTVSPost2010PropOp57
 70
     1
  0
XRECORD
  5
101A662
102
{ACAD_REACTORS
330
101A661
102
}
330
101A661
100
AcDbXrecord
280
     1
102
RTVSPost2010Prop28
280
     0
102
RTVSPost2010PropOp28
 70
     1
102
RTVSPost2010Prop29
280
     1
102
RTVSPost2010PropOp29
 70
     1
102
RTVSPost2010Prop30
280
     1
102
RTVSPost2010PropOp30
 70
     1
102
RTVSPost2010Prop31
280
     0
102
RTVSPost2010PropOp31
 70
     1
102
RTVSPost2010Prop32
280
     0
102
RTVSPost2010PropOp32
 70
     1
102
RTVSPost2010Prop33
280
     0
102
RTVSPost2010PropOp33
 70
     1
102
RTVSPost2010Prop34
280
     0
102
RTVSPost2010PropOp34
 70
     1
102
RTVSPost2010Prop35
280
     0
102
RTVSPost2010PropOp35
 70
     1
102
RTVSPost2010Prop36
280
     0
102
RTVSPost2010PropOp36
 70
     1
102
RTVSPost2010Prop37
 90
       50
102
RTVSPost2010PropOp37
 70
     1
102
RTVSPost2010Prop38
140
0.0
102
RTVSPost2010PropOp38
 70
     1
102
RTVSPost2010Prop39
140
1.0
102
RTVSPost2010PropOp39
 70
     1
102
RTVSPost2010Prop40
 90
        0
102
RTVSPost2010PropOp40
 70
     1
102
RTVSPost2010Prop41ColorIndex
 90
       18
102
RTVSPost2010Prop41ColorRGB
 90
-16777216
102
RTVSPost2010PropOp41
 70
     1
102
RTVSPost2010Prop42
 90
       50
102
RTVSPost2010PropOp42
 70
     1
102
RTVSPost2010Prop43
 90
        3
102
RTVSPost2010PropOp43
 70
     1
102
RTVSPost2010Prop44ColorIndex
 90
        5
102
RTVSPost2010Prop44ColorRGB
 90
      255
102
RTVSPost2010PropOp44
 70
     1
102
RTVSPost2010Prop45
280
     0
102
RTVSPost2010PropOp45
 70
     1
102
RTVSPost2010Prop46
 90
       50
102
RTVSPost2010PropOp46
 70
     1
102
RTVSPost2010Prop47
 90
       50
102
RTVSPost2010PropOp47
 70
     1
102
RTVSPost2010Prop48
 90
       50
102
RTVSPost2010PropOp48
 70
     1
102
RTVSPost2010Prop49
280
     0
102
RTVSPost2010PropOp49
 70
     1
102
RTVSPost2010Prop50
 90
       50
102
RTVSPost2010PropOp50
 70
     1
102
RTVSPost2010Prop51ColorIndex
 90
      256
102
RTVSPost2010Prop51ColorRGB
 90
-16777216
102
RTVSPost2010PropOp51
 70
     0
102
RTVSPost2010Prop52
140
1.0
102
RTVSPost2010PropOp52
 70
     0
102
RTVSPost2010Prop53
 90
        2
102
RTVSPost2010PropOp53
 70
     1
102
RTVSPost2010Prop54
  1
strokes_ogs.tif
102
RTVSPost2010PropOp54
 70
     1
102
RTVSPost2010Prop55
280
     0
102
RTVSPost2010PropOp55
 70
     1
102
RTVSPost2010Prop56
140
1.0
102
RTVSPost2010PropOp56
 70
     1
102
RTVSPost2010Prop57
140
1.0
102
RTVSPost2010PropOp57
 70
     1
  0
XRECORD
  5
101A654
102
{ACAD_REACTORS
330
101A653
102
}
330
101A653
100
AcDbXrecord
280
     1
102
RTVSPost2010Prop28
280
     0
102
RTVSPost2010PropOp28
 70
     1
102
RTVSPost2010Prop29
280
     1
102
RTVSPost2010PropOp29
 70
     1
102
RTVSPost2010Prop30
280
     1
102
RTVSPost2010PropOp30
 70
     1
102
RTVSPost2010Prop31
280
     0
102
RTVSPost2010PropOp31
 70
     1
102
RTVSPost2010Prop32
280
     0
102
RTVSPost2010PropOp32
 70
     1
102
RTVSPost2010Prop33
280
     0
102
RTVSPost2010PropOp33
 70
     1
102
RTVSPost2010Prop34
280
     0
102
RTVSPost2010PropOp34
 70
     1
102
RTVSPost2010Prop35
280
     0
102
RTVSPost2010PropOp35
 70
     1
102
RTVSPost2010Prop36
280
     0
102
RTVSPost2010PropOp36
 70
     1
102
RTVSPost2010Prop37
 90
       50
102
RTVSPost2010PropOp37
 70
     1
102
RTVSPost2010Prop38
140
0.0
102
RTVSPost2010PropOp38
 70
     1
102
RTVSPost2010Prop39
140
1.0
102
RTVSPost2010PropOp39
 70
     1
102
RTVSPost2010Prop40
 90
        0
102
RTVSPost2010PropOp40
 70
     1
102
RTVSPost2010Prop41ColorIndex
 90
       18
102
RTVSPost2010Prop41ColorRGB
 90
-16777216
102
RTVSPost2010PropOp41
 70
     1
102
RTVSPost2010Prop42
 90
       50
102
RTVSPost2010PropOp42
 70
     1
102
RTVSPost2010Prop43
 90
        3
102
RTVSPost2010PropOp43
 70
     1
102
RTVSPost2010Prop44ColorIndex
 90
        5
102
RTVSPost2010Prop44ColorRGB
 90
      255
102
RTVSPost2010PropOp44
 70
     1
102
RTVSPost2010Prop45
280
     0
102
RTVSPost2010PropOp45
 70
     1
102
RTVSPost2010Prop46
 90
       50
102
RTVSPost2010PropOp46
 70
     1
102
RTVSPost2010Prop47
 90
       50
102
RTVSPost2010PropOp47
 70
     1
102
RTVSPost2010Prop48
 90
       50
102
RTVSPost2010PropOp48
 70
     1
102
RTVSPost2010Prop49
280
     0
102
RTVSPost2010PropOp49
 70
     1
102
RTVSPost2010Prop50
 90
       50
102
RTVSPost2010PropOp50
 70
     1
102
RTVSPost2010Prop51ColorIndex
 90
      256
102
RTVSPost2010Prop51ColorRGB
 90
-16777216
102
RTVSPost2010PropOp51
 70
     0
102
RTVSPost2010Prop52
140
1.0
102
RTVSPost2010PropOp52
 70
     0
102
RTVSPost2010Prop53
 90
        2
102
RTVSPost2010PropOp53
 70
     1
102
RTVSPost2010Prop54
  1
strokes_ogs.tif
102
RTVSPost2010PropOp54
 70
     1
102
RTVSPost2010Prop55
280
     0
102
RTVSPost2010PropOp55
 70
     1
102
RTVSPost2010Prop56
140
1.0
102
RTVSPost2010PropOp56
 70
     1
102
RTVSPost2010Prop57
140
1.0
102
RTVSPost2010PropOp57
 70
     1
  0
XRECORD
  5
101A658
102
{ACAD_REACTORS
330
101A657
102
}
330
101A657
100
AcDbXrecord
280
     1
102
RTVSPost2010Prop28
280
     0
102
RTVSPost2010PropOp28
 70
     1
102
RTVSPost2010Prop29
280
     1
102
RTVSPost2010PropOp29
 70
     1
102
RTVSPost2010Prop30
280
     1
102
RTVSPost2010PropOp30
 70
     1
102
RTVSPost2010Prop31
280
     0
102
RTVSPost2010PropOp31
 70
     1
102
RTVSPost2010Prop32
280
     0
102
RTVSPost2010PropOp32
 70
     1
102
RTVSPost2010Prop33
280
     0
102
RTVSPost2010PropOp33
 70
     1
102
RTVSPost2010Prop34
280
     0
102
RTVSPost2010PropOp34
 70
     1
102
RTVSPost2010Prop35
280
     0
102
RTVSPost2010PropOp35
 70
     1
102
RTVSPost2010Prop36
280
     0
102
RTVSPost2010PropOp36
 70
     1
102
RTVSPost2010Prop37
 90
       50
102
RTVSPost2010PropOp37
 70
     1
102
RTVSPost2010Prop38
140
0.0
102
RTVSPost2010PropOp38
 70
     1
102
RTVSPost2010Prop39
140
1.0
102
RTVSPost2010PropOp39
 70
     1
102
RTVSPost2010Prop40
 90
        0
102
RTVSPost2010PropOp40
 70
     1
102
RTVSPost2010Prop41ColorIndex
 90
       18
102
RTVSPost2010Prop41ColorRGB
 90
-16777216
102
RTVSPost2010PropOp41
 70
     1
102
RTVSPost2010Prop42
 90
       50
102
RTVSPost2010PropOp42
 70
     1
102
RTVSPost2010Prop43
 90
        3
102
RTVSPost2010PropOp43
 70
     1
102
RTVSPost2010Prop44ColorIndex
 90
        5
102
RTVSPost2010Prop44ColorRGB
 90
      255
102
RTVSPost2010PropOp44
 70
     1
102
RTVSPost2010Prop45
280
     0
102
RTVSPost2010PropOp45
 70
     1
102
RTVSPost2010Prop46
 90
       50
102
RTVSPost2010PropOp46
 70
     1
102
RTVSPost2010Prop47
 90
       50
102
RTVSPost2010PropOp47
 70
     1
102
RTVSPost2010Prop48
 90
       50
102
RTVSPost2010PropOp48
 70
     1
102
RTVSPost2010Prop49
280
     0
102
RTVSPost2010PropOp49
 70
     1
102
RTVSPost2010Prop50
 90
       50
102
RTVSPost2010PropOp50
 70
     1
102
RTVSPost2010Prop51ColorIndex
 90
      256
102
RTVSPost2010Prop51ColorRGB
 90
-16777216
102
RTVSPost2010PropOp51
 70
     0
102
RTVSPost2010Prop52
140
1.0
102
RTVSPost2010PropOp52
 70
     0
102
RTVSPost2010Prop53
 90
        2
102
RTVSPost2010PropOp53
 70
     1
102
RTVSPost2010Prop54
  1
strokes_ogs.tif
102
RTVSPost2010PropOp54
 70
     1
102
RTVSPost2010Prop55
280
     0
102
RTVSPost2010PropOp55
 70
     1
102
RTVSPost2010Prop56
140
1.0
102
RTVSPost2010PropOp56
 70
     1
102
RTVSPost2010Prop57
140
1.0
102
RTVSPost2010PropOp57
 70
     1
  0
XRECORD
  5
101A672
102
{ACAD_REACTORS
330
101A671
102
}
330
101A671
100
AcDbXrecord
280
     1
102
RTVSPost2010Prop28
280
     0
102
RTVSPost2010PropOp28
 70
     0
102
RTVSPost2010Prop29
280
     1
102
RTVSPost2010PropOp29
 70
     0
102
RTVSPost2010Prop30
280
     1
102
RTVSPost2010PropOp30
 70
     0
102
RTVSPost2010Prop31
280
     0
102
RTVSPost2010PropOp31
 70
     0
102
RTVSPost2010Prop32
280
     0
102
RTVSPost2010PropOp32
 70
     0
102
RTVSPost2010Prop33
280
     0
102
RTVSPost2010PropOp33
 70
     1
102
RTVSPost2010Prop34
280
     0
102
RTVSPost2010PropOp34
 70
     1
102
RTVSPost2010Prop35
280
     0
102
RTVSPost2010PropOp35
 70
     1
102
RTVSPost2010Prop36
280
     0
102
RTVSPost2010PropOp36
 70
     1
102
RTVSPost2010Prop37
 90
       50
102
RTVSPost2010PropOp37
 70
     1
102
RTVSPost2010Prop38
140
0.0
102
RTVSPost2010PropOp38
 70
     1
102
RTVSPost2010Prop39
140
1.0
102
RTVSPost2010PropOp39
 70
     1
102
RTVSPost2010Prop40
 90
        0
102
RTVSPost2010PropOp40
 70
     1
102
RTVSPost2010Prop41ColorIndex
 90
       18
102
RTVSPost2010Prop41ColorRGB
 90
-16777216
102
RTVSPost2010PropOp41
 70
     1
102
RTVSPost2010Prop42
 90
       50
102
RTVSPost2010PropOp42
 70
     1
102
RTVSPost2010Prop43
 90
        3
102
RTVSPost2010PropOp43
 70
     1
102
RTVSPost2010Prop44ColorIndex
 90
        5
102
RTVSPost2010Prop44ColorRGB
 90
      255
102
RTVSPost2010PropOp44
 70
     1
102
RTVSPost2010Prop45
280
     0
102
RTVSPost2010PropOp45
 70
     1
102
RTVSPost2010Prop46
 90
       50
102
RTVSPost2010PropOp46
 70
     1
102
RTVSPost2010Prop47
 90
       50
102
RTVSPost2010PropOp47
 70
     1
102
RTVSPost2010Prop48
 90
       50
102
RTVSPost2010PropOp48
 70
     1
102
RTVSPost2010Prop49
280
     0
102
RTVSPost2010PropOp49
 70
     1
102
RTVSPost2010Prop50
 90
       50
102
RTVSPost2010PropOp50
 70
     1
102
RTVSPost2010Prop51ColorIndex
 90
      256
102
RTVSPost2010Prop51ColorRGB
 90
-16777216
102
RTVSPost2010PropOp51
 70
     0
102
RTVSPost2010Prop52
140
1.0
102
RTVSPost2010PropOp52
 70
     0
102
RTVSPost2010Prop53
 90
        2
102
RTVSPost2010PropOp53
 70
     1
102
RTVSPost2010Prop54
  1
strokes_ogs.tif
102
RTVSPost2010PropOp54
 70
     1
102
RTVSPost2010Prop55
280
     0
102
RTVSPost2010PropOp55
 70
     1
102
RTVSPost2010Prop56
140
1.0
102
RTVSPost2010PropOp56
 70
     1
102
RTVSPost2010Prop57
140
1.0
102
RTVSPost2010PropOp57
 70
     1
  0
XRECORD
  5
101A660
102
{ACAD_REACTORS
330
101A65F
102
}
330
101A65F
100
AcDbXrecord
280
     1
102
RTVSPost2010Prop28
280
     0
102
RTVSPost2010PropOp28
 70
     1
102
RTVSPost2010Prop29
280
     1
102
RTVSPost2010PropOp29
 70
     1
102
RTVSPost2010Prop30
280
     1
102
RTVSPost2010PropOp30
 70
     1
102
RTVSPost2010Prop31
280
     0
102
RTVSPost2010PropOp31
 70
     1
102
RTVSPost2010Prop32
280
     0
102
RTVSPost2010PropOp32
 70
     1
102
RTVSPost2010Prop33
280
     0
102
RTVSPost2010PropOp33
 70
     1
102
RTVSPost2010Prop34
280
     0
102
RTVSPost2010PropOp34
 70
     1
102
RTVSPost2010Prop35
280
     0
102
RTVSPost2010PropOp35
 70
     1
102
RTVSPost2010Prop36
280
     0
102
RTVSPost2010PropOp36
 70
     1
102
RTVSPost2010Prop37
 90
       50
102
RTVSPost2010PropOp37
 70
     1
102
RTVSPost2010Prop38
140
0.0
102
RTVSPost2010PropOp38
 70
     1
102
RTVSPost2010Prop39
140
1.0
102
RTVSPost2010PropOp39
 70
     1
102
RTVSPost2010Prop40
 90
        0
102
RTVSPost2010PropOp40
 70
     1
102
RTVSPost2010Prop41ColorIndex
 90
       18
102
RTVSPost2010Prop41ColorRGB
 90
-16777216
102
RTVSPost2010PropOp41
 70
     1
102
RTVSPost2010Prop42
 90
       50
102
RTVSPost2010PropOp42
 70
     1
102
RTVSPost2010Prop43
 90
        3
102
RTVSPost2010PropOp43
 70
     1
102
RTVSPost2010Prop44ColorIndex
 90
        5
102
RTVSPost2010Prop44ColorRGB
 90
      255
102
RTVSPost2010PropOp44
 70
     1
102
RTVSPost2010Prop45
280
     0
102
RTVSPost2010PropOp45
 70
     1
102
RTVSPost2010Prop46
 90
       50
102
RTVSPost2010PropOp46
 70
     1
102
RTVSPost2010Prop47
 90
       50
102
RTVSPost2010PropOp47
 70
     1
102
RTVSPost2010Prop48
 90
       50
102
RTVSPost2010PropOp48
 70
     1
102
RTVSPost2010Prop49
280
     0
102
RTVSPost2010PropOp49
 70
     1
102
RTVSPost2010Prop50
 90
       50
102
RTVSPost2010PropOp50
 70
     1
102
RTVSPost2010Prop51ColorIndex
 90
      256
102
RTVSPost2010Prop51ColorRGB
 90
-16777216
102
RTVSPost2010PropOp51
 70
     0
102
RTVSPost2010Prop52
140
1.0
102
RTVSPost2010PropOp52
 70
     0
102
RTVSPost2010Prop53
 90
        2
102
RTVSPost2010PropOp53
 70
     1
102
RTVSPost2010Prop54
  1
strokes_ogs.tif
102
RTVSPost2010PropOp54
 70
     1
102
RTVSPost2010Prop55
280
     0
102
RTVSPost2010PropOp55
 70
     1
102
RTVSPost2010Prop56
140
1.0
102
RTVSPost2010PropOp56
 70
     1
102
RTVSPost2010Prop57
140
1.0
102
RTVSPost2010PropOp57
 70
     1
  0
XRECORD
  5
101A644
102
{ACAD_REACTORS
330
101A643
102
}
330
101A643
100
AcDbXrecord
280
     1
102
RTVSPost2010Prop28
280
     0
102
RTVSPost2010PropOp28
 70
     1
102
RTVSPost2010Prop29
280
     1
102
RTVSPost2010PropOp29
 70
     1
102
RTVSPost2010Prop30
280
     1
102
RTVSPost2010PropOp30
 70
     1
102
RTVSPost2010Prop31
280
     0
102
RTVSPost2010PropOp31
 70
     1
102
RTVSPost2010Prop32
280
     0
102
RTVSPost2010PropOp32
 70
     1
102
RTVSPost2010Prop33
280
     0
102
RTVSPost2010PropOp33
 70
     1
102
RTVSPost2010Prop34
280
     0
102
RTVSPost2010PropOp34
 70
     1
102
RTVSPost2010Prop35
280
     0
102
RTVSPost2010PropOp35
 70
     1
102
RTVSPost2010Prop36
280
     0
102
RTVSPost2010PropOp36
 70
     1
102
RTVSPost2010Prop37
 90
       50
102
RTVSPost2010PropOp37
 70
     1
102
RTVSPost2010Prop38
140
0.0
102
RTVSPost2010PropOp38
 70
     1
102
RTVSPost2010Prop39
140
1.0
102
RTVSPost2010PropOp39
 70
     1
102
RTVSPost2010Prop40
 90
        0
102
RTVSPost2010PropOp40
 70
     1
102
RTVSPost2010Prop41ColorIndex
 90
       18
102
RTVSPost2010Prop41ColorRGB
 90
-16777216
102
RTVSPost2010PropOp41
 70
     1
102
RTVSPost2010Prop42
 90
       50
102
RTVSPost2010PropOp42
 70
     1
102
RTVSPost2010Prop43
 90
        3
102
RTVSPost2010PropOp43
 70
     1
102
RTVSPost2010Prop44ColorIndex
 90
        5
102
RTVSPost2010Prop44ColorRGB
 90
      255
102
RTVSPost2010PropOp44
 70
     1
102
RTVSPost2010Prop45
280
     0
102
RTVSPost2010PropOp45
 70
     1
102
RTVSPost2010Prop46
 90
       50
102
RTVSPost2010PropOp46
 70
     1
102
RTVSPost2010Prop47
 90
       50
102
RTVSPost2010PropOp47
 70
     1
102
RTVSPost2010Prop48
 90
       50
102
RTVSPost2010PropOp48
 70
     1
102
RTVSPost2010Prop49
280
     0
102
RTVSPost2010PropOp49
 70
     1
102
RTVSPost2010Prop50
 90
       50
102
RTVSPost2010PropOp50
 70
     1
102
RTVSPost2010Prop51ColorIndex
 90
      256
102
RTVSPost2010Prop51ColorRGB
 90
-16777216
102
RTVSPost2010PropOp51
 70
     0
102
RTVSPost2010Prop52
140
1.0
102
RTVSPost2010PropOp52
 70
     0
102
RTVSPost2010Prop53
 90
        2
102
RTVSPost2010PropOp53
 70
     1
102
RTVSPost2010Prop54
  1
strokes_ogs.tif
102
RTVSPost2010PropOp54
 70
     1
102
RTVSPost2010Prop55
280
     0
102
RTVSPost2010PropOp55
 70
     1
102
RTVSPost2010Prop56
140
1.0
102
RTVSPost2010PropOp56
 70
     1
102
RTVSPost2010Prop57
140
1.0
102
RTVSPost2010PropOp57
 70
     1
  0
XRECORD
  5
101A646
102
{ACAD_REACTORS
330
101A645
102
}
330
101A645
100
AcDbXrecord
280
     1
102
RTVSPost2010Prop28
280
     0
102
RTVSPost2010PropOp28
 70
     1
102
RTVSPost2010Prop29
280
     1
102
RTVSPost2010PropOp29
 70
     1
102
RTVSPost2010Prop30
280
     1
102
RTVSPost2010PropOp30
 70
     1
102
RTVSPost2010Prop31
280
     0
102
RTVSPost2010PropOp31
 70
     1
102
RTVSPost2010Prop32
280
     0
102
RTVSPost2010PropOp32
 70
     1
102
RTVSPost2010Prop33
280
     0
102
RTVSPost2010PropOp33
 70
     1
102
RTVSPost2010Prop34
280
     0
102
RTVSPost2010PropOp34
 70
     1
102
RTVSPost2010Prop35
280
     0
102
RTVSPost2010PropOp35
 70
     1
102
RTVSPost2010Prop36
280
     0
102
RTVSPost2010PropOp36
 70
     1
102
RTVSPost2010Prop37
 90
       50
102
RTVSPost2010PropOp37
 70
     1
102
RTVSPost2010Prop38
140
0.0
102
RTVSPost2010PropOp38
 70
     1
102
RTVSPost2010Prop39
140
1.0
102
RTVSPost2010PropOp39
 70
     1
102
RTVSPost2010Prop40
 90
        0
102
RTVSPost2010PropOp40
 70
     1
102
RTVSPost2010Prop41ColorIndex
 90
       18
102
RTVSPost2010Prop41ColorRGB
 90
-16777216
102
RTVSPost2010PropOp41
 70
     1
102
RTVSPost2010Prop42
 90
       50
102
RTVSPost2010PropOp42
 70
     1
102
RTVSPost2010Prop43
 90
        3
102
RTVSPost2010PropOp43
 70
     1
102
RTVSPost2010Prop44ColorIndex
 90
        5
102
RTVSPost2010Prop44ColorRGB
 90
      255
102
RTVSPost2010PropOp44
 70
     1
102
RTVSPost2010Prop45
280
     0
102
RTVSPost2010PropOp45
 70
     1
102
RTVSPost2010Prop46
 90
       50
102
RTVSPost2010PropOp46
 70
     1
102
RTVSPost2010Prop47
 90
       50
102
RTVSPost2010PropOp47
 70
     1
102
RTVSPost2010Prop48
 90
       50
102
RTVSPost2010PropOp48
 70
     1
102
RTVSPost2010Prop49
280
     0
102
RTVSPost2010PropOp49
 70
     1
102
RTVSPost2010Prop50
 90
       50
102
RTVSPost2010PropOp50
 70
     1
102
RTVSPost2010Prop51ColorIndex
 90
      256
102
RTVSPost2010Prop51ColorRGB
 90
-16777216
102
RTVSPost2010PropOp51
 70
     0
102
RTVSPost2010Prop52
140
1.0
102
RTVSPost2010PropOp52
 70
     0
102
RTVSPost2010Prop53
 90
        2
102
RTVSPost2010PropOp53
 70
     1
102
RTVSPost2010Prop54
  1
strokes_ogs.tif
102
RTVSPost2010PropOp54
 70
     1
102
RTVSPost2010Prop55
280
     0
102
RTVSPost2010PropOp55
 70
     1
102
RTVSPost2010Prop56
140
1.0
102
RTVSPost2010PropOp56
 70
     1
102
RTVSPost2010Prop57
140
1.0
102
RTVSPost2010PropOp57
 70
     1
  0
XRECORD
  5
101A648
102
{ACAD_REACTORS
330
101A647
102
}
330
101A647
100
AcDbXrecord
280
     1
102
RTVSPost2010Prop28
280
     0
102
RTVSPost2010PropOp28
 70
     1
102
RTVSPost2010Prop29
280
     1
102
RTVSPost2010PropOp29
 70
     1
102
RTVSPost2010Prop30
280
     1
102
RTVSPost2010PropOp30
 70
     1
102
RTVSPost2010Prop31
280
     0
102
RTVSPost2010PropOp31
 70
     1
102
RTVSPost2010Prop32
280
     0
102
RTVSPost2010PropOp32
 70
     1
102
RTVSPost2010Prop33
280
     0
102
RTVSPost2010PropOp33
 70
     1
102
RTVSPost2010Prop34
280
     0
102
RTVSPost2010PropOp34
 70
     1
102
RTVSPost2010Prop35
280
     0
102
RTVSPost2010PropOp35
 70
     1
102
RTVSPost2010Prop36
280
     0
102
RTVSPost2010PropOp36
 70
     1
102
RTVSPost2010Prop37
 90
       50
102
RTVSPost2010PropOp37
 70
     1
102
RTVSPost2010Prop38
140
0.0
102
RTVSPost2010PropOp38
 70
     1
102
RTVSPost2010Prop39
140
1.0
102
RTVSPost2010PropOp39
 70
     1
102
RTVSPost2010Prop40
 90
        0
102
RTVSPost2010PropOp40
 70
     1
102
RTVSPost2010Prop41ColorIndex
 90
       18
102
RTVSPost2010Prop41ColorRGB
 90
-16777216
102
RTVSPost2010PropOp41
 70
     1
102
RTVSPost2010Prop42
 90
       50
102
RTVSPost2010PropOp42
 70
     1
102
RTVSPost2010Prop43
 90
        3
102
RTVSPost2010PropOp43
 70
     1
102
RTVSPost2010Prop44ColorIndex
 90
        5
102
RTVSPost2010Prop44ColorRGB
 90
      255
102
RTVSPost2010PropOp44
 70
     1
102
RTVSPost2010Prop45
280
     0
102
RTVSPost2010PropOp45
 70
     1
102
RTVSPost2010Prop46
 90
       50
102
RTVSPost2010PropOp46
 70
     1
102
RTVSPost2010Prop47
 90
       50
102
RTVSPost2010PropOp47
 70
     1
102
RTVSPost2010Prop48
 90
       50
102
RTVSPost2010PropOp48
 70
     1
102
RTVSPost2010Prop49
280
     0
102
RTVSPost2010PropOp49
 70
     1
102
RTVSPost2010Prop50
 90
       50
102
RTVSPost2010PropOp50
 70
     1
102
RTVSPost2010Prop51ColorIndex
 90
      256
102
RTVSPost2010Prop51ColorRGB
 90
-16777216
102
RTVSPost2010PropOp51
 70
     0
102
RTVSPost2010Prop52
140
1.0
102
RTVSPost2010PropOp52
 70
     0
102
RTVSPost2010Prop53
 90
        2
102
RTVSPost2010PropOp53
 70
     1
102
RTVSPost2010Prop54
  1
strokes_ogs.tif
102
RTVSPost2010PropOp54
 70
     1
102
RTVSPost2010Prop55
280
     0
102
RTVSPost2010PropOp55
 70
     1
102
RTVSPost2010Prop56
140
1.0
102
RTVSPost2010PropOp56
 70
     1
102
RTVSPost2010Prop57
140
1.0
102
RTVSPost2010PropOp57
 70
     1
  0
XRECORD
  5
101A64A
102
{ACAD_REACTORS
330
101A649
102
}
330
101A649
100
AcDbXrecord
280
     1
102
RTVSPost2010Prop28
280
     0
102
RTVSPost2010PropOp28
 70
     1
102
RTVSPost2010Prop29
280
     1
102
RTVSPost2010PropOp29
 70
     1
102
RTVSPost2010Prop30
280
     1
102
RTVSPost2010PropOp30
 70
     1
102
RTVSPost2010Prop31
280
     0
102
RTVSPost2010PropOp31
 70
     1
102
RTVSPost2010Prop32
280
     0
102
RTVSPost2010PropOp32
 70
     1
102
RTVSPost2010Prop33
280
     0
102
RTVSPost2010PropOp33
 70
     1
102
RTVSPost2010Prop34
280
     0
102
RTVSPost2010PropOp34
 70
     1
102
RTVSPost2010Prop35
280
     0
102
RTVSPost2010PropOp35
 70
     1
102
RTVSPost2010Prop36
280
     0
102
RTVSPost2010PropOp36
 70
     1
102
RTVSPost2010Prop37
 90
       50
102
RTVSPost2010PropOp37
 70
     1
102
RTVSPost2010Prop38
140
0.0
102
RTVSPost2010PropOp38
 70
     1
102
RTVSPost2010Prop39
140
1.0
102
RTVSPost2010PropOp39
 70
     1
102
RTVSPost2010Prop40
 90
        0
102
RTVSPost2010PropOp40
 70
     1
102
RTVSPost2010Prop41ColorIndex
 90
       18
102
RTVSPost2010Prop41ColorRGB
 90
-16777216
102
RTVSPost2010PropOp41
 70
     1
102
RTVSPost2010Prop42
 90
       50
102
RTVSPost2010PropOp42
 70
     1
102
RTVSPost2010Prop43
 90
        3
102
RTVSPost2010PropOp43
 70
     1
102
RTVSPost2010Prop44ColorIndex
 90
        5
102
RTVSPost2010Prop44ColorRGB
 90
      255
102
RTVSPost2010PropOp44
 70
     1
102
RTVSPost2010Prop45
280
     0
102
RTVSPost2010PropOp45
 70
     1
102
RTVSPost2010Prop46
 90
       50
102
RTVSPost2010PropOp46
 70
     1
102
RTVSPost2010Prop47
 90
       50
102
RTVSPost2010PropOp47
 70
     1
102
RTVSPost2010Prop48
 90
       50
102
RTVSPost2010PropOp48
 70
     1
102
RTVSPost2010Prop49
280
     0
102
RTVSPost2010PropOp49
 70
     1
102
RTVSPost2010Prop50
 90
       50
102
RTVSPost2010PropOp50
 70
     1
102
RTVSPost2010Prop51ColorIndex
 90
      256
102
RTVSPost2010Prop51ColorRGB
 90
-16777216
102
RTVSPost2010PropOp51
 70
     0
102
RTVSPost2010Prop52
140
1.0
102
RTVSPost2010PropOp52
 70
     0
102
RTVSPost2010Prop53
 90
        2
102
RTVSPost2010PropOp53
 70
     1
102
RTVSPost2010Prop54
  1
strokes_ogs.tif
102
RTVSPost2010PropOp54
 70
     1
102
RTVSPost2010Prop55
280
     0
102
RTVSPost2010PropOp55
 70
     1
102
RTVSPost2010Prop56
140
1.0
102
RTVSPost2010PropOp56
 70
     1
102
RTVSPost2010Prop57
140
1.0
102
RTVSPost2010PropOp57
 70
     1
  0
XRECORD
  5
101A652
102
{ACAD_REACTORS
330
101A651
102
}
330
101A651
100
AcDbXrecord
280
     1
102
RTVSPost2010Prop28
280
     0
102
RTVSPost2010PropOp28
 70
     1
102
RTVSPost2010Prop29
280
     1
102
RTVSPost2010PropOp29
 70
     1
102
RTVSPost2010Prop30
280
     1
102
RTVSPost2010PropOp30
 70
     1
102
RTVSPost2010Prop31
280
     0
102
RTVSPost2010PropOp31
 70
     1
102
RTVSPost2010Prop32
280
     0
102
RTVSPost2010PropOp32
 70
     1
102
RTVSPost2010Prop33
280
     0
102
RTVSPost2010PropOp33
 70
     1
102
RTVSPost2010Prop34
280
     0
102
RTVSPost2010PropOp34
 70
     1
102
RTVSPost2010Prop35
280
     0
102
RTVSPost2010PropOp35
 70
     1
102
RTVSPost2010Prop36
280
     0
102
RTVSPost2010PropOp36
 70
     1
102
RTVSPost2010Prop37
 90
       50
102
RTVSPost2010PropOp37
 70
     1
102
RTVSPost2010Prop38
140
0.0
102
RTVSPost2010PropOp38
 70
     1
102
RTVSPost2010Prop39
140
1.0
102
RTVSPost2010PropOp39
 70
     1
102
RTVSPost2010Prop40
 90
        0
102
RTVSPost2010PropOp40
 70
     1
102
RTVSPost2010Prop41ColorIndex
 90
       18
102
RTVSPost2010Prop41ColorRGB
 90
-16777216
102
RTVSPost2010PropOp41
 70
     1
102
RTVSPost2010Prop42
 90
       50
102
RTVSPost2010PropOp42
 70
     1
102
RTVSPost2010Prop43
 90
        3
102
RTVSPost2010PropOp43
 70
     1
102
RTVSPost2010Prop44ColorIndex
 90
        5
102
RTVSPost2010Prop44ColorRGB
 90
      255
102
RTVSPost2010PropOp44
 70
     1
102
RTVSPost2010Prop45
280
     0
102
RTVSPost2010PropOp45
 70
     1
102
RTVSPost2010Prop46
 90
       50
102
RTVSPost2010PropOp46
 70
     1
102
RTVSPost2010Prop47
 90
       50
102
RTVSPost2010PropOp47
 70
     1
102
RTVSPost2010Prop48
 90
       50
102
RTVSPost2010PropOp48
 70
     1
102
RTVSPost2010Prop49
280
     0
102
RTVSPost2010PropOp49
 70
     1
102
RTVSPost2010Prop50
 90
       50
102
RTVSPost2010PropOp50
 70
     1
102
RTVSPost2010Prop51ColorIndex
 90
      256
102
RTVSPost2010Prop51ColorRGB
 90
-16777216
102
RTVSPost2010PropOp51
 70
     0
102
RTVSPost2010Prop52
140
1.0
102
RTVSPost2010PropOp52
 70
     0
102
RTVSPost2010Prop53
 90
        2
102
RTVSPost2010PropOp53
 70
     1
102
RTVSPost2010Prop54
  1
strokes_ogs.tif
102
RTVSPost2010PropOp54
 70
     1
102
RTVSPost2010Prop55
280
     0
102
RTVSPost2010PropOp55
 70
     1
102
RTVSPost2010Prop56
140
1.0
102
RTVSPost2010PropOp56
 70
     1
102
RTVSPost2010Prop57
140
1.0
102
RTVSPost2010PropOp57
 70
     1
  0
XRECORD
  5
101A66E
102
{ACAD_REACTORS
330
101A66D
102
}
330
101A66D
100
AcDbXrecord
280
     1
102
RTVSPost2010Prop28
280
     0
102
RTVSPost2010PropOp28
 70
     0
102
RTVSPost2010Prop29
280
     1
102
RTVSPost2010PropOp29
 70
     0
102
RTVSPost2010Prop30
280
     1
102
RTVSPost2010PropOp30
 70
     0
102
RTVSPost2010Prop31
280
     0
102
RTVSPost2010PropOp31
 70
     0
102
RTVSPost2010Prop32
280
     0
102
RTVSPost2010PropOp32
 70
     0
102
RTVSPost2010Prop33
280
     0
102
RTVSPost2010PropOp33
 70
     1
102
RTVSPost2010Prop34
280
     0
102
RTVSPost2010PropOp34
 70
     1
102
RTVSPost2010Prop35
280
     0
102
RTVSPost2010PropOp35
 70
     1
102
RTVSPost2010Prop36
280
     0
102
RTVSPost2010PropOp36
 70
     1
102
RTVSPost2010Prop37
 90
       50
102
RTVSPost2010PropOp37
 70
     1
102
RTVSPost2010Prop38
140
0.0
102
RTVSPost2010PropOp38
 70
     1
102
RTVSPost2010Prop39
140
1.0
102
RTVSPost2010PropOp39
 70
     1
102
RTVSPost2010Prop40
 90
        0
102
RTVSPost2010PropOp40
 70
     1
102
RTVSPost2010Prop41ColorIndex
 90
       18
102
RTVSPost2010Prop41ColorRGB
 90
-16777216
102
RTVSPost2010PropOp41
 70
     1
102
RTVSPost2010Prop42
 90
       50
102
RTVSPost2010PropOp42
 70
     1
102
RTVSPost2010Prop43
 90
        3
102
RTVSPost2010PropOp43
 70
     1
102
RTVSPost2010Prop44ColorIndex
 90
        5
102
RTVSPost2010Prop44ColorRGB
 90
      255
102
RTVSPost2010PropOp44
 70
     1
102
RTVSPost2010Prop45
280
     0
102
RTVSPost2010PropOp45
 70
     1
102
RTVSPost2010Prop46
 90
       50
102
RTVSPost2010PropOp46
 70
     1
102
RTVSPost2010Prop47
 90
       50
102
RTVSPost2010PropOp47
 70
     1
102
RTVSPost2010Prop48
 90
       50
102
RTVSPost2010PropOp48
 70
     1
102
RTVSPost2010Prop49
280
     0
102
RTVSPost2010PropOp49
 70
     1
102
RTVSPost2010Prop50
 90
       50
102
RTVSPost2010PropOp50
 70
     1
102
RTVSPost2010Prop51ColorIndex
 90
      256
102
RTVSPost2010Prop51ColorRGB
 90
-16777216
102
RTVSPost2010PropOp51
 70
     0
102
RTVSPost2010Prop52
140
1.0
102
RTVSPost2010PropOp52
 70
     0
102
RTVSPost2010Prop53
 90
        2
102
RTVSPost2010PropOp53
 70
     1
102
RTVSPost2010Prop54
  1
strokes_ogs.tif
102
RTVSPost2010PropOp54
 70
     1
102
RTVSPost2010Prop55
280
     0
102
RTVSPost2010PropOp55
 70
     1
102
RTVSPost2010Prop56
140
1.0
102
RTVSPost2010PropOp56
 70
     1
102
RTVSPost2010Prop57
140
1.0
102
RTVSPost2010PropOp57
 70
     1
  0
XRECORD
  5
101A65E
102
{ACAD_REACTORS
330
101A65D
102
}
330
101A65D
100
AcDbXrecord
280
     1
102
RTVSPost2010Prop28
280
     0
102
RTVSPost2010PropOp28
 70
     1
102
RTVSPost2010Prop29
280
     1
102
RTVSPost2010PropOp29
 70
     1
102
RTVSPost2010Prop30
280
     1
102
RTVSPost2010PropOp30
 70
     1
102
RTVSPost2010Prop31
280
     0
102
RTVSPost2010PropOp31
 70
     1
102
RTVSPost2010Prop32
280
     0
102
RTVSPost2010PropOp32
 70
     1
102
RTVSPost2010Prop33
280
     0
102
RTVSPost2010PropOp33
 70
     1
102
RTVSPost2010Prop34
280
     0
102
RTVSPost2010PropOp34
 70
     1
102
RTVSPost2010Prop35
280
     0
102
RTVSPost2010PropOp35
 70
     1
102
RTVSPost2010Prop36
280
     0
102
RTVSPost2010PropOp36
 70
     1
102
RTVSPost2010Prop37
 90
       50
102
RTVSPost2010PropOp37
 70
     1
102
RTVSPost2010Prop38
140
0.0
102
RTVSPost2010PropOp38
 70
     1
102
RTVSPost2010Prop39
140
1.0
102
RTVSPost2010PropOp39
 70
     1
102
RTVSPost2010Prop40
 90
        0
102
RTVSPost2010PropOp40
 70
     1
102
RTVSPost2010Prop41ColorIndex
 90
       18
102
RTVSPost2010Prop41ColorRGB
 90
-16777216
102
RTVSPost2010PropOp41
 70
     1
102
RTVSPost2010Prop42
 90
       50
102
RTVSPost2010PropOp42
 70
     1
102
RTVSPost2010Prop43
 90
        3
102
RTVSPost2010PropOp43
 70
     1
102
RTVSPost2010Prop44ColorIndex
 90
        5
102
RTVSPost2010Prop44ColorRGB
 90
      255
102
RTVSPost2010PropOp44
 70
     1
102
RTVSPost2010Prop45
280
     0
102
RTVSPost2010PropOp45
 70
     1
102
RTVSPost2010Prop46
 90
       50
102
RTVSPost2010PropOp46
 70
     1
102
RTVSPost2010Prop47
 90
       50
102
RTVSPost2010PropOp47
 70
     1
102
RTVSPost2010Prop48
 90
       50
102
RTVSPost2010PropOp48
 70
     1
102
RTVSPost2010Prop49
280
     0
102
RTVSPost2010PropOp49
 70
     1
102
RTVSPost2010Prop50
 90
       50
102
RTVSPost2010PropOp50
 70
     1
102
RTVSPost2010Prop51ColorIndex
 90
      256
102
RTVSPost2010Prop51ColorRGB
 90
-16777216
102
RTVSPost2010PropOp51
 70
     0
102
RTVSPost2010Prop52
140
1.0
102
RTVSPost2010PropOp52
 70
     0
102
RTVSPost2010Prop53
 90
        2
102
RTVSPost2010PropOp53
 70
     1
102
RTVSPost2010Prop54
  1
strokes_ogs.tif
102
RTVSPost2010PropOp54
 70
     1
102
RTVSPost2010Prop55
280
     0
102
RTVSPost2010PropOp55
 70
     1
102
RTVSPost2010Prop56
140
1.0
102
RTVSPost2010PropOp56
 70
     1
102
RTVSPost2010Prop57
140
1.0
102
RTVSPost2010PropOp57
 70
     1
  0
XRECORD
  5
101A670
102
{ACAD_REACTORS
330
101A66F
102
}
330
101A66F
100
AcDbXrecord
280
     1
102
RTVSPost2010Prop28
280
     0
102
RTVSPost2010PropOp28
 70
     0
102
RTVSPost2010Prop29
280
     1
102
RTVSPost2010PropOp29
 70
     0
102
RTVSPost2010Prop30
280
     1
102
RTVSPost2010PropOp30
 70
     0
102
RTVSPost2010Prop31
280
     0
102
RTVSPost2010PropOp31
 70
     0
102
RTVSPost2010Prop32
280
     0
102
RTVSPost2010PropOp32
 70
     0
102
RTVSPost2010Prop33
280
     0
102
RTVSPost2010PropOp33
 70
     1
102
RTVSPost2010Prop34
280
     0
102
RTVSPost2010PropOp34
 70
     1
102
RTVSPost2010Prop35
280
     0
102
RTVSPost2010PropOp35
 70
     1
102
RTVSPost2010Prop36
280
     0
102
RTVSPost2010PropOp36
 70
     1
102
RTVSPost2010Prop37
 90
       50
102
RTVSPost2010PropOp37
 70
     1
102
RTVSPost2010Prop38
140
0.0
102
RTVSPost2010PropOp38
 70
     1
102
RTVSPost2010Prop39
140
1.0
102
RTVSPost2010PropOp39
 70
     1
102
RTVSPost2010Prop40
 90
        0
102
RTVSPost2010PropOp40
 70
     1
102
RTVSPost2010Prop41ColorIndex
 90
       18
102
RTVSPost2010Prop41ColorRGB
 90
-16777216
102
RTVSPost2010PropOp41
 70
     1
102
RTVSPost2010Prop42
 90
       50
102
RTVSPost2010PropOp42
 70
     1
102
RTVSPost2010Prop43
 90
        3
102
RTVSPost2010PropOp43
 70
     1
102
RTVSPost2010Prop44ColorIndex
 90
        5
102
RTVSPost2010Prop44ColorRGB
 90
      255
102
RTVSPost2010PropOp44
 70
     1
102
RTVSPost2010Prop45
280
     0
102
RTVSPost2010PropOp45
 70
     1
102
RTVSPost2010Prop46
 90
       50
102
RTVSPost2010PropOp46
 70
     1
102
RTVSPost2010Prop47
 90
       50
102
RTVSPost2010PropOp47
 70
     1
102
RTVSPost2010Prop48
 90
       50
102
RTVSPost2010PropOp48
 70
     1
102
RTVSPost2010Prop49
280
     0
102
RTVSPost2010PropOp49
 70
     1
102
RTVSPost2010Prop50
 90
       50
102
RTVSPost2010PropOp50
 70
     1
102
RTVSPost2010Prop51ColorIndex
 90
      256
102
RTVSPost2010Prop51ColorRGB
 90
-16777216
102
RTVSPost2010PropOp51
 70
     0
102
RTVSPost2010Prop52
140
1.0
102
RTVSPost2010PropOp52
 70
     0
102
RTVSPost2010Prop53
 90
        2
102
RTVSPost2010PropOp53
 70
     1
102
RTVSPost2010Prop54
  1
strokes_ogs.tif
102
RTVSPost2010PropOp54
 70
     1
102
RTVSPost2010Prop55
280
     0
102
RTVSPost2010PropOp55
 70
     1
102
RTVSPost2010Prop56
140
1.0
102
RTVSPost2010PropOp56
 70
     1
102
RTVSPost2010Prop57
140
1.0
102
RTVSPost2010PropOp57
 70
     1
  0
XRECORD
  5
101A656
102
{ACAD_REACTORS
330
101A655
102
}
330
101A655
100
AcDbXrecord
280
     1
102
RTVSPost2010Prop28
280
     0
102
RTVSPost2010PropOp28
 70
     1
102
RTVSPost2010Prop29
280
     1
102
RTVSPost2010PropOp29
 70
     1
102
RTVSPost2010Prop30
280
     1
102
RTVSPost2010PropOp30
 70
     1
102
RTVSPost2010Prop31
280
     0
102
RTVSPost2010PropOp31
 70
     1
102
RTVSPost2010Prop32
280
     0
102
RTVSPost2010PropOp32
 70
     1
102
RTVSPost2010Prop33
280
     0
102
RTVSPost2010PropOp33
 70
     1
102
RTVSPost2010Prop34
280
     0
102
RTVSPost2010PropOp34
 70
     1
102
RTVSPost2010Prop35
280
     0
102
RTVSPost2010PropOp35
 70
     1
102
RTVSPost2010Prop36
280
     0
102
RTVSPost2010PropOp36
 70
     1
102
RTVSPost2010Prop37
 90
       50
102
RTVSPost2010PropOp37
 70
     1
102
RTVSPost2010Prop38
140
0.0
102
RTVSPost2010PropOp38
 70
     1
102
RTVSPost2010Prop39
140
1.0
102
RTVSPost2010PropOp39
 70
     1
102
RTVSPost2010Prop40
 90
        0
102
RTVSPost2010PropOp40
 70
     1
102
RTVSPost2010Prop41ColorIndex
 90
       18
102
RTVSPost2010Prop41ColorRGB
 90
-16777216
102
RTVSPost2010PropOp41
 70
     1
102
RTVSPost2010Prop42
 90
       50
102
RTVSPost2010PropOp42
 70
     1
102
RTVSPost2010Prop43
 90
        3
102
RTVSPost2010PropOp43
 70
     1
102
RTVSPost2010Prop44ColorIndex
 90
        5
102
RTVSPost2010Prop44ColorRGB
 90
      255
102
RTVSPost2010PropOp44
 70
     1
102
RTVSPost2010Prop45
280
     0
102
RTVSPost2010PropOp45
 70
     1
102
RTVSPost2010Prop46
 90
       50
102
RTVSPost2010PropOp46
 70
     1
102
RTVSPost2010Prop47
 90
       50
102
RTVSPost2010PropOp47
 70
     1
102
RTVSPost2010Prop48
 90
       50
102
RTVSPost2010PropOp48
 70
     1
102
RTVSPost2010Prop49
280
     0
102
RTVSPost2010PropOp49
 70
     1
102
RTVSPost2010Prop50
 90
       50
102
RTVSPost2010PropOp50
 70
     1
102
RTVSPost2010Prop51ColorIndex
 90
      256
102
RTVSPost2010Prop51ColorRGB
 90
-16777216
102
RTVSPost2010PropOp51
 70
     0
102
RTVSPost2010Prop52
140
1.0
102
RTVSPost2010PropOp52
 70
     0
102
RTVSPost2010Prop53
 90
        2
102
RTVSPost2010PropOp53
 70
     1
102
RTVSPost2010Prop54
  1
strokes_ogs.tif
102
RTVSPost2010PropOp54
 70
     1
102
RTVSPost2010Prop55
280
     0
102
RTVSPost2010PropOp55
 70
     1
102
RTVSPost2010Prop56
140
1.0
102
RTVSPost2010PropOp56
 70
     1
102
RTVSPost2010Prop57
140
1.0
102
RTVSPost2010PropOp57
 70
     1
  0
XRECORD
  5
101A66C
102
{ACAD_REACTORS
330
101A66B
102
}
330
101A66B
100
AcDbXrecord
280
     1
102
RTVSPost2010Prop28
280
     0
102
RTVSPost2010PropOp28
 70
     1
102
RTVSPost2010Prop29
280
     1
102
RTVSPost2010PropOp29
 70
     1
102
RTVSPost2010Prop30
280
     1
102
RTVSPost2010PropOp30
 70
     1
102
RTVSPost2010Prop31
280
     0
102
RTVSPost2010PropOp31
 70
     1
102
RTVSPost2010Prop32
280
     0
102
RTVSPost2010PropOp32
 70
     1
102
RTVSPost2010Prop33
280
     0
102
RTVSPost2010PropOp33
 70
     1
102
RTVSPost2010Prop34
280
     0
102
RTVSPost2010PropOp34
 70
     1
102
RTVSPost2010Prop35
280
     0
102
RTVSPost2010PropOp35
 70
     1
102
RTVSPost2010Prop36
280
     0
102
RTVSPost2010PropOp36
 70
     1
102
RTVSPost2010Prop37
 90
       50
102
RTVSPost2010PropOp37
 70
     1
102
RTVSPost2010Prop38
140
0.0
102
RTVSPost2010PropOp38
 70
     1
102
RTVSPost2010Prop39
140
1.0
102
RTVSPost2010PropOp39
 70
     1
102
RTVSPost2010Prop40
 90
        0
102
RTVSPost2010PropOp40
 70
     1
102
RTVSPost2010Prop41ColorIndex
 90
       18
102
RTVSPost2010Prop41ColorRGB
 90
-16777216
102
RTVSPost2010PropOp41
 70
     1
102
RTVSPost2010Prop42
 90
       50
102
RTVSPost2010PropOp42
 70
     1
102
RTVSPost2010Prop43
 90
        3
102
RTVSPost2010PropOp43
 70
     1
102
RTVSPost2010Prop44ColorIndex
 90
        5
102
RTVSPost2010Prop44ColorRGB
 90
      255
102
RTVSPost2010PropOp44
 70
     1
102
RTVSPost2010Prop45
280
     0
102
RTVSPost2010PropOp45
 70
     1
102
RTVSPost2010Prop46
 90
       50
102
RTVSPost2010PropOp46
 70
     1
102
RTVSPost2010Prop47
 90
       50
102
RTVSPost2010PropOp47
 70
     1
102
RTVSPost2010Prop48
 90
       50
102
RTVSPost2010PropOp48
 70
     1
102
RTVSPost2010Prop49
280
     0
102
RTVSPost2010PropOp49
 70
     1
102
RTVSPost2010Prop50
 90
       50
102
RTVSPost2010PropOp50
 70
     1
102
RTVSPost2010Prop51ColorIndex
 90
      256
102
RTVSPost2010Prop51ColorRGB
 90
-16777216
102
RTVSPost2010PropOp51
 70
     0
102
RTVSPost2010Prop52
140
1.0
102
RTVSPost2010PropOp52
 70
     0
102
RTVSPost2010Prop53
 90
        2
102
RTVSPost2010PropOp53
 70
     1
102
RTVSPost2010Prop54
  1
strokes_ogs.tif
102
RTVSPost2010PropOp54
 70
     1
102
RTVSPost2010Prop55
280
     0
102
RTVSPost2010PropOp55
 70
     1
102
RTVSPost2010Prop56
140
1.0
102
RTVSPost2010PropOp56
 70
     1
102
RTVSPost2010Prop57
140
1.0
102
RTVSPost2010PropOp57
 70
     1
  0
XRECORD
  5
101A66A
102
{ACAD_REACTORS
330
101A669
102
}
330
101A669
100
AcDbXrecord
280
     1
102
RTVSPost2010Prop28
280
     0
102
RTVSPost2010PropOp28
 70
     1
102
RTVSPost2010Prop29
280
     1
102
RTVSPost2010PropOp29
 70
     1
102
RTVSPost2010Prop30
280
     1
102
RTVSPost2010PropOp30
 70
     1
102
RTVSPost2010Prop31
280
     0
102
RTVSPost2010PropOp31
 70
     1
102
RTVSPost2010Prop32
280
     0
102
RTVSPost2010PropOp32
 70
     1
102
RTVSPost2010Prop33
280
     0
102
RTVSPost2010PropOp33
 70
     1
102
RTVSPost2010Prop34
280
     0
102
RTVSPost2010PropOp34
 70
     1
102
RTVSPost2010Prop35
280
     0
102
RTVSPost2010PropOp35
 70
     1
102
RTVSPost2010Prop36
280
     0
102
RTVSPost2010PropOp36
 70
     1
102
RTVSPost2010Prop37
 90
       50
102
RTVSPost2010PropOp37
 70
     1
102
RTVSPost2010Prop38
140
0.0
102
RTVSPost2010PropOp38
 70
     1
102
RTVSPost2010Prop39
140
1.0
102
RTVSPost2010PropOp39
 70
     1
102
RTVSPost2010Prop40
 90
        0
102
RTVSPost2010PropOp40
 70
     1
102
RTVSPost2010Prop41ColorIndex
 90
       18
102
RTVSPost2010Prop41ColorRGB
 90
-16777216
102
RTVSPost2010PropOp41
 70
     1
102
RTVSPost2010Prop42
 90
       50
102
RTVSPost2010PropOp42
 70
     1
102
RTVSPost2010Prop43
 90
        3
102
RTVSPost2010PropOp43
 70
     1
102
RTVSPost2010Prop44ColorIndex
 90
        5
102
RTVSPost2010Prop44ColorRGB
 90
      255
102
RTVSPost2010PropOp44
 70
     1
102
RTVSPost2010Prop45
280
     0
102
RTVSPost2010PropOp45
 70
     1
102
RTVSPost2010Prop46
 90
       50
102
RTVSPost2010PropOp46
 70
     1
102
RTVSPost2010Prop47
 90
       50
102
RTVSPost2010PropOp47
 70
     1
102
RTVSPost2010Prop48
 90
       50
102
RTVSPost2010PropOp48
 70
     1
102
RTVSPost2010Prop49
280
     0
102
RTVSPost2010PropOp49
 70
     1
102
RTVSPost2010Prop50
 90
       50
102
RTVSPost2010PropOp50
 70
     1
102
RTVSPost2010Prop51ColorIndex
 90
      256
102
RTVSPost2010Prop51ColorRGB
 90
-16777216
102
RTVSPost2010PropOp51
 70
     0
102
RTVSPost2010Prop52
140
1.0
102
RTVSPost2010PropOp52
 70
     0
102
RTVSPost2010Prop53
 90
        2
102
RTVSPost2010PropOp53
 70
     1
102
RTVSPost2010Prop54
  1
strokes_ogs.tif
102
RTVSPost2010PropOp54
 70
     1
102
RTVSPost2010Prop55
280
     0
102
RTVSPost2010PropOp55
 70
     1
102
RTVSPost2010Prop56
140
1.0
102
RTVSPost2010PropOp56
 70
     1
102
RTVSPost2010Prop57
140
1.0
102
RTVSPost2010PropOp57
 70
     1
  0
XRECORD
  5
101A664
102
{ACAD_REACTORS
330
101A663
102
}
330
101A663
100
AcDbXrecord
280
     1
102
RTVSPost2010Prop28
280
     0
102
RTVSPost2010PropOp28
 70
     1
102
RTVSPost2010Prop29
280
     1
102
RTVSPost2010PropOp29
 70
     1
102
RTVSPost2010Prop30
280
     1
102
RTVSPost2010PropOp30
 70
     1
102
RTVSPost2010Prop31
280
     0
102
RTVSPost2010PropOp31
 70
     1
102
RTVSPost2010Prop32
280
     0
102
RTVSPost2010PropOp32
 70
     1
102
RTVSPost2010Prop33
280
     0
102
RTVSPost2010PropOp33
 70
     1
102
RTVSPost2010Prop34
280
     0
102
RTVSPost2010PropOp34
 70
     1
102
RTVSPost2010Prop35
280
     0
102
RTVSPost2010PropOp35
 70
     1
102
RTVSPost2010Prop36
280
     0
102
RTVSPost2010PropOp36
 70
     1
102
RTVSPost2010Prop37
 90
       50
102
RTVSPost2010PropOp37
 70
     1
102
RTVSPost2010Prop38
140
0.0
102
RTVSPost2010PropOp38
 70
     1
102
RTVSPost2010Prop39
140
1.0
102
RTVSPost2010PropOp39
 70
     1
102
RTVSPost2010Prop40
 90
        0
102
RTVSPost2010PropOp40
 70
     1
102
RTVSPost2010Prop41ColorIndex
 90
       18
102
RTVSPost2010Prop41ColorRGB
 90
-16777216
102
RTVSPost2010PropOp41
 70
     1
102
RTVSPost2010Prop42
 90
       50
102
RTVSPost2010PropOp42
 70
     1
102
RTVSPost2010Prop43
 90
        3
102
RTVSPost2010PropOp43
 70
     1
102
RTVSPost2010Prop44ColorIndex
 90
        5
102
RTVSPost2010Prop44ColorRGB
 90
      255
102
RTVSPost2010PropOp44
 70
     1
102
RTVSPost2010Prop45
280
     0
102
RTVSPost2010PropOp45
 70
     1
102
RTVSPost2010Prop46
 90
       50
102
RTVSPost2010PropOp46
 70
     1
102
RTVSPost2010Prop47
 90
       50
102
RTVSPost2010PropOp47
 70
     1
102
RTVSPost2010Prop48
 90
       50
102
RTVSPost2010PropOp48
 70
     1
102
RTVSPost2010Prop49
280
     0
102
RTVSPost2010PropOp49
 70
     1
102
RTVSPost2010Prop50
 90
       50
102
RTVSPost2010PropOp50
 70
     1
102
RTVSPost2010Prop51ColorIndex
 90
      256
102
RTVSPost2010Prop51ColorRGB
 90
-16777216
102
RTVSPost2010PropOp51
 70
     0
102
RTVSPost2010Prop52
140
1.0
102
RTVSPost2010PropOp52
 70
     0
102
RTVSPost2010Prop53
 90
        2
102
RTVSPost2010PropOp53
 70
     1
102
RTVSPost2010Prop54
  1
strokes_ogs.tif
102
RTVSPost2010PropOp54
 70
     1
102
RTVSPost2010Prop55
280
     0
102
RTVSPost2010PropOp55
 70
     1
102
RTVSPost2010Prop56
140
1.0
102
RTVSPost2010PropOp56
 70
     1
102
RTVSPost2010Prop57
140
1.0
102
RTVSPost2010PropOp57
 70
     1
  0
XRECORD
  5
101A666
102
{ACAD_REACTORS
330
101A665
102
}
330
101A665
100
AcDbXrecord
280
     1
102
RTVSPost2010Prop28
280
     0
102
RTVSPost2010PropOp28
 70
     1
102
RTVSPost2010Prop29
280
     1
102
RTVSPost2010PropOp29
 70
     1
102
RTVSPost2010Prop30
280
     1
102
RTVSPost2010PropOp30
 70
     1
102
RTVSPost2010Prop31
280
     0
102
RTVSPost2010PropOp31
 70
     1
102
RTVSPost2010Prop32
280
     0
102
RTVSPost2010PropOp32
 70
     1
102
RTVSPost2010Prop33
280
     0
102
RTVSPost2010PropOp33
 70
     1
102
RTVSPost2010Prop34
280
     0
102
RTVSPost2010PropOp34
 70
     1
102
RTVSPost2010Prop35
280
     0
102
RTVSPost2010PropOp35
 70
     1
102
RTVSPost2010Prop36
280
     0
102
RTVSPost2010PropOp36
 70
     1
102
RTVSPost2010Prop37
 90
       50
102
RTVSPost2010PropOp37
 70
     1
102
RTVSPost2010Prop38
140
0.0
102
RTVSPost2010PropOp38
 70
     1
102
RTVSPost2010Prop39
140
1.0
102
RTVSPost2010PropOp39
 70
     1
102
RTVSPost2010Prop40
 90
        0
102
RTVSPost2010PropOp40
 70
     1
102
RTVSPost2010Prop41ColorIndex
 90
       18
102
RTVSPost2010Prop41ColorRGB
 90
-16777216
102
RTVSPost2010PropOp41
 70
     1
102
RTVSPost2010Prop42
 90
       50
102
RTVSPost2010PropOp42
 70
     1
102
RTVSPost2010Prop43
 90
        3
102
RTVSPost2010PropOp43
 70
     1
102
RTVSPost2010Prop44ColorIndex
 90
        5
102
RTVSPost2010Prop44ColorRGB
 90
      255
102
RTVSPost2010PropOp44
 70
     1
102
RTVSPost2010Prop45
280
     0
102
RTVSPost2010PropOp45
 70
     1
102
RTVSPost2010Prop46
 90
       50
102
RTVSPost2010PropOp46
 70
     1
102
RTVSPost2010Prop47
 90
       50
102
RTVSPost2010PropOp47
 70
     1
102
RTVSPost2010Prop48
 90
       50
102
RTVSPost2010PropOp48
 70
     1
102
RTVSPost2010Prop49
280
     0
102
RTVSPost2010PropOp49
 70
     1
102
RTVSPost2010Prop50
 90
       50
102
RTVSPost2010PropOp50
 70
     1
102
RTVSPost2010Prop51ColorIndex
 90
      256
102
RTVSPost2010Prop51ColorRGB
 90
-16777216
102
RTVSPost2010PropOp51
 70
     0
102
RTVSPost2010Prop52
140
1.0
102
RTVSPost2010PropOp52
 70
     0
102
RTVSPost2010Prop53
 90
        2
102
RTVSPost2010PropOp53
 70
     1
102
RTVSPost2010Prop54
  1
strokes_ogs.tif
102
RTVSPost2010PropOp54
 70
     1
102
RTVSPost2010Prop55
280
     0
102
RTVSPost2010PropOp55
 70
     1
102
RTVSPost2010Prop56
140
1.0
102
RTVSPost2010PropOp56
 70
     1
102
RTVSPost2010Prop57
140
1.0
102
RTVSPost2010PropOp57
 70
     1
  0
XRECORD
  5
101A65C
102
{ACAD_REACTORS
330
101A65B
102
}
330
101A65B
100
AcDbXrecord
280
     1
102
RTVSPost2010Prop28
280
     0
102
RTVSPost2010PropOp28
 70
     1
102
RTVSPost2010Prop29
280
     1
102
RTVSPost2010PropOp29
 70
     1
102
RTVSPost2010Prop30
280
     1
102
RTVSPost2010PropOp30
 70
     1
102
RTVSPost2010Prop31
280
     0
102
RTVSPost2010PropOp31
 70
     1
102
RTVSPost2010Prop32
280
     0
102
RTVSPost2010PropOp32
 70
     1
102
RTVSPost2010Prop33
280
     0
102
RTVSPost2010PropOp33
 70
     1
102
RTVSPost2010Prop34
280
     0
102
RTVSPost2010PropOp34
 70
     1
102
RTVSPost2010Prop35
280
     0
102
RTVSPost2010PropOp35
 70
     1
102
RTVSPost2010Prop36
280
     0
102
RTVSPost2010PropOp36
 70
     1
102
RTVSPost2010Prop37
 90
       50
102
RTVSPost2010PropOp37
 70
     1
102
RTVSPost2010Prop38
140
0.0
102
RTVSPost2010PropOp38
 70
     1
102
RTVSPost2010Prop39
140
1.0
102
RTVSPost2010PropOp39
 70
     1
102
RTVSPost2010Prop40
 90
        0
102
RTVSPost2010PropOp40
 70
     1
102
RTVSPost2010Prop41ColorIndex
 90
       18
102
RTVSPost2010Prop41ColorRGB
 90
-16777216
102
RTVSPost2010PropOp41
 70
     1
102
RTVSPost2010Prop42
 90
       50
102
RTVSPost2010PropOp42
 70
     1
102
RTVSPost2010Prop43
 90
        3
102
RTVSPost2010PropOp43
 70
     1
102
RTVSPost2010Prop44ColorIndex
 90
        5
102
RTVSPost2010Prop44ColorRGB
 90
      255
102
RTVSPost2010PropOp44
 70
     1
102
RTVSPost2010Prop45
280
     0
102
RTVSPost2010PropOp45
 70
     1
102
RTVSPost2010Prop46
 90
       50
102
RTVSPost2010PropOp46
 70
     1
102
RTVSPost2010Prop47
 90
       50
102
RTVSPost2010PropOp47
 70
     1
102
RTVSPost2010Prop48
 90
       50
102
RTVSPost2010PropOp48
 70
     1
102
RTVSPost2010Prop49
280
     0
102
RTVSPost2010PropOp49
 70
     1
102
RTVSPost2010Prop50
 90
       50
102
RTVSPost2010PropOp50
 70
     1
102
RTVSPost2010Prop51ColorIndex
 90
      256
102
RTVSPost2010Prop51ColorRGB
 90
-16777216
102
RTVSPost2010PropOp51
 70
     0
102
RTVSPost2010Prop52
140
1.0
102
RTVSPost2010PropOp52
 70
     0
102
RTVSPost2010Prop53
 90
        2
102
RTVSPost2010PropOp53
 70
     1
102
RTVSPost2010Prop54
  1
strokes_ogs.tif
102
RTVSPost2010PropOp54
 70
     1
102
RTVSPost2010Prop55
280
     0
102
RTVSPost2010PropOp55
 70
     1
102
RTVSPost2010Prop56
140
1.0
102
RTVSPost2010PropOp56
 70
     1
102
RTVSPost2010Prop57
140
1.0
102
RTVSPost2010PropOp57
 70
     1
  0
XRECORD
  5
101A650
102
{ACAD_REACTORS
330
101A64F
102
}
330
101A64F
100
AcDbXrecord
280
     1
102
RTVSPost2010Prop28
280
     0
102
RTVSPost2010PropOp28
 70
     1
102
RTVSPost2010Prop29
280
     1
102
RTVSPost2010PropOp29
 70
     1
102
RTVSPost2010Prop30
280
     1
102
RTVSPost2010PropOp30
 70
     1
102
RTVSPost2010Prop31
280
     0
102
RTVSPost2010PropOp31
 70
     1
102
RTVSPost2010Prop32
280
     0
102
RTVSPost2010PropOp32
 70
     1
102
RTVSPost2010Prop33
280
     0
102
RTVSPost2010PropOp33
 70
     1
102
RTVSPost2010Prop34
280
     0
102
RTVSPost2010PropOp34
 70
     1
102
RTVSPost2010Prop35
280
     0
102
RTVSPost2010PropOp35
 70
     1
102
RTVSPost2010Prop36
280
     0
102
RTVSPost2010PropOp36
 70
     1
102
RTVSPost2010Prop37
 90
       50
102
RTVSPost2010PropOp37
 70
     1
102
RTVSPost2010Prop38
140
0.0
102
RTVSPost2010PropOp38
 70
     1
102
RTVSPost2010Prop39
140
1.0
102
RTVSPost2010PropOp39
 70
     1
102
RTVSPost2010Prop40
 90
        0
102
RTVSPost2010PropOp40
 70
     1
102
RTVSPost2010Prop41ColorIndex
 90
       18
102
RTVSPost2010Prop41ColorRGB
 90
-16777216
102
RTVSPost2010PropOp41
 70
     1
102
RTVSPost2010Prop42
 90
       50
102
RTVSPost2010PropOp42
 70
     1
102
RTVSPost2010Prop43
 90
        3
102
RTVSPost2010PropOp43
 70
     1
102
RTVSPost2010Prop44ColorIndex
 90
        5
102
RTVSPost2010Prop44ColorRGB
 90
      255
102
RTVSPost2010PropOp44
 70
     1
102
RTVSPost2010Prop45
280
     0
102
RTVSPost2010PropOp45
 70
     1
102
RTVSPost2010Prop46
 90
       50
102
RTVSPost2010PropOp46
 70
     1
102
RTVSPost2010Prop47
 90
       50
102
RTVSPost2010PropOp47
 70
     1
102
RTVSPost2010Prop48
 90
       50
102
RTVSPost2010PropOp48
 70
     1
102
RTVSPost2010Prop49
280
     0
102
RTVSPost2010PropOp49
 70
     1
102
RTVSPost2010Prop50
 90
       50
102
RTVSPost2010PropOp50
 70
     1
102
RTVSPost2010Prop51ColorIndex
 90
      256
102
RTVSPost2010Prop51ColorRGB
 90
-16777216
102
RTVSPost2010PropOp51
 70
     0
102
RTVSPost2010Prop52
140
1.0
102
RTVSPost2010PropOp52
 70
     0
102
RTVSPost2010Prop53
 90
        2
102
RTVSPost2010PropOp53
 70
     1
102
RTVSPost2010Prop54
  1
strokes_ogs.tif
102
RTVSPost2010PropOp54
 70
     1
102
RTVSPost2010Prop55
280
     0
102
RTVSPost2010PropOp55
 70
     1
102
RTVSPost2010Prop56
140
1.0
102
RTVSPost2010PropOp56
 70
     1
102
RTVSPost2010Prop57
140
1.0
102
RTVSPost2010PropOp57
 70
     1
  0
XRECORD
  5
101A668
102
{ACAD_REACTORS
330
101A667
102
}
330
101A667
100
AcDbXrecord
280
     1
102
RTVSPost2010Prop28
280
     0
102
RTVSPost2010PropOp28
 70
     1
102
RTVSPost2010Prop29
280
     1
102
RTVSPost2010PropOp29
 70
     1
102
RTVSPost2010Prop30
280
     1
102
RTVSPost2010PropOp30
 70
     1
102
RTVSPost2010Prop31
280
     0
102
RTVSPost2010PropOp31
 70
     1
102
RTVSPost2010Prop32
280
     0
102
RTVSPost2010PropOp32
 70
     1
102
RTVSPost2010Prop33
280
     0
102
RTVSPost2010PropOp33
 70
     1
102
RTVSPost2010Prop34
280
     0
102
RTVSPost2010PropOp34
 70
     1
102
RTVSPost2010Prop35
280
     0
102
RTVSPost2010PropOp35
 70
     1
102
RTVSPost2010Prop36
280
     0
102
RTVSPost2010PropOp36
 70
     1
102
RTVSPost2010Prop37
 90
       50
102
RTVSPost2010PropOp37
 70
     1
102
RTVSPost2010Prop38
140
0.0
102
RTVSPost2010PropOp38
 70
     1
102
RTVSPost2010Prop39
140
1.0
102
RTVSPost2010PropOp39
 70
     1
102
RTVSPost2010Prop40
 90
        0
102
RTVSPost2010PropOp40
 70
     1
102
RTVSPost2010Prop41ColorIndex
 90
       18
102
RTVSPost2010Prop41ColorRGB
 90
-16777216
102
RTVSPost2010PropOp41
 70
     1
102
RTVSPost2010Prop42
 90
       50
102
RTVSPost2010PropOp42
 70
     1
102
RTVSPost2010Prop43
 90
        3
102
RTVSPost2010PropOp43
 70
     1
102
RTVSPost2010Prop44ColorIndex
 90
        5
102
RTVSPost2010Prop44ColorRGB
 90
      255
102
RTVSPost2010PropOp44
 70
     1
102
RTVSPost2010Prop45
280
     0
102
RTVSPost2010PropOp45
 70
     1
102
RTVSPost2010Prop46
 90
       50
102
RTVSPost2010PropOp46
 70
     1
102
RTVSPost2010Prop47
 90
       50
102
RTVSPost2010PropOp47
 70
     1
102
RTVSPost2010Prop48
 90
       50
102
RTVSPost2010PropOp48
 70
     1
102
RTVSPost2010Prop49
280
     0
102
RTVSPost2010PropOp49
 70
     1
102
RTVSPost2010Prop50
 90
       50
102
RTVSPost2010PropOp50
 70
     1
102
RTVSPost2010Prop51ColorIndex
 90
      256
102
RTVSPost2010Prop51ColorRGB
 90
-16777216
102
RTVSPost2010PropOp51
 70
     0
102
RTVSPost2010Prop52
140
1.0
102
RTVSPost2010PropOp52
 70
     0
102
RTVSPost2010Prop53
 90
        2
102
RTVSPost2010PropOp53
 70
     1
102
RTVSPost2010Prop54
  1
strokes_ogs.tif
102
RTVSPost2010PropOp54
 70
     1
102
RTVSPost2010Prop55
280
     0
102
RTVSPost2010PropOp55
 70
     1
102
RTVSPost2010Prop56
140
1.0
102
RTVSPost2010PropOp56
 70
     1
102
RTVSPost2010Prop57
140
1.0
102
RTVSPost2010PropOp57
 70
     1
  0
ENDSEC
  0
EOF
