  0
SECTION
  2
HEADER
  9
$ACADVER
  1
AC1024
  9
$ACADMAINTVER
 70
   226
  9
$DWGCODEPAGE
  3
ANSI_932
  9
$LASTSAVEDBY
  1
hirotaka.yamamoto
  9
$INSBASE
 10
0.0
 20
0.0
 30
0.0
  9
$EXTMIN
 10
37.57999272084187
 20
12.15382303547247
 30
0.0
  9
$EXTMAX
 10
399.1648985717922
 20
128.8990762430912
 30
0.0
  9
$LIMMIN
 10
0.0
 20
0.0
  9
$LIMMAX
 10
420.0
 20
297.0
  9
$ORTHOMODE
 70
     0
  9
$REGENMODE
 70
     1
  9
$FILLMODE
 70
     1
  9
$QTEXTMODE
 70
     0
  9
$MIRRTEXT
 70
     1
  9
$LTSCALE
 40
1.0
  9
$ATTMODE
 70
     1
  9
$TEXTSIZE
 40
2.5
  9
$TRACEWID
 40
1.0
  9
$TEXTSTYLE
  7
STANDARD
  9
$CLAYER
  8
0
  9
$CELTYPE
  6
ByLayer
  9
$CECOLOR
 62
   256
  9
$CELTSCALE
 40
1.0
  9
$DISPSILH
 70
     0
  9
$DIMSCALE
 40
1.0
  9
$DIMASZ
 40
2.5
  9
$DIMEXO
 40
0.625
  9
$DIMDLI
 40
3.75
  9
$DIMRND
 40
0.0
  9
$DIMDLE
 40
0.0
  9
$DIMEXE
 40
1.25
  9
$DIMTP
 40
0.0
  9
$DIMTM
 40
0.0
  9
$DIMTXT
 40
2.5
  9
$DIMCEN
 40
2.5
  9
$DIMTSZ
 40
0.0
  9
$DIMTOL
 70
     0
  9
$DIMLIM
 70
     0
  9
$DIMTIH
 70
     0
  9
$DIMTOH
 70
     0
  9
$DIMSE1
 70
     0
  9
$DIMSE2
 70
     0
  9
$DIMTAD
 70
     1
  9
$DIMZIN
 70
     8
  9
$DIMBLK
  1

  9
$DIMASO
 70
     1
  9
$DIMSHO
 70
     1
  9
$DIMPOST
  1

  9
$DIMAPOST
  1

  9
$DIMALT
 70
     0
  9
$DIMALTD
 70
     3
  9
$DIMALTF
 40
0.03937007874016
  9
$DIMLFAC
 40
1.0
  9
$DIMTOFL
 70
     1
  9
$DIMTVP
 40
0.0
  9
$DIMTIX
 70
     0
  9
$DIMSOXD
 70
     0
  9
$DIMSAH
 70
     0
  9
$DIMBLK1
  1

  9
$DIMBLK2
  1

  9
$DIMSTYLE
  2
ISO-25
  9
$DIMCLRD
 70
     0
  9
$DIMCLRE
 70
     0
  9
$DIMCLRT
 70
     0
  9
$DIMTFAC
 40
1.0
  9
$DIMGAP
 40
0.625
  9
$DIMJUST
 70
     0
  9
$DIMSD1
 70
     0
  9
$DIMSD2
 70
     0
  9
$DIMTOLJ
 70
     1
  9
$DIMTZIN
 70
     0
  9
$DIMALTZ
 70
     0
  9
$DIMALTTZ
 70
     0
  9
$DIMUPT
 70
     0
  9
$DIMDEC
 70
     4
  9
$DIMTDEC
 70
     4
  9
$DIMALTU
 70
     2
  9
$DIMALTTD
 70
     2
  9
$DIMTXSTY
  7
STANDARD
  9
$DIMAUNIT
 70
     0
  9
$DIMADEC
 70
     0
  9
$DIMALTRND
 40
0.0
  9
$DIMAZIN
 70
     0
  9
$DIMDSEP
 70
    46
  9
$DIMATFIT
 70
     3
  9
$DIMFRAC
 70
     0
  9
$DIMLDRBLK
  1

  9
$DIMLUNIT
 70
     2
  9
$DIMLWD
 70
    -2
  9
$DIMLWE
 70
    -2
  9
$DIMTMOVE
 70
     0
  9
$DIMFXL
 40
1.0
  9
$DIMFXLON
 70
     0
  9
$DIMJOGANG
 40
0.7853981633974483
  9
$DIMTFILL
 70
     0
  9
$DIMTFILLCLR
 70
     0
  9
$DIMARCSYM
 70
     0
  9
$DIMLTYPE
  6

  9
$DIMLTEX1
  6

  9
$DIMLTEX2
  6

  9
$DIMTXTDIRECTION
 70
     0
  9
$LUNITS
 70
     2
  9
$LUPREC
 70
     4
  9
$SKETCHINC
 40
1.0
  9
$FILLETRAD
 40
10.0
  9
$AUNITS
 70
     0
  9
$AUPREC
 70
     0
  9
$MENU
  1
.
  9
$ELEVATION
 40
0.0
  9
$PELEVATION
 40
0.0
  9
$THICKNESS
 40
0.0
  9
$LIMCHECK
 70
     0
  9
$CHAMFERA
 40
10.0
  9
$CHAMFERB
 40
10.0
  9
$CHAMFERC
 40
0.0
  9
$CHAMFERD
 40
0.0
  9
$SKPOLY
 70
     0
  9
$TDCREATE
 40
2452048.587870371
  9
$TDUCREATE
 40
2452048.212870371
  9
$TDUPDATE
 40
2459732.677696759
  9
$TDUUPDATE
 40
2459732.302696759
  9
$TDINDWG
 40
0.0679768056
  9
$TDUSRTIMER
 40
0.0679768056
  9
$USRTIMER
 70
     1
  9
$ANGBASE
 50
0.0
  9
$ANGDIR
 70
     0
  9
$PDMODE
 70
     0
  9
$PDSIZE
 40
0.0
  9
$PLINEWID
 40
0.0
  9
$SPLFRAME
 70
     0
  9
$SPLINETYPE
 70
     6
  9
$SPLINESEGS
 70
     8
  9
$HANDSEED
  5
85A2
  9
$SURFTAB1
 70
     6
  9
$SURFTAB2
 70
     6
  9
$SURFTYPE
 70
     6
  9
$SURFU
 70
     6
  9
$SURFV
 70
     6
  9
$UCSBASE
  2

  9
$UCSNAME
  2

  9
$UCSORG
 10
0.0
 20
0.0
 30
0.0
  9
$UCSXDIR
 10
1.0
 20
0.0
 30
0.0
  9
$UCSYDIR
 10
0.0
 20
1.0
 30
0.0
  9
$UCSORTHOREF
  2

  9
$UCSORTHOVIEW
 70
     0
  9
$UCSORGTOP
 10
0.0
 20
0.0
 30
0.0
  9
$UCSORGBOTTOM
 10
0.0
 20
0.0
 30
0.0
  9
$UCSORGLEFT
 10
0.0
 20
0.0
 30
0.0
  9
$UCSORGRIGHT
 10
0.0
 20
0.0
 30
0.0
  9
$UCSORGFRONT
 10
0.0
 20
0.0
 30
0.0
  9
$UCSORGBACK
 10
0.0
 20
0.0
 30
0.0
  9
$PUCSBASE
  2

  9
$PUCSNAME
  2

  9
$PUCSORG
 10
0.0
 20
0.0
 30
0.0
  9
$PUCSXDIR
 10
1.0
 20
0.0
 30
0.0
  9
$PUCSYDIR
 10
0.0
 20
1.0
 30
0.0
  9
$PUCSORTHOREF
  2

  9
$PUCSORTHOVIEW
 70
     0
  9
$PUCSORGTOP
 10
0.0
 20
0.0
 30
0.0
  9
$PUCSORGBOTTOM
 10
0.0
 20
0.0
 30
0.0
  9
$PUCSORGLEFT
 10
0.0
 20
0.0
 30
0.0
  9
$PUCSORGRIGHT
 10
0.0
 20
0.0
 30
0.0
  9
$PUCSORGFRONT
 10
0.0
 20
0.0
 30
0.0
  9
$PUCSORGBACK
 10
0.0
 20
0.0
 30
0.0
  9
$USERI1
 70
     0
  9
$USERI2
 70
     0
  9
$USERI3
 70
     0
  9
$USERI4
 70
     0
  9
$USERI5
 70
     0
  9
$USERR1
 40
0.0
  9
$USERR2
 40
0.0
  9
$USERR3
 40
0.0
  9
$USERR4
 40
0.0
  9
$USERR5
 40
0.0
  9
$WORLDVIEW
 70
     1
  9
$SHADEDGE
 70
     3
  9
$SHADEDIF
 70
    70
  9
$TILEMODE
 70
     1
  9
$MAXACTVP
 70
    64
  9
$PINSBASE
 10
0.0
 20
0.0
 30
0.0
  9
$PLIMCHECK
 70
     0
  9
$PEXTMIN
 10
1.000000000000000E+20
 20
1.000000000000000E+20
 30
1.000000000000000E+20
  9
$PEXTMAX
 10
-1.000000000000000E+20
 20
-1.000000000000000E+20
 30
-1.000000000000000E+20
  9
$PLIMMIN
 10
0.0
 20
0.0
  9
$PLIMMAX
 10
420.0
 20
297.0
  9
$UNITMODE
 70
     0
  9
$VISRETAIN
 70
     1
  9
$PLINEGEN
 70
     0
  9
$PSLTSCALE
 70
     1
  9
$TREEDEPTH
 70
  3020
  9
$CMLSTYLE
  2
Standard
  9
$CMLJUST
 70
     0
  9
$CMLSCALE
 40
1.0
  9
$PROXYGRAPHICS
 70
     1
  9
$MEASUREMENT
 70
     0
  9
$CELWEIGHT
370
    -1
  9
$ENDCAPS
280
     0
  9
$JOINSTYLE
280
     0
  9
$LWDISPLAY
290
     0
  9
$INSUNITS
 70
     0
  9
$HYPERLINKBASE
  1

  9
$STYLESHEET
  1

  9
$XEDIT
290
     1
  9
$CEPSNTYPE
380
     0
  9
$PSTYLEMODE
290
     1
  9
$FINGERPRINTGUID
  2
{6E245959-CEC3-9848-B44D-48DF311A206B}
  9
$VERSIONGUID
  2
{D2B08D61-FDA2-FB44-B1F7-2DAAC1B83857}
  9
$EXTNAMES
290
     1
  9
$PSVPSCALE
 40
0.0
  9
$OLESTARTUP
290
     0
  9
$SORTENTS
280
   127
  9
$INDEXCTL
280
     0
  9
$HIDETEXT
280
     0
  9
$XCLIPFRAME
280
     2
  9
$HALOGAP
280
     0
  9
$OBSCOLOR
 70
   257
  9
$OBSLTYPE
280
     0
  9
$INTERSECTIONDISPLAY
280
     0
  9
$INTERSECTIONCOLOR
 70
   257
  9
$DIMASSOC
280
     1
  9
$PROJECTNAME
  1

  9
$CAMERADISPLAY
290
     0
  9
$LENSLENGTH
 40
50.0
  9
$CAMERAHEIGHT
 40
0.0
  9
$STEPSPERSEC
 40
2.0
  9
$STEPSIZE
 40
6.0
  9
$3DDWFPREC
 40
2.0
  9
$PSOLWIDTH
 40
0.25
  9
$PSOLHEIGHT
 40
4.0
  9
$LOFTANG1
 40
1.570796326794896
  9
$LOFTANG2
 40
1.570796326794896
  9
$LOFTMAG1
 40
0.0
  9
$LOFTMAG2
 40
0.0
  9
$LOFTPARAM
 70
     7
  9
$LOFTNORMALS
280
     1
  9
$LATITUDE
 40
37.795
  9
$LONGITUDE
 40
-122.394
  9
$NORTHDIRECTION
 40
0.0
  9
$TIMEZONE
 70
 -8000
  9
$LIGHTGLYPHDISPLAY
280
     1
  9
$TILEMODELIGHTSYNCH
280
     1
  9
$CMATERIAL
347
7069
  9
$SOLIDHIST
280
     0
  9
$SHOWHIST
280
     1
  9
$DWFFRAME
280
     2
  9
$DGNFRAME
280
     0
  9
$REALWORLDSCALE
290
     1
  9
$INTERFERECOLOR
 62
     1
  9
$INTERFEREOBJVS
345
708B
  9
$INTERFEREVPVS
346
7088
  9
$CSHADOW
280
     0
  9
$SHADOWPLANELOCATION
 40
0.0
  0
ENDSEC
  0
SECTION
  2
CLASSES
  0
CLASS
  1
ACDBDICTIONARYWDFLT
  2
AcDbDictionaryWithDefault
  3
ObjectDBX Classes
 90
        0
 91
        1
280
     0
281
     0
  0
CLASS
  1
MATERIAL
  2
AcDbMaterial
  3
ObjectDBX Classes
 90
     1153
 91
        3
280
     0
281
     0
  0
CLASS
  1
VISUALSTYLE
  2
AcDbVisualStyle
  3
ObjectDBX Classes
 90
     4095
 91
       24
280
     0
281
     0
  0
CLASS
  1
SCALE
  2
AcDbScale
  3
ObjectDBX Classes
 90
     1153
 91
       17
280
     0
281
     0
  0
CLASS
  1
TABLESTYLE
  2
AcDbTableStyle
  3
ObjectDBX Classes
 90
     4095
 91
        1
280
     0
281
     0
  0
CLASS
  1
MLEADERSTYLE
  2
AcDbMLeaderStyle
  3
ACDB_MLEADERSTYLE_CLASS
 90
     4095
 91
        1
280
     0
281
     0
  0
CLASS
  1
ACDBSECTIONVIEWSTYLE
  2
AcDbSectionViewStyle
  3
ObjectDBX Classes
 90
     1025
 91
        2
280
     0
281
     0
  0
CLASS
  1
ACDBDETAILVIEWSTYLE
  2
AcDbDetailViewStyle
  3
ObjectDBX Classes
 90
     1025
 91
        2
280
     0
281
     0
  0
CLASS
  1
SORTENTSTABLE
  2
AcDbSortentsTable
  3
ObjectDBX Classes
 90
        0
 91
        3
280
     0
281
     0
  0
CLASS
  1
DICTIONARYVAR
  2
AcDbDictionaryVar
  3
ObjectDBX Classes
 90
        0
 91
       27
280
     0
281
     0
  0
CLASS
  1
CELLSTYLEMAP
  2
AcDbCellStyleMap
  3
ObjectDBX Classes
 90
     1152
 91
        1
280
     0
281
     0
  0
ENDSEC
  0
SECTION
  2
TABLES
  0
TABLE
  2
VPORT
  5
7060
330
0
100
AcDbSymbolTable
 70
     1
  0
VPORT
  5
70CB
330
7060
100
AcDbSymbolTableRecord
100
AcDbViewportTableRecord
  2
*ACTIVE
 70
     0
 10
0.0
 20
0.0
 11
1.0
 21
1.0
 12
343.4306693910565
 22
79.2971255005373
 13
0.0
 23
0.0
 14
10.0
 24
10.0
 15
10.0
 25
10.0
 16
0.0
 26
0.0
 36
1.0
 17
0.0
 27
0.0
 37
0.0
 40
166.2426516017909
 41
1.896758703481392
 42
50.0
 43
0.0
 44
0.0
 50
0.0
 51
0.0
 71
     0
 72
   100
 73
     1
 74
     3
 75
     0
 76
     0
 77
     0
 78
     0
281
     0
 65
     1
110
0.0
120
0.0
130
0.0
111
1.0
121
0.0
131
0.0
112
0.0
122
1.0
132
0.0
 79
     0
146
0.0
348
7087
 60
     3
 61
     5
292
     1
282
     0
141
0.0
142
0.0
 63
   250
421
  3355443
1001
ACAD_NAV_VCDISPLAY
1070
     3
  0
ENDTAB
  0
TABLE
  2
LTYPE
  5
705D
330
0
100
AcDbSymbolTable
 70
     3
  0
LTYPE
  5
70B2
330
705D
100
AcDbSymbolTableRecord
100
AcDbLinetypeTableRecord
  2
ByBlock
 70
     0
  3

 72
    65
 73
     0
 40
0.0
  0
LTYPE
  5
70B3
330
705D
100
AcDbSymbolTableRecord
100
AcDbLinetypeTableRecord
  2
ByLayer
 70
     0
  3

 72
    65
 73
     0
 40
0.0
  0
LTYPE
  5
70B4
330
705D
100
AcDbSymbolTableRecord
100
AcDbLinetypeTableRecord
  2
CONTINUOUS
 70
     0
  3
Solid line
 72
    65
 73
     0
 40
0.0
  0
LTYPE
  5
70DA
330
705D
100
AcDbSymbolTableRecord
100
AcDbLinetypeTableRecord
  2
CENTERLINE
 70
     0
  3
_ 
 72
    65
 73
     5
 40
30.0
 49
12.0
 74
     0
 49
-1.5
 74
     0
 49
3.0
 74
     0
 49
-1.5
 74
     0
 49
12.0
 74
     0
  0
ENDTAB
  0
TABLE
  2
LAYER
  5
705A
102
{ACAD_XDICTIONARY
360
70DF
102
}
330
0
100
AcDbSymbolTable
 70
     5
  0
LAYER
  5
70AC
102
{ACAD_XDICTIONARY
360
8555
102
}
330
705A
100
AcDbSymbolTableRecord
100
AcDbLayerTableRecord
  2
0
 70
     0
 62
     7
  6
CONTINUOUS
370
    -3
390
7067
347
7079
  0
LAYER
  5
70CC
102
{ACAD_XDICTIONARY
360
8557
102
}
330
705A
100
AcDbSymbolTableRecord
100
AcDbLayerTableRecord
  2
1外形線
 70
     0
 62
     3
  6
CONTINUOUS
370
    -3
390
7067
347
7079
  0
LAYER
  5
70CD
102
{ACAD_XDICTIONARY
360
8559
102
}
330
705A
100
AcDbSymbolTableRecord
100
AcDbLayerTableRecord
  2
4太線
 70
     0
 62
     6
  6
CONTINUOUS
370
    -3
390
7067
347
7079
  0
LAYER
  5
70DB
102
{ACAD_XDICTIONARY
360
70DC
102
}
330
705A
100
AcDbSymbolTableRecord
100
AcDbLayerTableRecord
  2
2寸法線
 70
     0
 62
     2
  6
CONTINUOUS
370
    -3
390
7067
347
7079
  0
LAYER
  5
7629
102
{ACAD_XDICTIONARY
360
762A
102
}
330
705A
100
AcDbSymbolTableRecord
100
AcDbLayerTableRecord
  2
2
 70
     0
 62
     7
  6
CONTINUOUS
370
    -3
390
7067
347
7079
  0
ENDTAB
  0
TABLE
  2
STYLE
  5
705B
330
0
100
AcDbSymbolTable
 70
     3
  0
STYLE
  5
70AD
330
705B
100
AcDbSymbolTableRecord
100
AcDbTextStyleTableRecord
  2
STANDARD
 70
     0
 40
0.0
 41
1.0
 50
0.0
 71
     0
 42
2.5
  3
txt
  4

  0
STYLE
  5
70B1
330
705B
100
AcDbSymbolTableRecord
100
AcDbTextStyleTableRecord
  2
Annotative
 70
     0
 40
0.0
 41
1.0
 50
0.0
 71
     0
 42
0.2
  3
txt
  4

1001
AcadAnnotative
1000
AnnotativeData
1002
{
1070
     1
1070
     1
1002
}
  0
STYLE
  5
70CE
330
705B
100
AcDbSymbolTableRecord
100
AcDbTextStyleTableRecord
  2
KANJI
 70
     0
 40
0.0
 41
1.0
 50
0.0
 71
     0
 42
10.0
  3
simplex
  4
bigfont
  0
ENDTAB
  0
TABLE
  2
VIEW
  5
705E
330
0
100
AcDbSymbolTable
 70
     0
  0
ENDTAB
  0
TABLE
  2
UCS
  5
705F
330
0
100
AcDbSymbolTable
 70
     0
  0
ENDTAB
  0
TABLE
  2
APPID
  5
7061
330
0
100
AcDbSymbolTable
 70
     5
  0
APPID
  5
70AE
330
7061
100
AcDbSymbolTableRecord
100
AcDbRegAppTableRecord
  2
ACAD
 70
     0
  0
APPID
  5
70B5
330
7061
100
AcDbSymbolTableRecord
100
AcDbRegAppTableRecord
  2
AcadAnnotative
 70
     0
  0
APPID
  5
70DD
330
7061
100
AcDbSymbolTableRecord
100
AcDbRegAppTableRecord
  2
ACAD_PSEXT
 70
     0
  0
APPID
  5
70DE
330
7061
100
AcDbSymbolTableRecord
100
AcDbRegAppTableRecord
  2
ACAD_NAV_VCDISPLAY
 70
     0
  0
APPID
  5
83BF
330
7061
100
AcDbSymbolTableRecord
100
AcDbRegAppTableRecord
  2
ACAD_EXEMPT_FROM_CAD_STANDARDS
 70
     0
  0
ENDTAB
  0
TABLE
  2
DIMSTYLE
  5
7062
330
0
100
AcDbSymbolTable
 70
     4
100
AcDbDimStyleTable
 71
     0
  0
DIMSTYLE
105
70AF
330
7062
100
AcDbSymbolTableRecord
100
AcDbDimStyleTableRecord
  2
STANDARD
 70
     0
 41
1.0
 42
1.0
 43
6.0
 44
1.0
 73
     0
 74
     0
 77
     1
 78
     8
140
2.5
141
0.0
147
0.5
172
     1
173
     1
274
     3
279
     2
284
     8
285
     8
286
     8
340
70AD
  0
DIMSTYLE
105
70B0
330
7062
100
AcDbSymbolTableRecord
100
AcDbDimStyleTableRecord
  2
Annotative
 70
     0
340
70AD
1001
AcadAnnotative
1000
AnnotativeData
1002
{
1070
     1
1070
     1
1002
}
  0
DIMSTYLE
105
70CF
330
7062
100
AcDbSymbolTableRecord
100
AcDbDimStyleTableRecord
  2
ISO-25
 70
     0
 41
2.5
 42
0.625
 43
3.75
 44
1.25
 73
     0
 74
     0
 77
     1
 78
     8
140
2.5
141
2.5
143
0.03937007874016
147
0.625
171
     3
172
     1
274
     3
279
     2
284
     8
285
     8
286
     8
340
70AD
  0
ENDTAB
  0
TABLE
  2
BLOCK_RECORD
  5
7059
330
0
100
AcDbSymbolTable
 70
     7
  0
BLOCK_RECORD
  5
70C7
102
{ACAD_XDICTIONARY
360
83BC
102
}
330
7059
100
AcDbSymbolTableRecord
100
AcDbBlockTableRecord
  2
*Model_Space
340
70CA
 70
     0
280
     1
281
     0
  0
BLOCK_RECORD
  5
70C3
330
7059
100
AcDbSymbolTableRecord
100
AcDbBlockTableRecord
  2
*Paper_Space
340
70C6
 70
     0
280
     1
281
     0
  0
BLOCK_RECORD
  5
70D3
330
7059
100
AcDbSymbolTableRecord
100
AcDbBlockTableRecord
  2
$MODEL_SPACE
340
0
 70
     0
280
     1
281
     0
  0
BLOCK_RECORD
  5
70D5
330
7059
100
AcDbSymbolTableRecord
100
AcDbBlockTableRecord
  2
$PAPER_SPACE
340
0
 70
     0
280
     1
281
     0
  0
BLOCK_RECORD
  5
70D7
330
7059
100
AcDbSymbolTableRecord
100
AcDbBlockTableRecord
  2
1
340
0
 70
     0
280
     1
281
     0
  0
BLOCK_RECORD
  5
7621
330
7059
100
AcDbSymbolTableRecord
100
AcDbBlockTableRecord
  2
*X4
340
0
102
{BLKREFS
102
}
 70
     0
280
     1
281
     0
  0
ENDTAB
  0
ENDSEC
  0
SECTION
  2
BLOCKS
  0
BLOCK
  5
70C8
330
70C7
100
AcDbEntity
  8
0
100
AcDbBlockBegin
  2
*Model_Space
 70
     0
 10
0.0
 20
0.0
 30
0.0
  3
*Model_Space
  1

  0
ENDBLK
  5
70C9
330
70C7
100
AcDbEntity
  8
0
100
AcDbBlockEnd
  0
BLOCK
  5
70C4
330
70C3
100
AcDbEntity
 67
     1
  8
0
100
AcDbBlockBegin
  2
*Paper_Space
 70
     0
 10
0.0
 20
0.0
 30
0.0
  3
*Paper_Space
  1

  0
ENDBLK
  5
70C5
330
70C3
100
AcDbEntity
 67
     1
  8
0
100
AcDbBlockEnd
  0
BLOCK
  5
70D4
330
70D3
100
AcDbEntity
  8
0
100
AcDbBlockBegin
  2
$MODEL_SPACE
 70
     0
 10
0.0
 20
0.0
 30
0.0
  3
$MODEL_SPACE
  1

  0
ENDBLK
  5
21
330
70D3
100
AcDbEntity
  8
0
100
AcDbBlockEnd
  0
BLOCK
  5
70D6
330
70D5
100
AcDbEntity
  8
0
100
AcDbBlockBegin
  2
$PAPER_SPACE
 70
     0
 10
0.0
 20
0.0
 30
0.0
  3
$PAPER_SPACE
  1

  0
ENDBLK
  5
1D
330
70D5
100
AcDbEntity
  8
0
100
AcDbBlockEnd
  0
BLOCK
  5
70D8
330
70D7
100
AcDbEntity
  8
0
100
AcDbBlockBegin
  2
1
 70
     0
 10
0.0
 20
0.0
 30
0.0
  3
1
  1

  0
SOLID
  5
2C
330
70D7
100
AcDbEntity
  8
0
  6
ByBlock
 62
     0
100
AcDbTrace
 10
-1.811110924292051
 20
0.4852857095671653
 30
0.0
 11
-1.811110924292051
 21
-0.4852857095673643
 31
0.0
 12
0.0
 22
0.0
 32
0.0
 13
0.0
 23
0.0
 33
0.0
  0
ENDBLK
  5
2E
330
70D7
100
AcDbEntity
  8
0
100
AcDbBlockEnd
  0
BLOCK
  5
7622
330
7621
100
AcDbEntity
  8
0
100
AcDbBlockBegin
  2
*X4
 70
     1
 10
0.0
 20
0.0
 30
0.0
  3
*X4
  1

  0
LINE
  5
7623
330
7621
100
AcDbEntity
  8
2
  6
Continuous
 62
     1
100
AcDbLine
 10
-0.23208726
 20
-0.23208726
 30
0.0
 11
0.23208726
 21
0.23208726
 31
0.0
  0
LINE
  5
7624
330
7621
100
AcDbEntity
  8
2
  6
Continuous
 62
     1
100
AcDbLine
 10
-0.68037499
 20
0.02673179
 30
0.0
 11
0.4909063
 21
1.1980131
 31
0.0
  0
LINE
  5
7625
330
7621
100
AcDbEntity
  8
2
  6
Continuous
 62
     1
100
AcDbLine
 10
-1.1286627
 20
0.28555083
 30
0.0
 11
0.042618564
 21
1.4568321
 31
0.0
  0
LINE
  5
7626
330
7621
100
AcDbEntity
  8
2
  6
Continuous
 62
     1
100
AcDbLine
 10
-1.576950499999998
 20
0.54436988
 30
0.0
 11
-0.40566917
 21
1.715651199999999
 31
0.0
  0
LINE
  5
7627
330
7621
100
AcDbEntity
  8
2
  6
Continuous
 62
     1
100
AcDbLine
 10
-1.3683111
 20
1.4601161
 30
0.0
 11
-0.8539569099999997
 21
1.9744702
 31
0.0
  0
ENDBLK
  5
7628
330
7621
100
AcDbEntity
  8
0
100
AcDbBlockEnd
  0
ENDSEC
  0
SECTION
  2
ENTITIES
  0
LINE
  5
7386
330
70C7
100
AcDbEntity
  8
1外形線
  6
Continuous
100
AcDbLine
 10
322.2732918125795
 20
84.6990762430912
 30
0.0
 11
333.2732918125795
 21
84.6990762430912
 31
0.0
  0
LINE
  5
7387
330
70C7
100
AcDbEntity
  8
1外形線
  6
Continuous
100
AcDbLine
 10
322.2732918125795
 20
87.69907624309121
 30
0.0
 11
333.2732918125795
 21
87.69907624309121
 31
0.0
  0
LINE
  5
7388
330
70C7
100
AcDbEntity
  8
1外形線
  6
Continuous
100
AcDbLine
 10
333.7732918125795
 20
87.1990762430912
 30
0.0
 11
333.7732918125795
 21
85.19907624309121
 31
0.0
  0
LINE
  5
7389
330
70C7
100
AcDbEntity
  8
1外形線
  6
Continuous
100
AcDbLine
 10
321.7732918125795
 20
87.1990762430912
 30
0.0
 11
321.7732918125795
 21
85.19907624309121
 31
0.0
  0
ARC
  5
738B
330
70C7
100
AcDbEntity
  8
1外形線
  6
Continuous
100
AcDbCircle
 10
348.2244518125791
 20
104.2990762430913
 30
0.0
 40
0.9
100
AcDbArc
 50
171.0110384486601
 51
171.1070179999866
  0
ARC
  5
738C
330
70C7
100
AcDbEntity
  8
1外形線
  6
Continuous
100
AcDbCircle
 10
348.2244518125791
 20
104.2990762430913
 30
0.0
 40
0.9
100
AcDbArc
 50
308.6105199999949
 51
351.1070200000097
  0
LINE
  5
738D
330
70C7
100
AcDbEntity
  8
1外形線
  6
Continuous
100
AcDbLine
 10
340.7175118125798
 20
91.15872624309123
 30
0.0
 11
340.6739518125797
 21
91.21371624309132
 31
0.0
  0
ARC
  5
738E
330
70C7
100
AcDbEntity
  8
1外形線
  6
Continuous
100
AcDbCircle
 10
338.829511812579
 20
89.99907624309116
 30
0.0
 40
0.9
100
AcDbArc
 50
302.2840400000158
 51
122.2840420000142
  0
ARC
  5
738F
330
70C7
100
AcDbEntity
  8
1外形線
  6
Continuous
100
AcDbCircle
 10
338.829511812579
 20
89.99907624309116
 30
0.0
 40
0.9
100
AcDbArc
 50
259.7875399999835
 51
302.2840400000158
  0
ARC
  5
7390
330
70C7
100
AcDbEntity
  8
1外形線
  6
Continuous
100
AcDbCircle
 10
327.7732918125795
 20
107.4990762430911
 30
0.0
 40
21.3
100
AcDbArc
 50
348.2009500000185
 51
348.9561900000081
  0
ARC
  5
7391
330
70C7
100
AcDbEntity
  8
1外形線
  6
Continuous
100
AcDbCircle
 10
348.1821118125791
 20
104.6990762430912
 30
0.0
 40
1.8
100
AcDbArc
 50
352.1880400000085
 51
50.49613134972624
  0
ARC
  5
7392
330
70C7
100
AcDbEntity
  8
1外形線
  6
Continuous
100
AcDbCircle
 10
327.7732918125795
 20
107.4990762430911
 30
0.0
 40
22.4
100
AcDbArc
 50
351.1070200000097
 51
352.1880400000085
  0
ARC
  5
7393
330
70C7
100
AcDbEntity
  8
1外形線
  6
Continuous
100
AcDbCircle
 10
348.2244518125791
 20
104.2990762430913
 30
0.0
 40
1.7
100
AcDbArc
 50
299.6437199999999
 51
351.1070200000097
  0
ARC
  5
7394
330
70C7
100
AcDbEntity
  8
1外形線
  6
Continuous
100
AcDbCircle
 10
339.5417318125793
 20
90.2273162430913
 30
0.0
 40
1.5
100
AcDbArc
 50
304.2692999999735
 51
38.38497000000029
  0
ARC
  5
7395
330
70C7
100
AcDbEntity
  8
1外形線
  6
Continuous
100
AcDbCircle
 10
327.7732918125795
 20
107.4990762430911
 30
0.0
 40
22.4
100
AcDbArc
 50
302.2840400000158
 51
304.2692999999735
  0
ARC
  5
7396
330
70C7
100
AcDbEntity
  8
1外形線
  6
Continuous
100
AcDbCircle
 10
338.829511812579
 20
89.99907624309116
 30
0.0
 40
1.7
100
AcDbArc
 50
250.8207400000202
 51
302.2840400000158
  0
ARC
  5
7397
330
70C7
100
AcDbEntity
  8
1外形線
  6
Continuous
100
AcDbCircle
 10
327.7732918125795
 20
107.4990762430911
 30
0.0
 40
21.3
100
AcDbArc
 50
299.3779699999921
 51
300.133210000006
  0
LINE
  5
7398
330
70C7
100
AcDbEntity
  8
1外形線
  6
Continuous
100
AcDbLine
 10
319.2732918125795
 20
86.44294624309123
 30
0.0
 11
319.2732918125795
 21
86.44295624309121
 31
0.0
  0
LINE
  5
7399
330
70C7
100
AcDbEntity
  8
1外形線
  6
Continuous
100
AcDbLine
 10
307.7732918125795
 20
83.59748624309123
 30
0.0
 11
317.7732918125795
 21
83.9466962430913
 31
0.0
  0
LINE
  5
739A
330
70C7
100
AcDbEntity
  8
1外形線
  6
Continuous
100
AcDbLine
 10
317.7732918125795
 20
83.9466962430913
 30
0.0
 11
319.2732918125795
 21
83.99748624309131
 31
0.0
  0
LINE
  5
739B
330
70C7
100
AcDbEntity
  8
1外形線
  6
Continuous
100
AcDbLine
 10
319.3293318125799
 20
86.44609624309124
 30
0.0
 11
317.7172518125791
 21
86.35561624309117
 31
0.0
  0
LINE
  5
739C
330
70C7
100
AcDbEntity
  8
1外形線
  6
Continuous
100
AcDbLine
 10
317.7172518125791
 20
86.35561624309117
 30
0.0
 11
308.7172518125791
 21
85.85047624309117
 31
0.0
  0
LINE
  5
739D
330
70C7
100
AcDbEntity
  8
1外形線
  6
Continuous
100
AcDbLine
 10
320.2732918125795
 20
87.78233124309123
 30
0.0
 11
320.2732918125795
 21
87.44452624309133
 31
0.0
  0
LINE
  5
739E
330
70C7
100
AcDbEntity
  8
1外形線
  6
Continuous
100
AcDbLine
 10
306.8395318125796
 20
98.23254624309129
 30
0.0
 11
307.1650918125798
 21
99.17806624309129
 31
0.0
  0
LINE
  5
739F
330
70C7
100
AcDbEntity
  8
1外形線
  6
Continuous
100
AcDbLine
 10
307.2064318125796
 20
99.29809624309132
 30
0.0
 11
307.1650918125798
 21
99.17806624309129
 31
0.0
  0
ARC
  5
73A0
330
70C7
100
AcDbEntity
  8
1外形線
  6
Continuous
100
AcDbCircle
 10
306.6767418125793
 20
97.75978624309118
 30
0.0
 40
0.5
100
AcDbArc
 50
251.0000000000119
 51
71.00000000001195
  0
LINE
  5
73A1
330
70C7
100
AcDbEntity
  8
1外形線
  6
Continuous
100
AcDbLine
 10
306.2303018125796
 20
97.38469624309118
 30
0.0
 11
306.5139618125796
 21
97.2870262430913
 31
0.0
  0
LINE
  5
73A2
330
70C7
100
AcDbEntity
  8
1外形線
  6
Continuous
100
AcDbLine
 10
306.1958918125794
 20
98.82051624309134
 30
0.0
 11
305.9203318125793
 21
98.02023624309118
 31
0.0
  0
ARC
  5
73A3
330
70C7
100
AcDbEntity
  8
1外形線
  6
Continuous
100
AcDbCircle
 10
327.7732918125795
 20
107.4990762430911
 30
0.0
 40
22.6
100
AcDbArc
 50
193.3150800000206
 51
197.5088900000307
  0
LINE
  5
73A4
330
70C7
100
AcDbEntity
  8
1外形線
  6
Continuous
100
AcDbLine
 10
335.2732918125795
 20
87.44452624309133
 30
0.0
 11
335.2732918125795
 21
87.87791624309125
 31
0.0
  0
LINE
  5
73A5
330
70C7
100
AcDbEntity
  8
1外形線
  6
Continuous
100
AcDbLine
 10
346.8293318125799
 20
85.85047624309117
 30
0.0
 11
336.2172518125791
 21
86.44609624309124
 31
0.0
  0
LINE
  5
73A6
330
70C7
100
AcDbEntity
  8
1外形線
  6
Continuous
100
AcDbLine
 10
347.7732918125795
 20
83.59748624309123
 30
0.0
 11
347.7732918125795
 21
84.79591624309136
 31
0.0
  0
LINE
  5
73A7
330
70C7
100
AcDbEntity
  8
1外形線
  6
Continuous
100
AcDbLine
 10
347.7732918125795
 20
84.79591624309136
 30
0.0
 11
347.7732918125795
 21
84.85204624309131
 31
0.0
  0
LINE
  5
73A8
330
70C7
100
AcDbEntity
  8
1外形線
  6
Continuous
100
AcDbLine
 10
336.2732918125795
 20
83.99748624309131
 30
0.0
 11
347.7732918125795
 21
83.59748624309123
 31
0.0
  0
LINE
  5
73A9
330
70C7
100
AcDbEntity
  8
1外形線
  6
Continuous
100
AcDbLine
 10
307.7732918125795
 20
84.85204624309131
 30
0.0
 11
307.7732918125795
 21
83.59748624309123
 31
0.0
  0
LINE
  5
73AA
330
70C7
100
AcDbEntity
  8
1外形線
  6
Continuous
100
AcDbLine
 10
319.2732918125795
 20
83.99748624309131
 30
0.0
 11
336.2732918125795
 21
83.99748624309131
 31
0.0
  0
LINE
  5
73AB
330
70C7
100
AcDbEntity
  8
1外形線
  6
Continuous
100
AcDbLine
 10
308.3841718125797
 20
100.2497862430912
 30
0.0
 11
307.2866388265932
 21
101.3138479181399
 31
0.0
  0
ARC
  5
73AC
330
70C7
100
AcDbEntity
  8
1外形線
  6
Continuous
100
AcDbCircle
 10
327.7732918125795
 20
107.4990762430911
 30
0.0
 40
20.7
100
AcDbArc
 50
200.4999999999996
 51
200.9999999999856
  0
LINE
  5
73AD
330
70C7
100
AcDbEntity
  8
1外形線
  6
Continuous
100
AcDbLine
 10
307.7946718125796
 20
99.83000624309125
 30
0.0
 11
307.6761518125796
 21
99.78450624309131
 31
0.0
  0
LINE
  5
73AE
330
70C7
100
AcDbEntity
  8
1外形線
  6
Continuous
100
AcDbLine
 10
307.7946718125796
 20
99.83000624309125
 30
0.0
 11
308.4481718125791
 21
100.0808662430913
 31
0.0
  0
ARC
  5
73AF
330
70C7
100
AcDbEntity
  8
1外形線
  6
Continuous
100
AcDbCircle
 10
327.7732918125795
 20
107.4990762430911
 30
0.0
 40
19.8
100
AcDbArc
 50
343.4391521664839
 51
354.2026900000004
  0
ARC
  5
73B0
330
70C7
100
AcDbEntity
  8
1外形線
  6
Continuous
100
AcDbCircle
 10
327.7732918125795
 20
107.4990762430911
 30
0.0
 40
19.8
100
AcDbArc
 50
295.3349599999747
 51
312.5675137670998
  0
ARC
  5
73B1
330
70C7
100
AcDbEntity
  8
1外形線
  6
Continuous
100
AcDbCircle
 10
327.7732918125795
 20
107.4990762430911
 30
0.0
 40
19.8
100
AcDbArc
 50
354.2026900000004
 51
357.0815900000041
  0
POLYLINE
  5
73B2
330
70C7
100
AcDbEntity
  8
1外形線
  6
Continuous
100
AcDb2dPolyline
 66
     1
 10
0.0
 20
0.0
 30
0.0
 70
     2
  0
VERTEX
  5
73B3
330
73B2
100
AcDbEntity
  8
1外形線
100
AcDbVertex
100
AcDb2dVertex
 10
347.5476218125797
 20
106.4912062430912
 30
0.0
  0
VERTEX
  5
73B4
330
73B2
100
AcDbEntity
  8
1外形線
100
AcDbVertex
100
AcDb2dVertex
 10
347.5476218125797
 20
106.4912062430912
 30
0.0
 70
     1
  0
VERTEX
  5
73B5
330
73B2
100
AcDbEntity
  8
1外形線
100
AcDbVertex
100
AcDb2dVertex
 10
347.5476218125797
 20
106.4912062430912
 30
0.0
  0
VERTEX
  5
73B6
330
73B2
100
AcDbEntity
  8
1外形線
100
AcDbVertex
100
AcDb2dVertex
 10
347.5476218125797
 20
106.4912062430912
 30
0.0
 70
     1
  0
VERTEX
  5
73B7
330
73B2
100
AcDbEntity
  8
1外形線
100
AcDbVertex
100
AcDb2dVertex
 10
347.5476218125797
 20
106.4912062430912
 30
0.0
  0
VERTEX
  5
73B8
330
73B2
100
AcDbEntity
  8
1外形線
100
AcDbVertex
100
AcDb2dVertex
 10
347.5476218125797
 20
106.4912062430912
 30
0.0
 70
     1
  0
VERTEX
  5
73B9
330
73B2
100
AcDbEntity
  8
1外形線
100
AcDbVertex
100
AcDb2dVertex
 10
347.5476218125797
 20
106.4912062430912
 30
0.0
  0
VERTEX
  5
73BA
330
73B2
100
AcDbEntity
  8
1外形線
100
AcDbVertex
100
AcDb2dVertex
 10
347.5476218125797
 20
106.4912062430912
 30
0.0
 70
     1
  0
VERTEX
  5
73BB
330
73B2
100
AcDbEntity
  8
1外形線
100
AcDbVertex
100
AcDb2dVertex
 10
347.5476218125797
 20
106.4912062430912
 30
0.0
  0
VERTEX
  5
73BC
330
73B2
100
AcDbEntity
  8
1外形線
100
AcDbVertex
100
AcDb2dVertex
 10
347.5476218125797
 20
106.4912062430912
 30
0.0
 70
     1
  0
VERTEX
  5
73BD
330
73B2
100
AcDbEntity
  8
1外形線
100
AcDbVertex
100
AcDb2dVertex
 10
347.5476218125797
 20
106.4912062430912
 30
0.0
  0
VERTEX
  5
73BE
330
73B2
100
AcDbEntity
  8
1外形線
100
AcDbVertex
100
AcDb2dVertex
 10
347.5476218125797
 20
106.4912062430912
 30
0.0
 70
     1
  0
VERTEX
  5
73BF
330
73B2
100
AcDbEntity
  8
1外形線
100
AcDbVertex
100
AcDb2dVertex
 10
347.5476218125797
 20
106.4912062430912
 30
0.0
  0
VERTEX
  5
73C0
330
73B2
100
AcDbEntity
  8
1外形線
100
AcDbVertex
100
AcDb2dVertex
 10
347.5476218125797
 20
106.4912062430912
 30
0.0
 70
     1
  0
VERTEX
  5
73C1
330
73B2
100
AcDbEntity
  8
1外形線
100
AcDbVertex
100
AcDb2dVertex
 10
347.5476218125797
 20
106.4912062430912
 30
0.0
  0
VERTEX
  5
73C2
330
73B2
100
AcDbEntity
  8
1外形線
100
AcDbVertex
100
AcDb2dVertex
 10
347.5476218125797
 20
106.4912062430912
 30
0.0
 70
     1
  0
VERTEX
  5
73C3
330
73B2
100
AcDbEntity
  8
1外形線
100
AcDbVertex
100
AcDb2dVertex
 10
347.5476218125797
 20
106.4912062430912
 30
0.0
  0
VERTEX
  5
73C4
330
73B2
100
AcDbEntity
  8
1外形線
100
AcDbVertex
100
AcDb2dVertex
 10
347.5476218125797
 20
106.4912062430912
 30
0.0
 70
     1
  0
VERTEX
  5
73C5
330
73B2
100
AcDbEntity
  8
1外形線
100
AcDbVertex
100
AcDb2dVertex
 10
347.5476218125797
 20
106.4912062430912
 30
0.0
  0
SEQEND
  5
73C6
330
73B2
100
AcDbEntity
  8
1外形線
  0
ARC
  5
73C8
330
70C7
100
AcDbEntity
  8
1外形線
  6
Continuous
100
AcDbCircle
 10
327.7732918125795
 20
107.4990762430911
 30
0.0
 40
19.0
100
AcDbArc
 50
353.9576700000178
 51
354.2608400000077
  0
ARC
  5
73C9
330
70C7
100
AcDbEntity
  8
1外形線
  6
Continuous
100
AcDbCircle
 10
327.7732918125795
 20
107.4990762430911
 30
0.0
 40
19.0
100
AcDbArc
 50
185.7391599999923
 51
353.9576700000178
  0
LINE
  5
73CA
330
70C7
100
AcDbEntity
  8
1外形線
  6
Continuous
100
AcDbLine
 10
308.1792318125792
 20
103.5080462430912
 30
0.0
 11
308.1773718125798
 21
103.4990762430911
 31
0.0
  0
ARC
  5
73CB
330
70C7
100
AcDbEntity
  8
1外形線
  6
Continuous
100
AcDbCircle
 10
327.7732918125795
 20
107.4990762430911
 30
0.0
 40
21.4
100
AcDbArc
 50
192.0483899999895
 51
196.7998542069959
  0
LINE
  5
73CC
330
70C7
100
AcDbEntity
  8
1外形線
  6
Continuous
100
AcDbLine
 10
307.7495518125799
 20
103.9990762430911
 30
0.0
 11
307.6270718125798
 21
103.9990762430911
 31
0.0
  0
LINE
  5
73CD
330
70C7
100
AcDbEntity
  8
1外形線
  6
Continuous
100
AcDbLine
 10
307.8735418125799
 20
106.4990762430911
 30
0.0
 11
307.67329181258
 21
106.4990762430911
 31
0.0
  0
LINE
  5
73CE
330
70C7
100
AcDbEntity
  8
1外形線
  6
Continuous
100
AcDbLine
 10
305.67329181258
 20
104.4990762430911
 30
0.0
 11
305.67329181258
 21
103.2153862430912
 31
0.0
  0
ARC
  5
73CF
330
70C7
100
AcDbEntity
  8
1外形線
  6
Continuous
100
AcDbCircle
 10
309.67329181258
 20
103.2153862430912
 30
0.0
 40
4.0
100
AcDbArc
 50
180.0
 51
193.3150800000206
  0
ARC
  5
73D0
330
70C7
100
AcDbEntity
  8
1外形線
  6
Continuous
100
AcDbCircle
 10
307.67329181258
 20
104.4990762430911
 30
0.0
 40
2.0
100
AcDbArc
 50
90.0
 51
180.0
  0
ARC
  5
73D1
330
70C7
100
AcDbEntity
  8
1外形線
  6
Continuous
100
AcDbCircle
 10
303.3593318125796
 20
99.79722624309125
 30
0.0
 40
3.0
100
AcDbArc
 50
351.7628700000068
 51
17.50889000003069
  0
ARC
  5
73D2
330
70C7
100
AcDbEntity
  8
1外形線
  6
Continuous
100
AcDbCircle
 10
303.3593318125796
 20
99.79722624309125
 30
0.0
 40
3.0
100
AcDbArc
 50
341.0000000000156
 51
351.7628700000068
  0
ARC
  5
73D3
330
70C7
100
AcDbEntity
  8
1外形線
  6
Continuous
100
AcDbCircle
 10
306.393091812579
 20
97.85745624309129
 30
0.0
 40
0.5
100
AcDbArc
 50
161.0000000000156
 51
251.0000000000119
  0
ARC
  5
73D4
330
70C7
100
AcDbEntity
  8
1外形線
  6
Continuous
100
AcDbCircle
 10
307.6270718125798
 20
103.1990762430912
 30
0.0
 40
0.8
100
AcDbArc
 50
90.0
 51
192.0483999999914
  0
ARC
  5
73D5
330
70C7
100
AcDbEntity
  8
1外形線
  6
Continuous
100
AcDbCircle
 10
307.8735418125799
 20
105.4990762430911
 30
0.0
 40
1.0
100
AcDbArc
 50
5.7391699999989
 51
30.00000000003121
  0
ARC
  5
73D6
330
70C7
100
AcDbEntity
  8
1外形線
  6
Continuous
100
AcDbCircle
 10
307.8735418125799
 20
105.4990762430911
 30
0.0
 40
1.0
100
AcDbArc
 50
30.00000000003121
 51
90.0
  0
ARC
  5
73D7
330
70C7
100
AcDbEntity
  8
1外形線
  6
Continuous
100
AcDbCircle
 10
307.7495518125799
 20
103.5990762430913
 30
0.0
 40
0.4
100
AcDbArc
 50
11.02144999998152
 51
90.0
  0
ARC
  5
73D8
330
70C7
100
AcDbEntity
  8
1外形線
  6
Continuous
100
AcDbCircle
 10
307.9628418125795
 20
99.03764624309133
 30
0.0
 40
0.8
100
AcDbArc
 50
110.9999999999832
 51
161.0000000000156
  0
ARC
  5
73D9
330
70C7
100
AcDbEntity
  8
1外形線
  6
Continuous
100
AcDbCircle
 10
308.7732918125795
 20
84.85204624309131
 30
0.0
 40
1.0
100
AcDbArc
 50
93.21247599999839
 51
180.0
  0
ARC
  5
73DA
330
70C7
100
AcDbEntity
  8
1外形線
  6
Continuous
100
AcDbCircle
 10
346.7732918125795
 20
84.85204624309131
 30
0.0
 40
1.0
100
AcDbArc
 50
0.000000000000007
 51
86.78752400000162
  0
ARC
  5
73DB
330
70C7
100
AcDbEntity
  8
1外形線
  6
Continuous
100
AcDbCircle
 10
319.2732918125795
 20
87.44452624309133
 30
0.0
 40
1.0
100
AcDbArc
 50
273.2124800000104
 51
0.000000000000007
  0
ARC
  5
73DC
330
70C7
100
AcDbEntity
  8
1外形線
  6
Continuous
100
AcDbCircle
 10
336.2732918125795
 20
87.44452624309133
 30
0.0
 40
1.0
100
AcDbArc
 50
180.0
 51
266.7875199999896
  0
ARC
  5
73DD
330
70C7
100
AcDbEntity
  8
1外形線
  6
Continuous
100
AcDbCircle
 10
337.2732918125795
 20
87.87791624309125
 30
0.0
 40
2.0
100
AcDbArc
 50
115.8349250000166
 51
180.0
  0
ARC
  5
73DE
330
70C7
100
AcDbEntity
  8
1外形線
  6
Continuous
100
AcDbCircle
 10
341.4578118125793
 20
91.83466624309131
 30
0.0
 40
1.0
100
AcDbArc
 50
131.1406399999767
 51
218.3849700000003
  0
ARC
  5
73DF
330
70C7
100
AcDbEntity
  8
1外形線
  6
Continuous
100
AcDbCircle
 10
348.9732818125796
 20
103.3613962430913
 30
0.0
 40
0.3
100
AcDbArc
 50
128.610538000023
 51
168.956186999991
  0
ARC
  5
73E0
330
70C7
100
AcDbEntity
  8
1外形線
  6
Continuous
100
AcDbCircle
 10
338.3695718125792
 20
88.67678624309133
 30
0.0
 40
0.3
100
AcDbArc
 50
119.377969999992
 51
250.8207499999877
  0
ARC
  5
73E1
330
70C7
100
AcDbEntity
  8
1外形線
  6
Continuous
100
AcDbCircle
 10
338.6167518125795
 20
88.81808624309133
 30
0.0
 40
0.3
100
AcDbArc
 50
79.78756000001381
 51
120.1332110000205
  0
ARC
  5
73E2
330
70C7
100
AcDbEntity
  8
1外形線
  6
Continuous
100
AcDbCircle
 10
348.9169018125796
 20
103.0823162430913
 30
0.0
 40
0.3
100
AcDbArc
 50
168.2009500000184
 51
299.6437199999999
  0
ARC
  5
73E4
330
70C7
100
AcDbEntity
  8
1外形線
  6
Continuous
100
AcDbCircle
 10
347.6672618125796
 20
105.5047062430912
 30
0.0
 40
0.9936985999999999
100
AcDbArc
 50
96.92743199997753
 51
174.5506470000017
  0
LINE
  5
745E
330
70C7
100
AcDbEntity
  8
1外形線
  6
Continuous
100
AcDbLine
 10
399.1648985717922
 20
105.4990842430911
 30
0.0
 11
399.1648985717922
 21
89.60340724309117
 31
0.0
  0
LINE
  5
745F
330
70C7
100
AcDbEntity
  8
1外形線
  6
Continuous
100
AcDbLine
 10
399.1648985717922
 20
89.60340724309117
 30
0.0
 11
399.1648985717922
 21
86.69066324309142
 31
0.0
  0
LINE
  5
7460
330
70C7
100
AcDbEntity
  8
1外形線
  6
Continuous
100
AcDbLine
 10
399.1648985717922
 20
86.69066324309142
 30
0.0
 11
399.1648985717922
 21
85.55362824309122
 31
0.0
  0
LINE
  5
7461
330
70C7
100
AcDbEntity
  8
1外形線
  6
Continuous
100
AcDbLine
 10
399.1648985717922
 20
85.55362824309122
 30
0.0
 11
399.1648985717922
 21
84.79591224309116
 31
0.0
  0
LINE
  5
7462
330
70C7
100
AcDbEntity
  8
1外形線
  6
Continuous
100
AcDbLine
 10
399.1648985717922
 20
83.59748624309123
 30
0.0
 11
399.1648985717922
 21
84.79591224309116
 31
0.0
  0
LINE
  5
7465
330
70C7
100
AcDbEntity
  8
1外形線
  6
Continuous
100
AcDbLine
 10
380.2148985717924
 20
106.4990752430913
 30
0.0
 11
393.114898571792
 21
106.4990752430913
 31
0.0
  0
LINE
  5
7466
330
70C7
100
AcDbEntity
  8
1外形線
  6
Continuous
100
AcDbLine
 10
393.9148985717921
 20
105.6990752430913
 30
0.0
 11
393.9148985717921
 21
104.5631522430912
 31
0.0
  0
LINE
  5
7467
330
70C7
100
AcDbEntity
  8
1外形線
  6
Continuous
100
AcDbLine
 10
393.9148985717921
 20
104.5631522430912
 30
0.0
 11
393.9148985717921
 21
104.1599442430913
 31
0.0
  0
LINE
  5
7468
330
70C7
100
AcDbEntity
  8
1外形線
  6
Continuous
100
AcDbLine
 10
379.4148985717921
 20
104.1599442430913
 30
0.0
 11
379.4148985717921
 21
104.5631522430912
 31
0.0
  0
LINE
  5
7469
330
70C7
100
AcDbEntity
  8
1外形線
  6
Continuous
100
AcDbLine
 10
379.4148985717921
 20
104.5631522430912
 30
0.0
 11
379.4148985717921
 21
105.6990752430913
 31
0.0
  0
LINE
  5
746A
330
70C7
100
AcDbEntity
  8
1外形線
  6
Continuous
100
AcDbLine
 10
393.9148985717921
 20
91.6681492430912
 30
0.0
 11
393.9148985717921
 21
90.7169622430913
 31
0.0
  0
LINE
  5
746B
330
70C7
100
AcDbEntity
  8
1外形線
  6
Continuous
100
AcDbLine
 10
393.9148985717921
 20
90.7169622430913
 30
0.0
 11
393.9148985717921
 21
90.66197124309132
 31
0.0
  0
LINE
  5
746C
330
70C7
100
AcDbEntity
  8
1外形線
  6
Continuous
100
AcDbLine
 10
393.9148985717921
 20
90.66197124309132
 30
0.0
 11
393.9148985717921
 21
89.6488312430913
 31
0.0
  0
LINE
  5
746D
330
70C7
100
AcDbEntity
  8
1外形線
  6
Continuous
100
AcDbLine
 10
393.9148985717921
 20
89.6488312430913
 30
0.0
 11
393.9148985717921
 21
89.23820524309121
 31
0.0
  0
LINE
  5
746E
330
70C7
100
AcDbEntity
  8
1外形線
  6
Continuous
100
AcDbLine
 10
379.4148985717921
 20
89.23820524309121
 30
0.0
 11
379.4148985717921
 21
89.6488312430913
 31
0.0
  0
LINE
  5
746F
330
70C7
100
AcDbEntity
  8
1外形線
  6
Continuous
100
AcDbLine
 10
379.4148985717921
 20
89.6488312430913
 30
0.0
 11
379.4148985717921
 21
90.66197124309132
 31
0.0
  0
LINE
  5
7470
330
70C7
100
AcDbEntity
  8
1外形線
  6
Continuous
100
AcDbLine
 10
379.4148985717921
 20
90.66197124309132
 30
0.0
 11
379.4148985717921
 21
90.7169622430913
 31
0.0
  0
LINE
  5
7471
330
70C7
100
AcDbEntity
  8
1外形線
  6
Continuous
100
AcDbLine
 10
379.4148985717921
 20
90.7169622430913
 30
0.0
 11
379.4148985717921
 21
91.6681492430912
 31
0.0
  0
LINE
  5
7472
330
70C7
100
AcDbEntity
  8
1外形線
  6
Continuous
100
AcDbLine
 10
374.1648985717922
 20
105.5990752430912
 30
0.0
 11
374.1648985717922
 21
105.4990782430914
 31
0.0
  0
LINE
  5
7473
330
70C7
100
AcDbEntity
  8
1外形線
  6
Continuous
100
AcDbLine
 10
374.1648985717922
 20
105.5990752430912
 30
0.0
 11
374.1648985717922
 21
105.9990752430913
 31
0.0
  0
LINE
  5
7474
330
70C7
100
AcDbEntity
  8
1外形線
  6
Continuous
100
AcDbLine
 10
374.1648985717922
 20
83.94669224309131
 30
0.0
 11
374.1648985717922
 21
83.59748624309123
 31
0.0
  0
LINE
  5
7475
330
70C7
100
AcDbEntity
  8
1外形線
  6
Continuous
100
AcDbLine
 10
374.1648985717922
 20
83.94669324309143
 30
0.0
 11
374.1648985717922
 21
85.35718324309119
 31
0.0
  0
LINE
  5
7476
330
70C7
100
AcDbEntity
  8
1外形線
  6
Continuous
100
AcDbLine
 10
374.1648985717922
 20
85.35718324309119
 30
0.0
 11
374.1648985717922
 21
85.55362824309122
 31
0.0
  0
LINE
  5
7477
330
70C7
100
AcDbEntity
  8
1外形線
  6
Continuous
100
AcDbLine
 10
374.1648985717922
 20
85.55362824309122
 30
0.0
 11
374.1648985717922
 21
86.69066324309142
 31
0.0
  0
LINE
  5
7478
330
70C7
100
AcDbEntity
  8
1外形線
  6
Continuous
100
AcDbLine
 10
374.1648985717922
 20
86.69066324309142
 30
0.0
 11
374.1648985717922
 21
89.60340724309117
 31
0.0
  0
LINE
  5
7479
330
70C7
100
AcDbEntity
  8
1外形線
  6
Continuous
100
AcDbLine
 10
374.1648985717922
 20
89.60340724309117
 30
0.0
 11
374.1648985717922
 21
105.4990822430914
 31
0.0
  0
ARC
  5
7480
330
70C7
100
AcDbEntity
  8
1外形線
  6
Continuous
100
AcDbCircle
 10
380.2148985717924
 20
105.6990752430913
 30
0.0
 40
0.8
100
AcDbArc
 50
90.0
 51
180.0
  0
ARC
  5
7481
330
70C7
100
AcDbEntity
  8
1外形線
  6
Continuous
100
AcDbCircle
 10
393.114898571792
 20
105.6990752430913
 30
0.0
 40
0.8
100
AcDbArc
 50
0.0
 51
90.0
  0
ARC
  5
74AD
330
70C7
100
AcDbEntity
  8
1外形線
  6
Continuous
100
AcDbCircle
 10
375.1685485717918
 20
105.4961922430911
 30
0.0
 40
1.003656499999999
100
AcDbArc
 50
179.793793664832
 51
179.8352500000062
  0
LINE
  5
74AE
330
70C7
100
AcDbEntity
  8
1外形線
  6
Continuous
100
AcDbLine
 10
379.4148985717921
 20
103.5958092430912
 30
0.0
 11
379.4148985717921
 21
104.1599442430913
 31
0.0
  0
LINE
  5
74AF
330
70C7
100
AcDbEntity
  8
1外形線
  6
Continuous
100
AcDbLine
 10
393.9148985717921
 20
104.1599442430913
 30
0.0
 11
393.9148985717921
 21
103.5958092430912
 31
0.0
  0
LINE
  5
74B0
330
70C7
100
AcDbEntity
  8
1外形線
  6
Continuous
100
AcDbLine
 10
379.4148985717921
 20
89.09907524309119
 30
0.0
 11
379.4148985717921
 21
89.23820524309121
 31
0.0
  0
LINE
  5
74B1
330
70C7
100
AcDbEntity
  8
1外形線
  6
Continuous
100
AcDbLine
 10
393.9148985717921
 20
89.23820524309121
 30
0.0
 11
393.9148985717921
 21
89.09907524309119
 31
0.0
  0
SPLINE
  5
74B2
330
70C7
100
AcDbEntity
  8
1外形線
  6
Continuous
100
AcDbSpline
210
0.0
220
0.0
230
1.0
 70
     8
 71
     3
 72
     8
 73
     4
 74
     0
 42
0.000000001
 43
0.0000000001
 40
0.0009605649
 40
0.0009605649
 40
0.0009605649
 40
0.0009605649
 40
0.001250689
 40
0.001250689
 40
0.001250689
 40
0.001250689
 10
379.483958571792
 20
103.1436522430913
 30
0.0
 10
379.4494585717922
 20
103.2304372430912
 30
0.0
 10
379.4290585717919
 20
103.3229462430913
 30
0.0
 10
379.4205185717921
 20
103.4188582430913
 30
0.0
  0
SPLINE
  5
74B3
330
70C7
100
AcDbEntity
  8
1外形線
  6
Continuous
100
AcDbSpline
210
0.0
220
0.0
230
1.0
 70
     8
 71
     3
 72
     8
 73
     4
 74
     0
 42
0.000000001
 43
0.0000000001
 40
0.0001167118
 40
0.0001167118
 40
0.0001167118
 40
0.0001167118
 40
0.0004068358
 40
0.0004068358
 40
0.0004068358
 40
0.0004068358
 10
393.9092785717922
 20
103.4188582430913
 30
0.0
 10
393.9007385717924
 20
103.3229462430913
 30
0.0
 10
393.8803385717921
 20
103.2304372430912
 30
0.0
 10
393.8458385717914
 20
103.1436522430913
 30
0.0
  0
LINE
  5
74B4
330
70C7
100
AcDbEntity
  8
1外形線
  6
Continuous
100
AcDbLine
 10
380.2148985717924
 20
88.29907524309124
 30
0.0
 11
393.114898571792
 21
88.29907524309124
 31
0.0
  0
LINE
  5
74B5
330
70C7
100
AcDbEntity
  8
1外形線
  6
Continuous
100
AcDbLine
 10
384.1648985717922
 20
83.59748624309123
 30
0.0
 11
374.1648985717922
 21
83.59748624309123
 31
0.0
  0
LINE
  5
74B6
330
70C7
100
AcDbEntity
  8
1外形線
  6
Continuous
100
AcDbLine
 10
399.1648985717922
 20
83.59748624309123
 30
0.0
 11
384.1648985717922
 21
83.59748624309123
 31
0.0
  0
LINE
  5
74B7
330
70C7
100
AcDbEntity
  8
1外形線
  6
Continuous
100
AcDbLine
 10
399.1648985717922
 20
84.79591224309116
 30
0.0
 11
399.1648985717922
 21
84.85203924309145
 31
0.0
  0
LINE
  5
74B8
330
70C7
100
AcDbEntity
  8
1外形線
  6
Continuous
100
AcDbLine
 10
380.1029885717918
 20
106.4911502430914
 30
0.0
 11
379.1648985717921
 21
106.4911502430914
 31
0.0
  0
LINE
  5
74B9
330
70C7
100
AcDbEntity
  8
1外形線
  6
Continuous
100
AcDbLine
 10
394.164898571792
 20
106.4911502430914
 30
0.0
 11
393.2268085717916
 21
106.4911502430914
 31
0.0
  0
SPLINE
  5
74BA
330
70C7
100
AcDbEntity
  8
1外形線
  6
Continuous
100
AcDbSpline
210
0.0
220
0.0
230
1.0
 70
     8
 71
     3
 72
     9
 73
     5
 74
     0
 42
0.000000001
 43
0.0000000001
 40
0.0001025853
 40
0.0001025853
 40
0.0001025853
 40
0.0001025853
 40
0.0008615613
 40
0.001703986
 40
0.001703986
 40
0.001703986
 40
0.001703986
 10
393.1847985717924
 20
92.53858924309133
 30
0.0
 10
393.3565285717924
 20
92.41703824309116
 30
0.0
 10
393.7063885717918
 20
92.15495624309141
 30
0.0
 10
393.9148985717921
 20
91.8384502430913
 30
0.0
 10
393.9148985717921
 20
91.66814824309131
 30
0.0
  0
SPLINE
  5
74BB
330
70C7
100
AcDbEntity
  8
1外形線
  6
Continuous
100
AcDbSpline
210
0.0
220
0.0
230
1.0
 70
     8
 71
     3
 72
     9
 73
     5
 74
     0
 42
0.000000001
 43
0.0000000001
 40
0.0
 40
0.0
 40
0.0
 40
0.0
 40
0.000424008
 40
0.0016005961
 40
0.0016005961
 40
0.0016005961
 40
0.0016005961
 10
379.4148985717921
 20
91.66814824309131
 30
0.0
 10
379.4148985717921
 20
91.75388324309142
 30
0.0
 10
379.5243985717917
 20
92.07783824309126
 30
0.0
 10
379.880668571792
 20
92.35096724309142
 30
0.0
 10
380.1451885717917
 20
92.53858924309133
 30
0.0
  0
SPLINE
  5
74BC
330
70C7
100
AcDbEntity
  8
1外形線
  6
Continuous
100
AcDbSpline
210
0.0
220
0.0
230
1.0
 70
     8
 71
     3
 72
     8
 73
     4
 74
     0
 42
0.000000001
 43
0.0000000001
 40
4.3050705
 40
4.3050705
 40
4.3050705
 40
4.3050705
 40
4.4790109
 40
4.4790109
 40
4.4790109
 40
4.4790109
 10
374.1725085717918
 20
85.63877324309123
 30
0.0
 10
374.1663885717918
 20
85.61061024309129
 30
0.0
 10
374.1648985717922
 20
85.5821052430913
 30
0.0
 10
374.1648985717922
 20
85.55362824309122
 30
0.0
  0
SPLINE
  5
74BD
330
70C7
100
AcDbEntity
  8
1外形線
  6
Continuous
100
AcDbSpline
210
0.0
220
0.0
230
1.0
 70
     8
 71
     3
 72
     9
 73
     5
 74
     0
 42
0.000000001
 43
0.0000000001
 40
0.0
 40
0.0
 40
0.0
 40
0.0
 40
0.0005039781
 40
0.0010159854
 40
0.0010159854
 40
0.0010159854
 40
0.0010159854
 10
379.483958571792
 20
103.1436522430913
 30
0.0
 10
379.546708571792
 20
102.9776892430914
 30
0.0
 10
379.7902485717915
 20
102.7537862430913
 30
0.0
 10
380.0860185717921
 20
102.7700782430913
 30
0.0
 10
380.2148985717924
 20
102.8215772430912
 30
0.0
  0
SPLINE
  5
74BE
330
70C7
100
AcDbEntity
  8
1外形線
  6
Continuous
100
AcDbSpline
210
0.0
220
0.0
230
1.0
 70
     8
 71
     3
 72
     8
 73
     4
 74
     0
 42
0.000000001
 43
0.0000000001
 40
0.0
 40
0.0
 40
0.0
 40
0.0
 40
0.000211156
 40
0.000211156
 40
0.000211156
 40
0.000211156
 10
379.4148985717921
 20
103.5958072430912
 30
0.0
 10
379.4148985717921
 20
103.5514842430911
 30
0.0
 10
379.4171085717918
 20
103.4884342430914
 30
0.0
 10
379.4205185717921
 20
103.4188582430913
 30
0.0
  0
SPLINE
  5
74BF
330
70C7
100
AcDbEntity
  8
1外形線
  6
Continuous
100
AcDbSpline
210
0.0
220
0.0
230
1.0
 70
     8
 71
     3
 72
     9
 73
     5
 74
     0
 42
0.000000001
 43
0.0000000001
 40
0.0
 40
0.0
 40
0.0
 40
0.0
 40
0.0005124149
 40
0.0010162759
 40
0.0010162759
 40
0.0010162759
 40
0.0010162759
 10
393.114898571792
 20
102.8215772430912
 30
0.0
 10
393.2438985717919
 20
102.7700792430912
 30
0.0
 10
393.5397485717923
 20
102.7536922430913
 30
0.0
 10
393.7833085717922
 20
102.9781082430913
 30
0.0
 10
393.8458385717914
 20
103.1436522430913
 30
0.0
  0
SPLINE
  5
74C0
330
70C7
100
AcDbEntity
  8
1外形線
  6
Continuous
100
AcDbSpline
210
0.0
220
0.0
230
1.0
 70
     8
 71
     3
 72
     8
 73
     4
 74
     0
 42
0.000000001
 43
0.0000000001
 40
0.0
 40
0.0
 40
0.0
 40
0.0
 40
0.000211156
 40
0.000211156
 40
0.000211156
 40
0.000211156
 10
393.9092785717922
 20
103.4188582430913
 30
0.0
 10
393.9126785717919
 20
103.4884132430913
 30
0.0
 10
393.9148985717921
 20
103.5514842430911
 30
0.0
 10
393.9148985717921
 20
103.5958072430912
 30
0.0
  0
POLYLINE
  5
74C1
330
70C7
100
AcDbEntity
  8
1外形線
  6
Continuous
100
AcDb2dPolyline
 66
     1
 10
0.0
 20
0.0
 30
0.0
 70
     2
  0
VERTEX
  5
74C2
330
74C1
100
AcDbEntity
  8
1外形線
100
AcDbVertex
100
AcDb2dVertex
 10
379.4148985717921
 20
89.09907324309143
 30
0.0
  0
VERTEX
  5
74C3
330
74C1
100
AcDbEntity
  8
1外形線
100
AcDbVertex
100
AcDb2dVertex
 10
379.415118571792
 20
89.0801192430913
 30
0.0
 42
0.0061477182
 70
     1
  0
VERTEX
  5
74C4
330
74C1
100
AcDbEntity
  8
1外形線
100
AcDbVertex
100
AcDb2dVertex
 10
379.4158085717919
 20
89.06101024309123
 30
0.0
 42
0.0059700574
  0
VERTEX
  5
74C5
330
74C1
100
AcDbEntity
  8
1外形線
100
AcDbVertex
100
AcDb2dVertex
 10
379.416958571792
 20
89.04173824309124
 30
0.0
 42
0.0059271276
 70
     1
  0
VERTEX
  5
74C6
330
74C1
100
AcDbEntity
  8
1外形線
100
AcDbVertex
100
AcDb2dVertex
 10
379.4185885717917
 20
89.02232424309136
 30
0.0
 42
0.0060585723
  0
VERTEX
  5
74C7
330
74C1
100
AcDbEntity
  8
1外形線
100
AcDbVertex
100
AcDb2dVertex
 10
379.4207185717916
 20
89.00278324309125
 30
0.0
 42
0.0061223612
 70
     1
  0
VERTEX
  5
74C8
330
74C1
100
AcDbEntity
  8
1外形線
100
AcDbVertex
100
AcDb2dVertex
 10
379.4233385717918
 20
88.98313824309116
 30
0.0
 42
0.0061694821
  0
VERTEX
  5
74C9
330
74C1
100
AcDbEntity
  8
1外形線
100
AcDbVertex
100
AcDb2dVertex
 10
379.4264885717922
 20
88.96339924309131
 30
0.0
 42
0.0062031561
 70
     1
  0
VERTEX
  5
74CA
330
74C1
100
AcDbEntity
  8
1外形線
100
AcDbVertex
100
AcDb2dVertex
 10
379.4301485717916
 20
88.94359024309142
 30
0.0
 42
0.0062684444
  0
VERTEX
  5
74CB
330
74C1
100
AcDbEntity
  8
1外形線
100
AcDbVertex
100
AcDb2dVertex
 10
379.4343585717917
 20
88.92372724309144
 30
0.0
 42
0.00630733
 70
     1
  0
VERTEX
  5
74CC
330
74C1
100
AcDbEntity
  8
1外形線
100
AcDbVertex
100
AcDb2dVertex
 10
379.4390885717922
 20
88.90383224309131
 30
0.0
 42
0.0063635204
  0
VERTEX
  5
74CD
330
74C1
100
AcDbEntity
  8
1外形線
100
AcDbVertex
100
AcDb2dVertex
 10
379.4443785717923
 20
88.88392424309131
 30
0.0
 42
0.0063981092
 70
     1
  0
VERTEX
  5
74CE
330
74C1
100
AcDbEntity
  8
1外形線
100
AcDbVertex
100
AcDb2dVertex
 10
379.4502085717923
 20
88.8640242430913
 30
0.0
 42
0.0064517803
  0
VERTEX
  5
74CF
330
74C1
100
AcDbEntity
  8
1外形線
100
AcDbVertex
100
AcDb2dVertex
 10
379.4566085717917
 20
88.84415624309122
 30
0.0
 42
0.0064842186
 70
     1
  0
VERTEX
  5
74D0
330
74C1
100
AcDbEntity
  8
1外形線
100
AcDbVertex
100
AcDb2dVertex
 10
379.4635485717919
 20
88.82433924309134
 30
0.0
 42
0.0065331562
  0
VERTEX
  5
74D1
330
74C1
100
AcDbEntity
  8
1外形線
100
AcDbVertex
100
AcDb2dVertex
 10
379.471068571792
 20
88.80459924309116
 30
0.0
 42
0.0065625798
 70
     1
  0
VERTEX
  5
74D2
330
74C1
100
AcDbEntity
  8
1外形線
100
AcDbVertex
100
AcDb2dVertex
 10
379.4791485717916
 20
88.78495624309129
 30
0.0
 42
0.0066068718
  0
VERTEX
  5
74D3
330
74C1
100
AcDbEntity
  8
1外形線
100
AcDbVertex
100
AcDb2dVertex
 10
379.4877985717923
 20
88.76543724309135
 30
0.0
 42
0.0066332106
 70
     1
  0
VERTEX
  5
74D4
330
74C1
100
AcDbEntity
  8
1外形線
100
AcDbVertex
100
AcDb2dVertex
 10
379.4969985717918
 20
88.74606024309128
 30
0.0
 42
0.0066723774
  0
VERTEX
  5
74D5
330
74C1
100
AcDbEntity
  8
1外形線
100
AcDbVertex
100
AcDb2dVertex
 10
379.5067685717914
 20
88.72685624309132
 30
0.0
 42
0.0066953773
 70
     1
  0
VERTEX
  5
74D6
330
74C1
100
AcDbEntity
  8
1外形線
100
AcDbVertex
100
AcDb2dVertex
 10
379.5170885717918
 20
88.70784124309125
 30
0.0
 42
0.0067291233
  0
VERTEX
  5
74D7
330
74C1
100
AcDbEntity
  8
1外形線
100
AcDbVertex
100
AcDb2dVertex
 10
379.5279685717916
 20
88.68904724309141
 30
0.0
 42
0.006748604
 70
     1
  0
VERTEX
  5
74D8
330
74C1
100
AcDbEntity
  8
1外形線
100
AcDbVertex
100
AcDb2dVertex
 10
379.5393885717923
 20
88.67048824309131
 30
0.0
 42
0.0067766317
  0
VERTEX
  5
74D9
330
74C1
100
AcDbEntity
  8
1外形線
100
AcDbVertex
100
AcDb2dVertex
 10
379.5513485717921
 20
88.65219724309122
 30
0.0
 42
0.0067924239
 70
     1
  0
VERTEX
  5
74DA
330
74C1
100
AcDbEntity
  8
1外形線
100
AcDbVertex
100
AcDb2dVertex
 10
379.5638385717922
 20
88.63418824309134
 30
0.0
 42
0.0068144884
  0
VERTEX
  5
74DB
330
74C1
100
AcDbEntity
  8
1外形線
100
AcDbVertex
100
AcDb2dVertex
 10
379.5768485717919
 20
88.61649324309132
 30
0.0
 42
0.0068264568
 70
     1
  0
VERTEX
  5
74DC
330
74C1
100
AcDbEntity
  8
1外形線
100
AcDbVertex
100
AcDb2dVertex
 10
379.5903585717916
 20
88.5991232430913
 30
0.0
 42
0.0068423631
  0
VERTEX
  5
74DD
330
74C1
100
AcDbEntity
  8
1外形線
100
AcDbVertex
100
AcDb2dVertex
 10
379.6043685717924
 20
88.58211324309127
 30
0.0
 42
0.006850398
 70
     1
  0
VERTEX
  5
74DE
330
74C1
100
AcDbEntity
  8
1外形線
100
AcDbVertex
100
AcDb2dVertex
 10
379.618858571792
 20
88.56546924309123
 30
0.0
 42
0.0068599908
  0
VERTEX
  5
74DF
330
74C1
100
AcDbEntity
  8
1外形線
100
AcDbVertex
100
AcDb2dVertex
 10
379.6338185717924
 20
88.54922724309131
 30
0.0
 42
0.0068640354
 70
     1
  0
VERTEX
  5
74E0
330
74C1
100
AcDbEntity
  8
1外形線
100
AcDbVertex
100
AcDb2dVertex
 10
379.649208571792
 20
88.53338924309127
 30
0.0
 42
0.0068672742
  0
VERTEX
  5
74E1
330
74C1
100
AcDbEntity
  8
1外形線
100
AcDbVertex
100
AcDb2dVertex
 10
379.665048571792
 20
88.51799124309128
 30
0.0
 42
0.0068673132
 70
     1
  0
VERTEX
  5
74E2
330
74C1
100
AcDbEntity
  8
1外形線
100
AcDbVertex
100
AcDb2dVertex
 10
379.6812885717919
 20
88.50303324309129
 30
0.0
 42
0.0068641614
  0
VERTEX
  5
74E3
330
74C1
100
AcDbEntity
  8
1外形線
100
AcDbVertex
100
AcDb2dVertex
 10
379.6979385717915
 20
88.48854924309126
 30
0.0
 42
0.0068601348
 70
     1
  0
VERTEX
  5
74E4
330
74C1
100
AcDbEntity
  8
1外形線
100
AcDbVertex
100
AcDb2dVertex
 10
379.714948571792
 20
88.47453624309128
 30
0.0
 42
0.0068505
  0
VERTEX
  5
74E5
330
74C1
100
AcDbEntity
  8
1外形線
100
AcDbVertex
100
AcDb2dVertex
 10
379.7323185717916
 20
88.46102624309128
 30
0.0
 42
0.0068424749
 70
     1
  0
VERTEX
  5
74E6
330
74C1
100
AcDbEntity
  8
1外形線
100
AcDbVertex
100
AcDb2dVertex
 10
379.7500085717921
 20
88.44801424309116
 30
0.0
 42
0.0068266277
  0
VERTEX
  5
74E7
330
74C1
100
AcDbEntity
  8
1外形線
100
AcDbVertex
100
AcDb2dVertex
 10
379.7680185717919
 20
88.4355302430913
 30
0.0
 42
0.0068145741
 70
     1
  0
VERTEX
  5
74E8
330
74C1
100
AcDbEntity
  8
1外形線
100
AcDbVertex
100
AcDb2dVertex
 10
379.7863085717919
 20
88.42356524309115
 30
0.0
 42
0.0067922854
  0
VERTEX
  5
74E9
330
74C1
100
AcDbEntity
  8
1外形線
100
AcDbVertex
100
AcDb2dVertex
 10
379.8048685717914
 20
88.41214924309133
 30
0.0
 42
0.0067767817
 70
     1
  0
VERTEX
  5
74EA
330
74C1
100
AcDbEntity
  8
1外形線
100
AcDbVertex
100
AcDb2dVertex
 10
379.8236685717922
 20
88.40126724309129
 30
0.0
 42
0.0067495288
  0
VERTEX
  5
74EB
330
74C1
100
AcDbEntity
  8
1外形線
100
AcDbVertex
100
AcDb2dVertex
 10
379.8426785717921
 20
88.39094824309132
 30
0.0
 42
0.0067289702
 70
     1
  0
VERTEX
  5
74EC
330
74C1
100
AcDbEntity
  8
1外形線
100
AcDbVertex
100
AcDb2dVertex
 10
379.8618885717916
 20
88.38117424309121
 30
0.0
 42
0.0066924326
  0
VERTEX
  5
74ED
330
74C1
100
AcDbEntity
  8
1外形線
100
AcDbVertex
100
AcDb2dVertex
 10
379.8812585717916
 20
88.37197324309135
 30
0.0
 42
0.0066732674
 70
     1
  0
VERTEX
  5
74EE
330
74C1
100
AcDbEntity
  8
1外形線
100
AcDbVertex
100
AcDb2dVertex
 10
379.9007785717914
 20
88.36332424309125
 30
0.0
 42
0.006643878
  0
VERTEX
  5
74EF
330
74C1
100
AcDbEntity
  8
1外形線
100
AcDbVertex
100
AcDb2dVertex
 10
379.9204285717916
 20
88.35525024309118
 30
0.0
 42
0.0066039239
 70
     1
  0
VERTEX
  5
74F0
330
74C1
100
AcDbEntity
  8
1外形線
100
AcDbVertex
100
AcDb2dVertex
 10
379.9401685717922
 20
88.34772924309119
 30
0.0
 42
0.0065258527
  0
VERTEX
  5
74F1
330
74C1
100
AcDbEntity
  8
1外形線
100
AcDbVertex
100
AcDb2dVertex
 10
379.9599685717923
 20
88.34078324309121
 30
0.0
 42
0.0065438759
 70
     1
  0
VERTEX
  5
74F2
330
74C1
100
AcDbEntity
  8
1外形線
100
AcDbVertex
100
AcDb2dVertex
 10
379.9798485717921
 20
88.33438524309121
 30
0.0
 42
0.0066084817
  0
VERTEX
  5
74F3
330
74C1
100
AcDbEntity
  8
1外形線
100
AcDbVertex
100
AcDb2dVertex
 10
379.9997885717922
 20
88.32855424309128
 30
0.0
 42
0.0064143338
 70
     1
  0
VERTEX
  5
74F4
330
74C1
100
AcDbEntity
  8
1外形線
100
AcDbVertex
100
AcDb2dVertex
 10
380.0196585717923
 20
88.32326624309121
 30
0.0
 42
0.0059893436
  0
VERTEX
  5
74F5
330
74C1
100
AcDbEntity
  8
1外形線
100
AcDbVertex
100
AcDb2dVertex
 10
380.0393985717921
 20
88.31853824309133
 30
0.0
 42
0.0064948966
 70
     1
  0
VERTEX
  5
74F6
330
74C1
100
AcDbEntity
  8
1外形線
100
AcDbVertex
100
AcDb2dVertex
 10
380.059418571792
 20
88.31433124309137
 30
0.0
 42
0.0075598194
  0
VERTEX
  5
74F7
330
74C1
100
AcDbEntity
  8
1外形線
100
AcDbVertex
100
AcDb2dVertex
 10
380.0798285717921
 20
88.31065524309133
 30
0.0
 42
0.005850014
 70
     1
  0
VERTEX
  5
74F8
330
74C1
100
AcDbEntity
  8
1外形線
100
AcDbVertex
100
AcDb2dVertex
 10
380.0989685717915
 20
88.30752224309117
 30
0.0
 42
0.002308713
  0
VERTEX
  5
74F9
330
74C1
100
AcDbEntity
  8
1外形線
100
AcDbVertex
100
AcDb2dVertex
 10
380.1162385717918
 20
88.30495524309117
 30
0.0
 42
0.0078951282
 70
     1
  0
VERTEX
  5
74FA
330
74C1
100
AcDbEntity
  8
1外形線
100
AcDbVertex
100
AcDb2dVertex
 10
380.1381485717922
 20
88.30276724309124
 30
0.0
 42
0.013360163
  0
VERTEX
  5
74FB
330
74C1
100
AcDbEntity
  8
1外形線
100
AcDbVertex
100
AcDb2dVertex
 10
380.1714885717921
 20
88.3008032430912
 30
0.0
 42
0.0066971773
 70
     1
  0
VERTEX
  5
74FC
330
74C1
100
AcDbEntity
  8
1外形線
100
AcDbVertex
100
AcDb2dVertex
 10
380.2148985717924
 20
88.29907724309123
 30
0.0
 42
0.0036320601
  0
SEQEND
  5
74FD
330
74C1
100
AcDbEntity
  8
1外形線
  0
POLYLINE
  5
74FE
330
70C7
100
AcDbEntity
  8
1外形線
  6
Continuous
100
AcDb2dPolyline
 66
     1
 10
0.0
 20
0.0
 30
0.0
 70
     2
  0
VERTEX
  5
74FF
330
74FE
100
AcDbEntity
  8
1外形線
100
AcDbVertex
100
AcDb2dVertex
 10
393.114898571792
 20
88.29907724309123
 30
0.0
  0
VERTEX
  5
7500
330
74FE
100
AcDbEntity
  8
1外形線
100
AcDbVertex
100
AcDb2dVertex
 10
393.1338485717916
 20
88.29930124309134
 30
0.0
 42
0.0061476624
 70
     1
  0
VERTEX
  5
7501
330
74FE
100
AcDbEntity
  8
1外形線
100
AcDbVertex
100
AcDb2dVertex
 10
393.1529585717918
 20
88.29998324309121
 30
0.0
 42
0.0059700089
  0
VERTEX
  5
7502
330
74FE
100
AcDbEntity
  8
1外形線
100
AcDbVertex
100
AcDb2dVertex
 10
393.1722285717916
 20
88.30114024309137
 30
0.0
 42
0.0059270851
 70
     1
  0
VERTEX
  5
7503
330
74FE
100
AcDbEntity
  8
1外形線
100
AcDbVertex
100
AcDb2dVertex
 10
393.1916485717922
 20
88.30276724309124
 30
0.0
 42
0.006058535
  0
VERTEX
  5
7504
330
74FE
100
AcDbEntity
  8
1外形線
100
AcDbVertex
100
AcDb2dVertex
 10
393.2111885717915
 20
88.30489724309131
 30
0.0
 42
0.0061223299
 70
     1
  0
VERTEX
  5
7505
330
74FE
100
AcDbEntity
  8
1外形線
100
AcDbVertex
100
AcDb2dVertex
 10
393.2308285717919
 20
88.30752224309117
 30
0.0
 42
0.0061694569
  0
VERTEX
  5
7506
330
74FE
100
AcDbEntity
  8
1外形線
100
AcDbVertex
100
AcDb2dVertex
 10
393.2505685717917
 20
88.3106702430914
 30
0.0
 42
0.0062031373
 70
     1
  0
VERTEX
  5
7507
330
74FE
100
AcDbEntity
  8
1外形線
100
AcDbVertex
100
AcDb2dVertex
 10
393.2703785717914
 20
88.31433124309137
 30
0.0
 42
0.0062684321
  0
VERTEX
  5
7508
330
74FE
100
AcDbEntity
  8
1外形線
100
AcDbVertex
100
AcDb2dVertex
 10
393.2902385717918
 20
88.31853424309134
 30
0.0
 42
0.0063073246
 70
     1
  0
VERTEX
  5
7509
330
74FE
100
AcDbEntity
  8
1外形線
100
AcDbVertex
100
AcDb2dVertex
 10
393.310138571792
 20
88.32326624309121
 30
0.0
 42
0.0063635219
  0
VERTEX
  5
750A
330
74FE
100
AcDbEntity
  8
1外形線
100
AcDbVertex
100
AcDb2dVertex
 10
393.330048571792
 20
88.32855524309115
 30
0.0
 42
0.0063981179
 70
     1
  0
VERTEX
  5
750B
330
74FE
100
AcDbEntity
  8
1外形線
100
AcDbVertex
100
AcDb2dVertex
 10
393.3499485717922
 20
88.33438524309121
 30
0.0
 42
0.006451796
  0
VERTEX
  5
750C
330
74FE
100
AcDbEntity
  8
1外形線
100
AcDbVertex
100
AcDb2dVertex
 10
393.3698185717923
 20
88.34078324309121
 30
0.0
 42
0.0064842419
 70
     1
  0
VERTEX
  5
750D
330
74FE
100
AcDbEntity
  8
1外形線
100
AcDbVertex
100
AcDb2dVertex
 10
393.3896285717921
 20
88.34772924309119
 30
0.0
 42
0.0065331868
  0
VERTEX
  5
750E
330
74FE
100
AcDbEntity
  8
1外形線
100
AcDbVertex
100
AcDb2dVertex
 10
393.4093685717918
 20
88.35525024309118
 30
0.0
 42
0.0065626178
 70
     1
  0
VERTEX
  5
750F
330
74FE
100
AcDbEntity
  8
1外形線
100
AcDbVertex
100
AcDb2dVertex
 10
393.429018571792
 20
88.36332424309125
 30
0.0
 42
0.0066069171
  0
VERTEX
  5
7510
330
74FE
100
AcDbEntity
  8
1外形線
100
AcDbVertex
100
AcDb2dVertex
 10
393.4485385717918
 20
88.37197324309135
 30
0.0
 42
0.0066332634
 70
     1
  0
VERTEX
  5
7511
330
74FE
100
AcDbEntity
  8
1外形線
100
AcDbVertex
100
AcDb2dVertex
 10
393.4679085717918
 20
88.38117424309121
 30
0.0
 42
0.0066724376
  0
VERTEX
  5
7512
330
74FE
100
AcDbEntity
  8
1外形線
100
AcDbVertex
100
AcDb2dVertex
 10
393.4871185717922
 20
88.39094824309132
 30
0.0
 42
0.006695445
 70
     1
  0
VERTEX
  5
7513
330
74FE
100
AcDbEntity
  8
1外形線
100
AcDbVertex
100
AcDb2dVertex
 10
393.5061285717921
 20
88.40126724309129
 30
0.0
 42
0.006729198
  0
VERTEX
  5
7514
330
74FE
100
AcDbEntity
  8
1外形線
100
AcDbVertex
100
AcDb2dVertex
 10
393.524928571792
 20
88.41214924309133
 30
0.0
 42
0.0067486856
 70
     1
  0
VERTEX
  5
7515
330
74FE
100
AcDbEntity
  8
1外形線
100
AcDbVertex
100
AcDb2dVertex
 10
393.5434885717915
 20
88.42356524309115
 30
0.0
 42
0.0067767196
  0
VERTEX
  5
7516
330
74FE
100
AcDbEntity
  8
1外形線
100
AcDbVertex
100
AcDb2dVertex
 10
393.5617785717915
 20
88.4355302430913
 30
0.0
 42
0.006792519
 70
     1
  0
VERTEX
  5
7517
330
74FE
100
AcDbEntity
  8
1外形線
100
AcDbVertex
100
AcDb2dVertex
 10
393.5797885717922
 20
88.44801424309116
 30
0.0
 42
0.006814591
  0
VERTEX
  5
7518
330
74FE
100
AcDbEntity
  8
1外形線
100
AcDbVertex
100
AcDb2dVertex
 10
393.5974785717919
 20
88.46102624309128
 30
0.0
 42
0.0068265636
 70
     1
  0
VERTEX
  5
7519
330
74FE
100
AcDbEntity
  8
1外形線
100
AcDbVertex
100
AcDb2dVertex
 10
393.6148485717914
 20
88.47453624309128
 30
0.0
 42
0.0068424701
  0
VERTEX
  5
751A
330
74FE
100
AcDbEntity
  8
1外形線
100
AcDbVertex
100
AcDb2dVertex
 10
393.6318585717919
 20
88.48854924309126
 30
0.0
 42
0.0068505174
 70
     1
  0
VERTEX
  5
751B
330
74FE
100
AcDbEntity
  8
1外形線
100
AcDbVertex
100
AcDb2dVertex
 10
393.6484985717917
 20
88.50303324309129
 30
0.0
 42
0.0068601363
  0
VERTEX
  5
751C
330
74FE
100
AcDbEntity
  8
1外形線
100
AcDbVertex
100
AcDb2dVertex
 10
393.6647485717923
 20
88.51799124309128
 30
0.0
 42
0.0068641567
 70
     1
  0
VERTEX
  5
751D
330
74FE
100
AcDbEntity
  8
1外形線
100
AcDbVertex
100
AcDb2dVertex
 10
393.6805785717917
 20
88.53338924309127
 30
0.0
 42
0.0068673117
  0
VERTEX
  5
751E
330
74FE
100
AcDbEntity
  8
1外形線
100
AcDbVertex
100
AcDb2dVertex
 10
393.6959785717919
 20
88.54922724309131
 30
0.0
 42
0.0068672759
 70
     1
  0
VERTEX
  5
751F
330
74FE
100
AcDbEntity
  8
1外形線
100
AcDbVertex
100
AcDb2dVertex
 10
393.7109385717923
 20
88.56546924309123
 30
0.0
 42
0.0068640402
  0
VERTEX
  5
7520
330
74FE
100
AcDbEntity
  8
1外形線
100
AcDbVertex
100
AcDb2dVertex
 10
393.7254185717922
 20
88.58211324309127
 30
0.0
 42
0.0068599891
 70
     1
  0
VERTEX
  5
7521
330
74FE
100
AcDbEntity
  8
1外形線
100
AcDbVertex
100
AcDb2dVertex
 10
393.7394385717918
 20
88.5991232430913
 30
0.0
 42
0.0068503807
  0
VERTEX
  5
7522
330
74FE
100
AcDbEntity
  8
1外形線
100
AcDbVertex
100
AcDb2dVertex
 10
393.7529485717915
 20
88.61649324309132
 30
0.0
 42
0.0068423678
 70
     1
  0
VERTEX
  5
7523
330
74FE
100
AcDbEntity
  8
1外形線
100
AcDbVertex
100
AcDb2dVertex
 10
393.7659585717921
 20
88.63418824309134
 30
0.0
 42
0.0068265208
  0
VERTEX
  5
7524
330
74FE
100
AcDbEntity
  8
1外形線
100
AcDbVertex
100
AcDb2dVertex
 10
393.7784385717916
 20
88.65219724309122
 30
0.0
 42
0.0068144717
 70
     1
  0
VERTEX
  5
7525
330
74FE
100
AcDbEntity
  8
1外形線
100
AcDbVertex
100
AcDb2dVertex
 10
393.790408571792
 20
88.67048824309131
 30
0.0
 42
0.0067921904
  0
VERTEX
  5
7526
330
74FE
100
AcDbEntity
  8
1外形線
100
AcDbVertex
100
AcDb2dVertex
 10
393.8018285717918
 20
88.68904724309141
 30
0.0
 42
0.0067766938
 70
     1
  0
VERTEX
  5
7527
330
74FE
100
AcDbEntity
  8
1外形線
100
AcDbVertex
100
AcDb2dVertex
 10
393.8127085717916
 20
88.70784124309125
 30
0.0
 42
0.0067494471
  0
VERTEX
  5
7528
330
74FE
100
AcDbEntity
  8
1外形線
100
AcDbVertex
100
AcDb2dVertex
 10
393.8230285717919
 20
88.72685624309132
 30
0.0
 42
0.0067288956
 70
     1
  0
VERTEX
  5
7529
330
74FE
100
AcDbEntity
  8
1外形線
100
AcDbVertex
100
AcDb2dVertex
 10
393.8327985717916
 20
88.74606024309128
 30
0.0
 42
0.006692365
  0
VERTEX
  5
752A
330
74FE
100
AcDbEntity
  8
1外形線
100
AcDbVertex
100
AcDb2dVertex
 10
393.841998571792
 20
88.76543624309125
 30
0.0
 42
0.0066732072
 70
     1
  0
VERTEX
  5
752B
330
74FE
100
AcDbEntity
  8
1外形線
100
AcDbVertex
100
AcDb2dVertex
 10
393.8506485717918
 20
88.78495624309129
 30
0.0
 42
0.006643825
  0
VERTEX
  5
752C
330
74FE
100
AcDbEntity
  8
1外形線
100
AcDbVertex
100
AcDb2dVertex
 10
393.8587185717917
 20
88.80460224309127
 30
0.0
 42
0.0066038784
 70
     1
  0
VERTEX
  5
752D
330
74FE
100
AcDbEntity
  8
1外形線
100
AcDbVertex
100
AcDb2dVertex
 10
393.8662385717918
 20
88.82433924309134
 30
0.0
 42
0.0065258148
  0
VERTEX
  5
752E
330
74FE
100
AcDbEntity
  8
1外形線
100
AcDbVertex
100
AcDb2dVertex
 10
393.8731885717917
 20
88.84414624309124
 30
0.0
 42
0.0065438452
 70
     1
  0
VERTEX
  5
752F
330
74FE
100
AcDbEntity
  8
1外形線
100
AcDbVertex
100
AcDb2dVertex
 10
393.879588571792
 20
88.8640242430913
 30
0.0
 42
0.006608458
  0
VERTEX
  5
7530
330
74FE
100
AcDbEntity
  8
1外形線
100
AcDbVertex
100
AcDb2dVertex
 10
393.885418571792
 20
88.88396224309122
 30
0.0
 42
0.0064143181
 70
     1
  0
VERTEX
  5
7531
330
74FE
100
AcDbEntity
  8
1外形線
100
AcDbVertex
100
AcDb2dVertex
 10
393.8907085717921
 20
88.90383224309131
 30
0.0
 42
0.0059893352
  0
VERTEX
  5
7532
330
74FE
100
AcDbEntity
  8
1外形線
100
AcDbVertex
100
AcDb2dVertex
 10
393.8954385717917
 20
88.92357524309137
 30
0.0
 42
0.0064948947
 70
     1
  0
VERTEX
  5
7533
330
74FE
100
AcDbEntity
  8
1外形線
100
AcDbVertex
100
AcDb2dVertex
 10
393.899638571792
 20
88.94359024309142
 30
0.0
 42
0.0075598263
  0
VERTEX
  5
7534
330
74FE
100
AcDbEntity
  8
1外形線
100
AcDbVertex
100
AcDb2dVertex
 10
393.9033185717918
 20
88.96399924309116
 30
0.0
 42
0.0058500267
 70
     1
  0
VERTEX
  5
7535
330
74FE
100
AcDbEntity
  8
1外形線
100
AcDbVertex
100
AcDb2dVertex
 10
393.9064485717919
 20
88.98313824309116
 30
0.0
 42
0.0023087196
  0
VERTEX
  5
7536
330
74FE
100
AcDbEntity
  8
1外形線
100
AcDbVertex
100
AcDb2dVertex
 10
393.9090185717924
 20
89.00041724309131
 30
0.0
 42
0.0078951559
 70
     1
  0
VERTEX
  5
7537
330
74FE
100
AcDbEntity
  8
1外形線
100
AcDbVertex
100
AcDb2dVertex
 10
393.9112085717917
 20
89.02232424309136
 30
0.0
 42
0.013360236
  0
VERTEX
  5
7538
330
74FE
100
AcDbEntity
  8
1外形線
100
AcDbVertex
100
AcDb2dVertex
 10
393.9131685717922
 20
89.0556592430912
 30
0.0
 42
0.0066972253
 70
     1
  0
VERTEX
  5
7539
330
74FE
100
AcDbEntity
  8
1外形線
100
AcDbVertex
100
AcDb2dVertex
 10
393.9148985717921
 20
89.09907324309143
 30
0.0
 42
0.003632089
  0
SEQEND
  5
753A
330
74FE
100
AcDbEntity
  8
1外形線
  0
LINE
  5
753B
330
70C7
100
AcDbEntity
  8
1外形線
  6
Continuous
100
AcDbLine
 10
380.0070785717918
 20
102.7823102430911
 30
0.0
 11
393.3283385717915
 21
102.7823102430911
 31
0.0
  0
LINE
  5
753C
330
70C7
100
AcDbEntity
  8
1外形線
  6
Continuous
100
AcDbLine
 10
380.1451885717917
 20
92.53858924309133
 30
0.0
 11
393.1847985717924
 21
92.53858924309133
 31
0.0
  0
ARC
  5
7540
330
70C7
100
AcDbEntity
  8
1外形線
  6
Continuous
100
AcDbCircle
 10
333.2732918125795
 20
87.1990762430912
 30
0.0
 40
0.5
100
AcDbArc
 50
0.000000000000007
 51
90.0
  0
ARC
  5
7541
330
70C7
100
AcDbEntity
  8
1外形線
  6
Continuous
100
AcDbCircle
 10
333.2732918125795
 20
85.19907624309121
 30
0.0
 40
0.5
100
AcDbArc
 50
270.0
 51
0.000000000000007
  0
ARC
  5
7542
330
70C7
100
AcDbEntity
  8
1外形線
  6
Continuous
100
AcDbCircle
 10
322.2732918125795
 20
85.19907624309121
 30
0.0
 40
0.5
100
AcDbArc
 50
180.0
 51
270.0
  0
ARC
  5
7543
330
70C7
100
AcDbEntity
  8
1外形線
  6
Continuous
100
AcDbCircle
 10
322.2732918125795
 20
87.1990762430912
 30
0.0
 40
0.5
100
AcDbArc
 50
90.0
 51
180.0
  0
ARC
  5
75FD
330
70C7
100
AcDbEntity
  8
1外形線
  6
Continuous
100
AcDbCircle
 10
341.3968018125798
 20
94.39907624309126
 30
0.0
 40
1.5
100
AcDbArc
 50
261.1941199999857
 51
11.05042000001509
  0
ARC
  5
75FE
330
70C7
100
AcDbEntity
  8
1外形線
  6
Continuous
100
AcDbCircle
 10
345.5204018125797
 20
100.9990762430911
 30
0.0
 40
1.5
100
AcDbArc
 50
284.9562500000264
 51
34.81254999998029
  0
ARC
  5
75FF
330
70C7
100
AcDbEntity
  8
1外形線
  6
Continuous
100
AcDbCircle
 10
327.7732918125795
 20
107.4990762430911
 30
0.0
 40
19.8
100
AcDbArc
 50
319.6770199999824
 51
336.3296500000331
  0
ARC
  5
7600
330
70C7
100
AcDbEntity
  8
1外形線
  6
Continuous
100
AcDbCircle
 10
327.7732918125795
 20
107.4990762430911
 30
0.0
 40
20.0
100
AcDbArc
 50
216.511340000032
 51
230.5287499999705
  0
ARC
  5
7601
330
70C7
100
AcDbEntity
  8
1外形線
  6
Continuous
100
AcDbCircle
 10
311.7355218125796
 20
97.49907624309116
 30
0.0
 40
1.5
100
AcDbArc
 50
181.9142499999992
 51
241.9751500000073
  0
ARC
  5
7602
330
70C7
100
AcDbEntity
  8
1外形線
  6
Continuous
100
AcDbCircle
 10
316.9584818125796
 20
91.99907624309117
 30
0.0
 40
1.5
100
AcDbArc
 50
205.064939999984
 51
265.125839999985
  0
ARC
  5
7603
330
70C7
100
AcDbEntity
  8
1外形線
  6
Continuous
100
AcDbCircle
 10
316.6611018125796
 20
88.51173324309115
 30
0.0
 40
2.0
100
AcDbArc
 50
59.66203400001666
 51
85.12582900002225
  0
ARC
  5
7604
330
70C7
100
AcDbEntity
  8
1外形線
  6
Continuous
100
AcDbCircle
 10
313.7880918125794
 20
90.51631724309117
 30
0.0
 40
2.0
100
AcDbArc
 50
25.06494800003105
 51
50.5287430000186
  0
ARC
  5
7605
330
70C7
100
AcDbEntity
  8
1外形線
  6
Continuous
100
AcDbCircle
 10
310.0910318125799
 20
94.40947224309116
 30
0.0
 40
2.0
100
AcDbArc
 50
36.51134700000648
 51
61.97514199997957
  0
ARC
  5
7606
330
70C7
100
AcDbEntity
  8
1外形線
  6
Continuous
100
AcDbCircle
 10
308.2374718125794
 20
97.38216224309121
 30
0.0
 40
2.0
100
AcDbArc
 50
1.914260700001117
 51
10.64622427059988
  0
ARC
  5
7607
330
70C7
100
AcDbEntity
  8
1外形線
  6
Continuous
100
AcDbCircle
 10
327.7732918125795
 20
107.4990762430911
 30
0.0
 40
20.0
100
AcDbArc
 50
239.6620300000108
 51
245.2831199999788
  0
ARC
  5
7608
330
70C7
100
AcDbEntity
  8
1外形線
  6
Continuous
100
AcDbCircle
 10
318.4732918125793
 20
87.78233124309123
 30
0.0
 40
1.8
100
AcDbArc
 50
0.000000000000007
 51
64.74767099997599
  0
ARC
  5
7609
330
70C7
100
AcDbEntity
  8
1外形線
  6
Continuous
100
AcDbCircle
 10
327.7732918125795
 20
107.4990762430911
 30
0.0
 40
20.0
100
AcDbArc
 50
191.0214400000223
 51
207.3780600000099
  0
LINE
  5
760A
330
70C7
100
AcDbEntity
  8
1外形線
  6
Continuous
100
AcDbLine
 10
374.1648985717922
 20
92.89907524309137
 30
0.0
 11
399.1648985717922
 21
92.89907524309137
 31
0.0
  0
LINE
  5
760B
330
70C7
100
AcDbEntity
  8
1外形線
  6
Continuous
100
AcDbLine
 10
374.1648985717922
 20
94.68658424309138
 30
0.0
 11
399.1648985717922
 21
94.68658424309138
 31
0.0
  0
LINE
  5
760C
330
70C7
100
AcDbEntity
  8
1外形線
  6
Continuous
100
AcDbLine
 10
399.1648985717922
 20
99.54989024309135
 30
0.0
 11
374.1648985717922
 21
99.54989024309135
 31
0.0
  0
LINE
  5
760D
330
70C7
100
AcDbEntity
  8
1外形線
  6
Continuous
100
AcDbLine
 10
374.1648985717922
 20
101.8554152430913
 30
0.0
 11
399.1648985717922
 21
101.8554152430913
 31
0.0
  0
LINE
  5
760E
330
70C7
100
AcDbEntity
  8
1外形線
  6
Continuous
100
AcDbLine
 10
307.7732918125795
 20
36.98630440005479
 30
0.0
 11
349.873291812579
 21
36.98630440005479
 31
0.0
  0
LINE
  5
760F
330
70C7
100
AcDbEntity
  8
1外形線
  6
Continuous
100
AcDbLine
 10
332.4732918125793
 20
41.88630440005465
 30
0.0
 11
336.3732918125799
 21
41.88630440005465
 31
0.0
  0
LINE
  5
7610
330
70C7
100
AcDbEntity
  8
1外形線
  6
Continuous
100
AcDbLine
 10
307.7732918125795
 20
61.98630440005479
 30
0.0
 11
349.873291812579
 21
61.98630440005479
 31
0.0
  0
LINE
  5
7611
330
70C7
100
AcDbEntity
  8
1外形線
  6
Continuous
100
AcDbLine
 10
332.4732918125793
 20
57.48630440005479
 30
0.0
 11
336.3732918125799
 21
57.48630440005479
 31
0.0
  0
LINE
  5
7612
330
70C7
100
AcDbEntity
  8
1外形線
 48
3.0
100
AcDbLine
 10
307.7732918125795
 20
36.98630440005479
 30
0.0
 11
307.7732918125795
 21
61.98630440005479
 31
0.0
  0
ARC
  5
7613
330
70C7
100
AcDbEntity
  8
1外形線
 48
3.0
100
AcDbCircle
 10
316.7732918125795
 20
45.98630440005479
 30
0.0
 40
9.0
100
AcDbArc
 50
180.0
 51
270.0
  0
LINE
  5
7614
330
70C7
100
AcDbEntity
  8
1外形線
 48
3.0
100
AcDbLine
 10
347.7732918125795
 20
36.98630440005479
 30
0.0
 11
347.7732918125795
 21
61.98630440005479
 31
0.0
  0
LINE
  5
7615
330
70C7
100
AcDbEntity
  8
1外形線
 48
3.0
100
AcDbLine
 10
336.3732918125789
 20
41.88630440005465
 30
0.0
 11
336.3732918125799
 21
57.48630440005479
 31
0.0
  0
LINE
  5
7616
330
70C7
100
AcDbEntity
  8
1外形線
 48
3.0
100
AcDbLine
 10
332.4732918125793
 20
41.88630440005465
 30
0.0
 11
332.4732918125793
 21
57.48630440005479
 31
0.0
  0
ARC
  5
7617
330
70C7
100
AcDbEntity
  8
1外形線
 48
3.0
100
AcDbCircle
 10
338.7732918125795
 20
52.98630440005479
 30
0.0
 40
9.0
100
AcDbArc
 50
0.0
 51
90.0
  0
LINE
  5
7618
330
70C7
100
AcDbEntity
  8
1外形線
 48
3.0
100
AcDbLine
 10
307.7732918125795
 20
42.23630440005479
 30
0.0
 11
305.5644718125797
 21
42.23630440005479
 31
0.0
  0
LINE
  5
7619
330
70C7
100
AcDbEntity
  8
1外形線
 48
3.0
100
AcDbLine
 10
305.5644718125797
 20
42.23630440005479
 30
0.0
 11
305.5644718125797
 21
56.73630440005479
 31
0.0
  0
LINE
  5
761A
330
70C7
100
AcDbEntity
  8
1外形線
 48
3.0
100
AcDbLine
 10
305.5644718125797
 20
56.73630440005479
 30
0.0
 11
307.7732918125795
 21
56.73630440005479
 31
0.0
  0
LINE
  5
761B
330
70C7
100
AcDbEntity
  8
1外形線
 48
3.0
100
AcDbLine
 10
306.9296818125796
 20
42.23630440005479
 30
0.0
 11
306.9296818125796
 21
56.73630440005479
 31
0.0
  0
LINE
  5
761C
330
70C7
100
AcDbEntity
  8
1外形線
 48
3.0
100
AcDbLine
 10
349.873291812579
 20
36.98630440005479
 30
0.0
 11
349.873291812579
 21
61.98630440005479
 31
0.0
  0
LINE
  5
761D
330
70C7
100
AcDbEntity
  8
1外形線
 48
3.0
100
AcDbLine
 10
349.65349181258
 20
61.98630440005479
 30
0.0
 11
349.65349181258
 21
36.98630440005479
 31
0.0
  0
LINE
  5
761E
330
70C7
100
AcDbEntity
  8
1外形線
 48
3.0
100
AcDbLine
 10
348.3698418125797
 20
61.98630440005479
 30
0.0
 11
348.3698418125797
 21
36.98630440005479
 31
0.0
  0
CIRCLE
  5
761F
330
70C7
100
AcDbEntity
  8
1外形線
 48
3.0
100
AcDbCircle
 10
327.7732918125795
 20
49.48630440005479
 30
0.0
 40
2.1
  0
LINE
  5
7CF2
330
70C7
100
AcDbEntity
  8
1外形線
  6
Continuous
100
AcDbLine
 10
337.7824769919838
 20
126.1864064976886
 30
0.0
 11
337.584219201562
 21
124.9193434373252
 31
0.0
  0
ARC
  5
7CF3
330
70C7
100
AcDbEntity
  8
1外形線
  6
Continuous
100
AcDbCircle
 10
337.8964084005387
 20
126.9192434865707
 30
0.0
 40
0.5003147500000002
100
AcDbArc
 50
241.498817469657
 51
242.5176474696572
  0
ARC
  5
7CF4
330
70C7
100
AcDbEntity
  8
1外形線
  6
Continuous
100
AcDbCircle
 10
337.8964084005387
 20
126.9192434865707
 30
0.0
 40
0.5003147500000002
100
AcDbArc
 50
241.498817469657
 51
282.8920674696564
  0
ARC
  5
7CF5
330
70C7
100
AcDbEntity
  8
1外形線
  6
Continuous
100
AcDbCircle
 10
327.7732918125795
 20
107.4990762430911
 30
0.0
 40
20.0
100
AcDbArc
 50
207.8750174696535
 51
208.5397274696555
  0
ARC
  5
7CF6
330
70C7
100
AcDbEntity
  8
1外形線
  6
Continuous
100
AcDbCircle
 10
327.7732918125795
 20
107.4990762430911
 30
0.0
 40
20.0
100
AcDbArc
 50
203.8564574696512
 51
207.8750174696535
  0
ARC
  5
7CF7
330
70C7
100
AcDbEntity
  8
1外形線
  6
Continuous
100
AcDbCircle
 10
327.7732918125795
 20
107.4990762430911
 30
0.0
 40
20.0
100
AcDbArc
 50
202.2428774696573
 51
203.8564574696512
  0
ARC
  5
7CF8
330
70C7
100
AcDbEntity
  8
1外形線
  6
Continuous
100
AcDbCircle
 10
327.7732918125795
 20
107.4990762430911
 30
0.0
 40
20.0
100
AcDbArc
 50
69.68583146965482
 51
182.8659839825988
  0
ARC
  5
7CF9
330
70C7
100
AcDbEntity
  8
1外形線
  6
Continuous
100
AcDbCircle
 10
327.7732918125795
 20
107.4990762430911
 30
0.0
 40
20.0
100
AcDbArc
 50
61.34257946965724
 51
69.68583146965482
  0
LINE
  5
7CFA
330
70C7
100
AcDbEntity
  8
1外形線
  6
Continuous
100
AcDbLine
 10
310.1251616816046
 20
97.67342370486014
 30
0.0
 11
309.8170592300325
 21
97.50188092350439
 31
0.0
  0
LINE
  5
7CFB
330
70C7
100
AcDbEntity
  8
1外形線
  6
Continuous
100
AcDbLine
 10
309.4047249635559
 20
97.70299100599212
 30
0.0
 11
308.6251949691125
 21
98.45649609609573
 31
0.0
  0
LINE
  5
7CFC
330
70C7
100
AcDbEntity
  8
1外形線
  6
Continuous
100
AcDbLine
 10
309.5807706981533
 20
97.53282055283996
 30
0.0
 11
309.4047249635559
 21
97.70299100599212
 31
0.0
  0
ARC
  5
7CFD
330
70C7
100
AcDbEntity
  8
1外形線
  6
Continuous
100
AcDbCircle
 10
327.7732918125795
 20
107.4990762430911
 30
0.0
 40
21.6
100
AcDbArc
 50
351.1070174696553
 51
61.06415746965335
  0
ARC
  5
7CFE
330
70C7
100
AcDbEntity
  8
1外形線
  6
Continuous
100
AcDbCircle
 10
348.2244560808006
 20
104.2990755752412
 30
0.0
 40
0.9
100
AcDbArc
 50
171.1070174696553
 51
351.1070174696553
  0
ARC
  5
7CFF
330
70C7
100
AcDbEntity
  8
1外形線
  6
Continuous
100
AcDbCircle
 10
327.7727094665787
 20
107.4991327625308
 30
0.0
 40
19.80058408284176
100
AcDbArc
 50
351.1071163873209
 51
359.3685167025041
  0
ARC
  5
7D00
330
70C7
100
AcDbEntity
  8
1外形線
  6
Continuous
100
AcDbCircle
 10
327.7729392846906
 20
107.4989809072993
 30
0.0
 40
19.80036404298951
100
AcDbArc
 50
10.58758832374212
 51
23.26609504218748
  0
ARC
  5
7D01
330
70C7
100
AcDbEntity
  8
1外形線
  6
Continuous
100
AcDbCircle
 10
327.7732918125795
 20
107.4990762430911
 30
0.0
 40
19.8
100
AcDbArc
 50
34.48156851208321
 51
59.81114746965391
  0
ARC
  5
7D02
330
70C7
100
AcDbEntity
  8
1外形線
  6
Continuous
100
AcDbCircle
 10
327.7732918125795
 20
107.4990762430911
 30
0.0
 40
21.4
100
AcDbArc
 50
70.23130146965296
 51
156.7070174696575
  0
ARC
  5
7D03
330
70C7
100
AcDbEntity
  8
1外形線
  6
Continuous
100
AcDbCircle
 10
327.7732918125795
 20
107.4990762430911
 30
0.0
 40
21.4
100
AcDbArc
 50
159.3070325386749
 51
183.858204543885
  0
ARC
  5
7D04
330
70C7
100
AcDbEntity
  8
1外形線
  6
Continuous
100
AcDbCircle
 10
327.7732918125795
 20
107.4990762430911
 30
0.0
 40
21.4
100
AcDbArc
 50
66.9590964696593
 51
70.23130146965296
  0
ARC
  5
7D05
330
70C7
100
AcDbEntity
  8
1外形線
  6
Continuous
100
AcDbCircle
 10
327.7732918125795
 20
107.4990762430911
 30
0.0
 40
21.4
100
AcDbArc
 50
64.97993846965534
 51
66.9590964696593
  0
ARC
  5
7D06
330
70C7
100
AcDbEntity
  8
1外形線
  6
Continuous
100
AcDbCircle
 10
310.7101986709221
 20
100.6135166228207
 30
0.0
 40
3.000000000000764
100
AcDbArc
 50
195.0042985361198
 51
206.4459474696524
  0
ARC
  5
7D07
330
70C7
100
AcDbEntity
  8
1外形線
  6
Continuous
100
AcDbCircle
 10
310.7101986709214
 20
100.6135166228203
 30
0.0
 40
3.0
100
AcDbArc
 50
218.0587674696508
 51
225.9726774696587
  0
ARC
  5
7D08
330
70C7
100
AcDbEntity
  8
1外形線
  6
Continuous
100
AcDbCircle
 10
310.7101986709214
 20
100.6135166228203
 30
0.0
 40
3.0
100
AcDbArc
 50
206.4459474696525
 51
218.0587674696508
  0
ARC
  5
7D09
330
70C7
100
AcDbEntity
  8
1外形線
  6
Continuous
100
AcDbCircle
 10
310.0278731617227
 20
97.84816406460334
 30
0.0
 40
0.2
100
AcDbArc
 50
299.1070074696559
 51
28.53973746965382
  0
ARC
  5
7D0A
330
70C7
100
AcDbEntity
  8
1外形線
  6
Continuous
100
AcDbCircle
 10
309.7197707101506
 20
97.67662128324758
 30
0.0
 40
0.2
100
AcDbArc
 50
225.9726574696574
 51
299.1070274696591
  0
ARC
  5
7D0B
330
70C7
100
AcDbEntity
  8
1外形線
  6
Continuous
100
AcDbCircle
 10
337.8806128436531
 20
124.8729666227733
 30
0.0
 40
0.3
100
AcDbArc
 50
171.1070074696543
 51
239.8111574696543
  0
ARC
  5
7D0C
330
70C7
100
AcDbEntity
  8
1外形線
  6
Continuous
100
AcDbCircle
 10
338.0788706340748
 20
126.1400296831367
 30
0.0
 40
0.3
100
AcDbArc
 50
61.06414046965602
 51
171.1070374696539
  0
ARC
  5
7D0D
330
70C7
100
AcDbEntity
  8
1外形線
  6
Continuous
100
AcDbCircle
 10
337.124934563036
 20
124.6103798548189
 30
0.0
 40
0.5
100
AcDbArc
 50
19.16143346965251
 51
61.34259246965654
  0
SPLINE
  5
7D0E
330
70C7
100
AcDbEntity
  8
1外形線
  6
Continuous
100
AcDbSpline
210
0.0
220
0.0
230
1.0
 70
     8
 71
     3
 72
    11
 73
     7
 74
     0
 42
0.000000001
 43
0.0000000001
 40
0.20781738
 40
0.20781738
 40
0.20781738
 40
0.20781738
 40
0.29930091
 40
0.51330928
 40
0.72287233
 40
1.0
 40
1.0
 40
1.0
 40
1.0
 10
337.5933885485391
 20
124.7851629440336
 30
0.0
 10
337.593499946121
 20
124.7848722284015
 30
0.0
 10
337.5938436351016
 20
124.7839378655787
 30
0.0
 10
337.5942942118336
 20
124.7827033711038
 30
0.0
 10
337.5946751069651
 20
124.7816316048518
 30
0.0
 10
337.5947658848435
 20
124.7813643589411
 30
0.0
 10
337.5958584855314
 20
124.7781265319326
 30
0.0
  0
POLYLINE
  5
7D0F
330
70C7
100
AcDbEntity
  8
1外形線
  6
Continuous
100
AcDb2dPolyline
 66
     1
 10
0.0
 20
0.0
 30
0.0
 70
     2
  0
VERTEX
  5
7D10
330
7D0F
100
AcDbEntity
  8
1外形線
100
AcDbVertex
100
AcDb2dVertex
 10
337.6659417577285
 20
126.4768834874796
 30
0.0
  0
VERTEX
  5
7D11
330
7D0F
100
AcDbEntity
  8
1外形線
100
AcDbVertex
100
AcDb2dVertex
 10
337.662863122539
 20
126.4783672483664
 30
0.0
 42
-0.0003631201
 70
     1
  0
VERTEX
  5
7D12
330
7D0F
100
AcDbEntity
  8
1外形線
100
AcDbVertex
100
AcDb2dVertex
 10
337.6597751654763
 20
126.4798625895246
 30
0.0
 42
-0.0003652343
  0
VERTEX
  5
7D13
330
7D0F
100
AcDbEntity
  8
1外形線
100
AcDbVertex
100
AcDb2dVertex
 10
337.6566788745194
 20
126.4813693563647
 30
0.0
 42
-0.0003580366
 70
     1
  0
VERTEX
  5
7D14
330
7D0F
100
AcDbEntity
  8
1外形線
100
AcDbVertex
100
AcDb2dVertex
 10
337.6535727037745
 20
126.4828776690986
 30
0.0
 42
-0.0003407402
  0
VERTEX
  5
7D15
330
7D0F
100
AcDbEntity
  8
1外形線
100
AcDbVertex
100
AcDb2dVertex
 10
337.650459745029
 20
126.4844072873024
 30
0.0
 42
-0.0003273864
 70
     1
  0
VERTEX
  5
7D16
330
7D0F
100
AcDbEntity
  8
1外形線
100
AcDbVertex
100
AcDb2dVertex
 10
337.6473359185169
 20
126.4859386059894
 30
0.0
 42
-0.0003153314
  0
VERTEX
  5
7D17
330
7D0F
100
AcDbEntity
  8
1外形線
100
AcDbVertex
100
AcDb2dVertex
 10
337.6442037581102
 20
126.4874813503584
 30
0.0
 42
-0.000303879
 70
     1
  0
VERTEX
  5
7D18
330
7D0F
100
AcDbEntity
  8
1外形線
100
AcDbVertex
100
AcDb2dVertex
 10
337.6410607299369
 20
126.4890257952105
 30
0.0
 42
-0.0002908546
  0
VERTEX
  5
7D19
330
7D0F
100
AcDbEntity
  8
1外形線
100
AcDbVertex
100
AcDb2dVertex
 10
337.6379109137631
 20
126.4905915455326
 30
0.0
 42
-0.0002792648
 70
     1
  0
VERTEX
  5
7D1A
330
7D0F
100
AcDbEntity
  8
1外形線
100
AcDbVertex
100
AcDb2dVertex
 10
337.6347512178012
 20
126.4921588417485
 30
0.0
 42
-0.0002668204
  0
VERTEX
  5
7D1B
330
7D0F
100
AcDbEntity
  8
1外形線
100
AcDbVertex
100
AcDb2dVertex
 10
337.6315821999662
 20
126.4937377182357
 30
0.0
 42
-0.0002555941
 70
     1
  0
VERTEX
  5
7D1C
330
7D0F
100
AcDbEntity
  8
1外形線
100
AcDbVertex
100
AcDb2dVertex
 10
337.6284033023432
 20
126.4953181406166
 30
0.0
 42
-0.0002433287
  0
VERTEX
  5
7D1D
330
7D0F
100
AcDbEntity
  8
1外形線
100
AcDbVertex
100
AcDb2dVertex
 10
337.625216628741
 20
126.4969200230569
 30
0.0
 42
-0.0002323279
 70
     1
  0
VERTEX
  5
7D1E
330
7D0F
100
AcDbEntity
  8
1外形線
100
AcDbVertex
100
AcDb2dVertex
 10
337.6220200753506
 20
126.4985234513911
 30
0.0
 42
-0.0002203302
  0
VERTEX
  5
7D1F
330
7D0F
100
AcDbEntity
  8
1外形線
100
AcDbVertex
100
AcDb2dVertex
 10
337.6188136421723
 20
126.5001284256191
 30
0.0
 42
-0.000209579
 70
     1
  0
VERTEX
  5
7D20
330
7D0F
100
AcDbEntity
  8
1外形線
100
AcDbVertex
100
AcDb2dVertex
 10
337.6155978871208
 20
126.5017449801183
 30
0.0
 42
-0.0001978171
  0
VERTEX
  5
7D21
330
7D0F
100
AcDbEntity
  8
1外形線
100
AcDbVertex
100
AcDb2dVertex
 10
337.6123737981751
 20
126.5033729602995
 30
0.0
 42
-0.0001872962
 70
     1
  0
VERTEX
  5
7D22
330
7D0F
100
AcDbEntity
  8
1外形線
100
AcDbVertex
100
AcDb2dVertex
 10
337.6091403873563
 20
126.5050125207518
 30
0.0
 42
-0.0001757631
  0
VERTEX
  5
7D23
330
7D0F
100
AcDbEntity
  8
1外形線
100
AcDbVertex
100
AcDb2dVertex
 10
337.6058970967493
 20
126.506653627098
 30
0.0
 42
-0.0001654732
 70
     1
  0
VERTEX
  5
7D24
330
7D0F
100
AcDbEntity
  8
1外形線
100
AcDbVertex
100
AcDb2dVertex
 10
337.6026429383756
 20
126.5082964339274
 30
0.0
 42
-0.0001541736
  0
VERTEX
  5
7D25
330
7D0F
100
AcDbEntity
  8
1外形線
100
AcDbVertex
100
AcDb2dVertex
 10
337.5993819920016
 20
126.5099605462268
 30
0.0
 42
-0.0001440841
 70
     1
  0
VERTEX
  5
7D26
330
7D0F
100
AcDbEntity
  8
1外形線
100
AcDbVertex
100
AcDb2dVertex
 10
337.5961101778604
 20
126.5116263590094
 30
0.0
 42
-0.0001329683
  0
VERTEX
  5
7D27
330
7D0F
100
AcDbEntity
  8
1外形線
100
AcDbVertex
100
AcDb2dVertex
 10
337.5928284839313
 20
126.5132937176858
 30
0.0
 42
-0.0001231362
 70
     1
  0
VERTEX
  5
7D28
330
7D0F
100
AcDbEntity
  8
1外形線
100
AcDbVertex
100
AcDb2dVertex
 10
337.5895374681292
 20
126.5149726566333
 30
0.0
 42
-0.0001123116
  0
VERTEX
  5
7D29
330
7D0F
100
AcDbEntity
  8
1外形線
100
AcDbVertex
100
AcDb2dVertex
 10
337.5862355845603
 20
126.5166532960643
 30
0.0
 42
-0.0001025466
 70
     1
  0
VERTEX
  5
7D2A
330
7D0F
100
AcDbEntity
  8
1外形線
100
AcDbVertex
100
AcDb2dVertex
 10
337.5829263550757
 20
126.5183452065876
 30
0.0
 42
-0.0000917153
  0
VERTEX
  5
7D2B
330
7D0F
100
AcDbEntity
  8
1外形線
100
AcDbVertex
100
AcDb2dVertex
 10
337.5796072458031
 20
126.5200386630047
 30
0.0
 42
-0.0000824924
 70
     1
  0
VERTEX
  5
7D2C
330
7D0F
100
AcDbEntity
  8
1外形線
100
AcDbVertex
100
AcDb2dVertex
 10
337.5762768387
 20
126.521744008872
 30
0.0
 42
-0.0000722744
  0
VERTEX
  5
7D2D
330
7D0F
100
AcDbEntity
  8
1外形線
100
AcDbVertex
100
AcDb2dVertex
 10
337.5729311818508
 20
126.5234618625468
 30
0.0
 42
-0.0000624489
 70
     1
  0
VERTEX
  5
7D2E
330
7D0F
100
AcDbEntity
  8
1外形線
100
AcDbVertex
100
AcDb2dVertex
 10
337.5695879310232
 20
126.525169218076
 30
0.0
 42
-0.0000519081
  0
VERTEX
  5
7D2F
330
7D0F
100
AcDbEntity
  8
1外形線
100
AcDbVertex
100
AcDb2dVertex
 10
337.5662565359411
 20
126.5268747185326
 30
0.0
 42
-0.0000436138
 70
     1
  0
VERTEX
  5
7D30
330
7D0F
100
AcDbEntity
  8
1外形線
100
AcDbVertex
100
AcDb2dVertex
 10
337.5628606200241
 20
126.5286206796101
 30
0.0
 42
-0.0000321992
  0
VERTEX
  5
7D31
330
7D0F
100
AcDbEntity
  8
1外形線
100
AcDbVertex
100
AcDb2dVertex
 10
337.5593735078441
 20
126.5304112752219
 30
0.0
 42
-0.000023752
 70
     1
  0
VERTEX
  5
7D32
330
7D0F
100
AcDbEntity
  8
1外形線
100
AcDbVertex
100
AcDb2dVertex
 10
337.5560933598089
 20
126.5320885136864
 30
0.0
 42
-0.0000237096
  0
VERTEX
  5
7D33
330
7D0F
100
AcDbEntity
  8
1外形線
100
AcDbVertex
100
AcDb2dVertex
 10
337.5531237858417
 20
126.5336159397741
 30
0.0
 42
-0.0000032806
 70
     1
  0
VERTEX
  5
7D34
330
7D0F
100
AcDbEntity
  8
1外形線
100
AcDbVertex
100
AcDb2dVertex
 10
337.5492867082926
 20
126.5355827546822
 30
0.0
 42
0.000034427
  0
VERTEX
  5
7D35
330
7D0F
100
AcDbEntity
  8
1外形線
100
AcDbVertex
100
AcDb2dVertex
 10
337.5433479904221
 20
126.5386274178908
 30
0.0
 42
0.0000191281
 70
     1
  0
VERTEX
  5
7D36
330
7D0F
100
AcDbEntity
  8
1外形線
100
AcDbVertex
100
AcDb2dVertex
 10
337.535554115527
 20
126.5426303886775
 30
0.0
 42
0.0000079657
  0
SEQEND
  5
7D37
330
7D0F
100
AcDbEntity
  8
1外形線
  0
SPLINE
  5
7D38
330
70C7
100
AcDbEntity
  8
1外形線
  6
Continuous
100
AcDbSpline
210
0.0
220
0.0
230
1.0
 70
     8
 71
     3
 72
     8
 73
     4
 74
     0
 42
0.000000001
 43
0.0000000001
 40
2.078777399999998
 40
2.078777399999998
 40
2.078777399999998
 40
2.078777399999998
 40
2.0792589
 40
2.0792589
 40
2.0792589
 40
2.0792589
 10
337.6654814761899
 20
126.4754878650718
 30
0.0
 10
337.6655228434486
 20
126.4754611489735
 30
0.0
 10
337.6655396390884
 20
126.475458520954
 30
0.0
 10
337.6655519248978
 20
126.4754464769144
 30
0.0
  0
SPLINE
  5
7D39
330
70C7
100
AcDbEntity
  8
1外形線
  6
Continuous
100
AcDbSpline
210
0.0
220
0.0
230
1.0
 70
     8
 71
     3
 72
    11
 73
     7
 74
     0
 42
0.000000001
 43
0.0000000001
 40
0.0
 40
0.0
 40
0.0
 40
0.0
 40
0.10347416
 40
0.22970717
 40
0.6228928700000002
 40
1.0
 40
1.0
 40
1.0
 40
1.0
 10
338.0104672493375
 20
126.4321254598135
 30
0.0
 10
338.0081150928764
 20
126.431511700103
 30
0.0
 10
337.9819640052551
 20
126.4257045719644
 30
0.0
 10
337.906205853695
 20
126.4157462670782
 30
0.0
 10
337.7959803850209
 20
126.4223351605032
 30
0.0
 10
337.706364228778
 20
126.4541817000994
 30
0.0
 10
337.6655519248978
 20
126.4754464769144
 30
0.0
  0
POLYLINE
  5
7D3A
330
70C7
100
AcDbEntity
  8
1外形線
  6
Continuous
100
AcDb2dPolyline
 66
     1
 10
0.0
 20
0.0
 30
0.0
 70
     2
  0
VERTEX
  5
7D3B
330
7D3A
100
AcDbEntity
  8
1外形線
100
AcDbVertex
100
AcDb2dVertex
 10
337.6654814761899
 20
126.4754878650718
 30
0.0
  0
VERTEX
  5
7D3C
330
7D3A
100
AcDbEntity
  8
1外形線
100
AcDbVertex
100
AcDb2dVertex
 10
337.6494227045319
 20
126.4838407928122
 30
0.0
 42
0.000229756
 70
     1
  0
VERTEX
  5
7D3D
330
7D3A
100
AcDbEntity
  8
1外形線
100
AcDbVertex
100
AcDb2dVertex
 10
337.6330854041916
 20
126.4923283971023
 30
0.0
 42
0.000217415
  0
VERTEX
  5
7D3E
330
7D3A
100
AcDbEntity
  8
1外形線
100
AcDbVertex
100
AcDb2dVertex
 10
337.6164567314441
 20
126.5009526876041
 30
0.0
 42
0.0002146549
 70
     1
  0
VERTEX
  5
7D3F
330
7D3A
100
AcDbEntity
  8
1外形線
100
AcDbVertex
100
AcDb2dVertex
 10
337.5995503901417
 20
126.5096912767216
 30
0.0
 42
0.0002226637
  0
VERTEX
  5
7D40
330
7D3A
100
AcDbEntity
  8
1外形線
100
AcDbVertex
100
AcDb2dVertex
 10
337.5823586043053
 20
126.5185656245147
 30
0.0
 42
0.0002263261
 70
     1
  0
VERTEX
  5
7D41
330
7D3A
100
AcDbEntity
  8
1外形線
100
AcDbVertex
100
AcDb2dVertex
 10
337.5648946477228
 20
126.5275635323543
 30
0.0
 42
0.0002291733
  0
VERTEX
  5
7D42
330
7D3A
100
AcDbEntity
  8
1外形線
100
AcDbVertex
100
AcDb2dVertex
 10
337.5471480826915
 20
126.5366765117567
 30
0.0
 42
0.0002311649
 70
     1
  0
VERTEX
  5
7D43
330
7D3A
100
AcDbEntity
  8
1外形線
100
AcDbVertex
100
AcDb2dVertex
 10
337.5291352747872
 20
126.5459121236694
 30
0.0
 42
0.0002351713
  0
VERTEX
  5
7D44
330
7D3A
100
AcDbEntity
  8
1外形線
100
AcDbVertex
100
AcDb2dVertex
 10
337.510844798328
 20
126.5552620341981
 30
0.0
 42
0.0002375167
 70
     1
  0
VERTEX
  5
7D45
330
7D3A
100
AcDbEntity
  8
1外形線
100
AcDbVertex
100
AcDb2dVertex
 10
337.4922920309109
 20
126.5647339588793
 30
0.0
 42
0.0002411456
  0
VERTEX
  5
7D46
330
7D3A
100
AcDbEntity
  8
1外形線
100
AcDbVertex
100
AcDb2dVertex
 10
337.473465976918
 20
126.5743093748524
 30
0.0
 42
0.000243363
 70
     1
  0
VERTEX
  5
7D47
330
7D3A
100
AcDbEntity
  8
1外形線
100
AcDbVertex
100
AcDb2dVertex
 10
337.4543825718613
 20
126.5840060320313
 30
0.0
 42
0.0002470163
  0
VERTEX
  5
7D48
330
7D3A
100
AcDbEntity
  8
1外形線
100
AcDbVertex
100
AcDb2dVertex
 10
337.4350308201229
 20
126.5938054075547
 30
0.0
 42
0.0002492414
 70
     1
  0
VERTEX
  5
7D49
330
7D3A
100
AcDbEntity
  8
1外形線
100
AcDbVertex
100
AcDb2dVertex
 10
337.4154235654269
 20
126.603705491761
 30
0.0
 42
0.000252836
  0
VERTEX
  5
7D4A
330
7D3A
100
AcDbEntity
  8
1外形線
100
AcDbVertex
100
AcDb2dVertex
 10
337.395555437816
 20
126.6137172465638
 30
0.0
 42
0.0002550516
 70
     1
  0
VERTEX
  5
7D4B
330
7D3A
100
AcDbEntity
  8
1外形線
100
AcDbVertex
100
AcDb2dVertex
 10
337.3754367471416
 20
126.6238289371023
 30
0.0
 42
0.0002586299
  0
VERTEX
  5
7D4C
330
7D3A
100
AcDbEntity
  8
1外形線
100
AcDbVertex
100
AcDb2dVertex
 10
337.3550605775522
 20
126.6340416455024
 30
0.0
 42
0.000260844
 70
     1
  0
VERTEX
  5
7D4D
330
7D3A
100
AcDbEntity
  8
1外形線
100
AcDbVertex
100
AcDb2dVertex
 10
337.3344387847936
 20
126.6443535166915
 30
0.0
 42
0.0002643869
  0
VERTEX
  5
7D4E
330
7D3A
100
AcDbEntity
  8
1外形線
100
AcDbVertex
100
AcDb2dVertex
 10
337.3135644530139
 20
126.6547656327952
 30
0.0
 42
0.000266639
 70
     1
  0
VERTEX
  5
7D4F
330
7D3A
100
AcDbEntity
  8
1外形線
100
AcDbVertex
100
AcDb2dVertex
 10
337.292448880044
 20
126.6652661043634
 30
0.0
 42
0.0002702427
  0
VERTEX
  5
7D50
330
7D3A
100
AcDbEntity
  8
1外形線
100
AcDbVertex
100
AcDb2dVertex
 10
337.2710847199686
 20
126.6758662024887
 30
0.0
 42
0.0002724229
 70
     1
  0
VERTEX
  5
7D51
330
7D3A
100
AcDbEntity
  8
1外形線
100
AcDbVertex
100
AcDb2dVertex
 10
337.2494837006819
 20
126.6865438487542
 30
0.0
 42
0.0002757973
  0
VERTEX
  5
7D52
330
7D3A
100
AcDbEntity
  8
1外形線
100
AcDbVertex
100
AcDb2dVertex
 10
337.2276410101409
 20
126.6973200394511
 30
0.0
 42
0.0002783269
 70
     1
  0
VERTEX
  5
7D53
330
7D3A
100
AcDbEntity
  8
1外形線
100
AcDbVertex
100
AcDb2dVertex
 10
337.2055624483676
 20
126.7081736236988
 30
0.0
 42
0.0002825123
  0
VERTEX
  5
7D54
330
7D3A
100
AcDbEntity
  8
1外形線
100
AcDbVertex
100
AcDb2dVertex
 10
337.1832436333828
 20
126.7191154088218
 30
0.0
 42
0.0002839518
 70
     1
  0
VERTEX
  5
7D55
330
7D3A
100
AcDbEntity
  8
1外形線
100
AcDbVertex
100
AcDb2dVertex
 10
337.1607053127416
 20
126.730142148443
 30
0.0
 42
0.0002854337
  0
VERTEX
  5
7D56
330
7D3A
100
AcDbEntity
  8
1外形線
100
AcDbVertex
100
AcDb2dVertex
 10
337.1379394547621
 20
126.741234855933
 30
0.0
 42
0.0002907612
 70
     1
  0
VERTEX
  5
7D57
330
7D3A
100
AcDbEntity
  8
1外形線
100
AcDbVertex
100
AcDb2dVertex
 10
337.1149269856346
 20
126.7524268808013
 30
0.0
 42
0.0003013009
  0
VERTEX
  5
7D58
330
7D3A
100
AcDbEntity
  8
1外形線
100
AcDbVertex
100
AcDb2dVertex
 10
337.0916450539953
 20
126.7637015552595
 30
0.0
 42
0.0002937354
 70
     1
  0
VERTEX
  5
7D59
330
7D3A
100
AcDbEntity
  8
1外形線
100
AcDbVertex
100
AcDb2dVertex
 10
337.0682470987715
 20
126.7750045056421
 30
0.0
 42
0.0002750547
  0
VERTEX
  5
7D5A
330
7D3A
100
AcDbEntity
  8
1外形線
100
AcDbVertex
100
AcDb2dVertex
 10
337.0447789970526
 20
126.786318431871
 30
0.0
 42
0.0003102214
 70
     1
  0
VERTEX
  5
7D5B
330
7D3A
100
AcDbEntity
  8
1外形線
100
AcDbVertex
100
AcDb2dVertex
 10
337.0206869576224
 20
126.797881810966
 30
0.0
 42
0.0003799968
  0
VERTEX
  5
7D5C
330
7D3A
100
AcDbEntity
  8
1外形線
100
AcDbVertex
100
AcDb2dVertex
 10
336.9957772901245
 20
126.8097958014456
 30
0.0
 42
0.0002833574
 70
     1
  0
VERTEX
  5
7D5D
330
7D3A
100
AcDbEntity
  8
1外形線
100
AcDbVertex
100
AcDb2dVertex
 10
336.9722611261669
 20
126.8210160312433
 30
0.0
 42
0.0000825533
  0
VERTEX
  5
7D5E
330
7D3A
100
AcDbEntity
  8
1外形線
100
AcDbVertex
100
AcDb2dVertex
 10
336.9508968150884
 20
126.8312011643373
 30
0.0
 42
0.0004185633
 70
     1
  0
VERTEX
  5
7D5F
330
7D3A
100
AcDbEntity
  8
1外形線
100
AcDbVertex
100
AcDb2dVertex
 10
336.9229918978537
 20
126.8444137998853
 30
0.0
 42
0.0007336267
  0
VERTEX
  5
7D60
330
7D3A
100
AcDbEntity
  8
1外形線
100
AcDbVertex
100
AcDb2dVertex
 10
336.879412625944
 20
126.8649171675309
 30
0.0
 42
0.000351629
 70
     1
  0
VERTEX
  5
7D61
330
7D3A
100
AcDbEntity
  8
1外形線
100
AcDbVertex
100
AcDb2dVertex
 10
336.821984296148
 20
126.8918790920332
 30
0.0
 42
0.0001822774
  0
SEQEND
  5
7D62
330
7D3A
100
AcDbEntity
  8
1外形線
  0
ARC
  5
8120
330
70C7
100
AcDbEntity
  8
1外形線
  6
Continuous
100
AcDbCircle
 10
344.9166644689168
 20
119.2780603025733
 30
0.0
 40
1.0
100
AcDbArc
 50
214.4924474696584
 51
256.5939674696576
  0
ARC
  5
8121
330
70C7
100
AcDbEntity
  8
1外形線
  6
Continuous
100
AcDbCircle
 10
346.8818226179753
 20
115.7151674969322
 30
0.0
 40
1.0
100
AcDbArc
 50
161.1647274696545
 51
203.2662474696536
  0
ARC
  5
8122
330
70C7
100
AcDbEntity
  8
1外形線
  6
Continuous
100
AcDbCircle
 10
348.2186871072733
 20
111.3234284997064
 30
0.0
 40
1.0
100
AcDbArc
 50
190.5948674696547
 51
232.6963874696544
  0
ARC
  5
8123
330
70C7
100
AcDbEntity
  8
1外形線
  6
Continuous
100
AcDbCircle
 10
348.5720302383491
 20
107.2698869986581
 30
0.0
 40
1.0
100
AcDbArc
 50
137.2671374696591
 51
179.3686574696553
  0
ARC
  5
8124
330
70C7
100
AcDbEntity
  8
1外形線
  6
Continuous
100
AcDbCircle
 10
344.2790834620323
 20
116.6029960930709
 30
0.0
 40
1.75
100
AcDbArc
 50
341.1647174696552
 51
76.59397746965208
  0
ARC
  5
8125
330
70C7
100
AcDbEntity
  8
1外形線
  6
Continuous
100
AcDbCircle
 10
346.5520865055454
 20
109.1359815342876
 30
0.0
 40
1.75
100
AcDbArc
 50
317.2671274696528
 51
52.69639746965482
  0
ARC
  5
8126
330
70C7
100
AcDbEntity
  8
1外形線
  6
Continuous
100
AcDbCircle
 10
327.7732918125793
 20
107.4990762430912
 30
0.0
 40
21.5
100
AcDbArc
 50
156.7754305144358
 51
159.3626849078176
  0
LINE
  5
8127
330
70C7
100
AcDbEntity
  8
1外形線
 48
3.0
100
AcDbLine
 10
308.01551582065
 20
115.9773005768031
 30
0.0
 11
308.1175026633642
 21
115.9613426606415
 31
0.0
  0
LINE
  5
8128
330
70C7
100
AcDbEntity
  8
1外形線
 48
3.0
100
AcDbLine
 10
307.7538625018226
 20
115.0609805564478
 30
0.0
 11
307.6529426652496
 21
115.0767770942434
 31
0.0
  0
ARC
  5
83C6
330
70C7
100
AcDbEntity
  8
1外形線
  6
Continuous
100
AcDbCircle
 10
327.7732918125795
 20
107.4990762430911
 30
0.0
 40
20.0
100
AcDbArc
 50
191.5369444111918
 51
202.2428774696573
  0
LINE
  5
83D3
330
70C7
100
AcDbEntity
  8
1外形線
  6
Continuous
100
AcDbLine
 10
394.164898571792
 20
123.6253055752412
 30
0.0
 11
394.164898571792
 21
104.2990755752412
 31
0.0
  0
LINE
  5
83D4
330
70C7
100
AcDbEntity
  8
1外形線
  6
Continuous
100
AcDbLine
 10
393.914898571792
 20
125.1358355752412
 30
0.0
 11
393.914898571792
 21
125.4990755752412
 31
0.0
  0
LINE
  5
83D5
330
70C7
100
AcDbEntity
  8
1外形線
  6
Continuous
100
AcDbLine
 10
399.1648985717922
 20
124.1656255752412
 30
0.0
 11
399.1648985717922
 21
104.2990755752412
 31
0.0
  0
LINE
  5
83D6
330
70C7
100
AcDbEntity
  8
1外形線
  6
Continuous
100
AcDbLine
 10
399.1648985717922
 20
104.2990755752412
 30
0.0
 11
399.1648985717922
 21
103.7990755752411
 31
0.0
  0
LINE
  5
83D7
330
70C7
100
AcDbEntity
  8
1外形線
  6
Continuous
100
AcDbLine
 10
379.1648985717921
 20
104.2990755752412
 30
0.0
 11
379.1648985717921
 21
123.6253055752412
 31
0.0
  0
LINE
  5
83D8
330
70C7
100
AcDbEntity
  8
1外形線
  6
Continuous
100
AcDbLine
 10
379.4148985717921
 20
125.1335355752412
 30
0.0
 11
379.4148985717921
 21
125.4990755752412
 31
0.0
  0
LINE
  5
83D9
330
70C7
100
AcDbEntity
  8
1外形線
  6
Continuous
100
AcDbLine
 10
374.1648985717922
 20
124.1656255752412
 30
0.0
 11
374.1648985717922
 21
104.2990755752412
 31
0.0
  0
LINE
  5
83DA
330
70C7
100
AcDbEntity
  8
1外形線
  6
Continuous
100
AcDbLine
 10
374.1648985717922
 20
104.2990755752412
 30
0.0
 11
374.1648985717922
 21
103.7990755752411
 31
0.0
  0
POLYLINE
  5
83DB
330
70C7
100
AcDbEntity
  8
1外形線
  6
Continuous
100
AcDb2dPolyline
 66
     1
 10
0.0
 20
0.0
 30
0.0
 70
     2
  0
VERTEX
  5
83DC
330
83DB
100
AcDbEntity
  8
1外形線
100
AcDbVertex
100
AcDb2dVertex
 10
398.7648885717922
 20
103.3990755752412
 30
0.0
  0
VERTEX
  5
83DD
330
83DB
100
AcDbEntity
  8
1外形線
100
AcDbVertex
100
AcDb2dVertex
 10
398.7743685717921
 20
103.3991855752412
 30
0.0
 42
0.0061476654
 70
     1
  0
VERTEX
  5
83DE
330
83DB
100
AcDbEntity
  8
1外形線
100
AcDbVertex
100
AcDb2dVertex
 10
398.7839285717921
 20
103.3995255752412
 30
0.0
 42
0.0059700146
  0
VERTEX
  5
83DF
330
83DB
100
AcDbEntity
  8
1外形線
100
AcDbVertex
100
AcDb2dVertex
 10
398.7935585717921
 20
103.4001055752412
 30
0.0
 42
0.0059270934
 70
     1
  0
VERTEX
  5
83E0
330
83DB
100
AcDbEntity
  8
1外形線
100
AcDbVertex
100
AcDb2dVertex
 10
398.8032685717922
 20
103.4009155752411
 30
0.0
 42
0.0060585462
  0
VERTEX
  5
83E1
330
83DB
100
AcDbEntity
  8
1外形線
100
AcDbVertex
100
AcDb2dVertex
 10
398.8130385717921
 20
103.4019855752412
 30
0.0
 42
0.006122344
 70
     1
  0
VERTEX
  5
83E2
330
83DB
100
AcDbEntity
  8
1外形線
100
AcDbVertex
100
AcDb2dVertex
 10
398.8228585717921
 20
103.4032955752412
 30
0.0
 42
0.006169474
  0
VERTEX
  5
83E3
330
83DB
100
AcDbEntity
  8
1外形線
100
AcDbVertex
100
AcDb2dVertex
 10
398.8327285717921
 20
103.4048755752412
 30
0.0
 42
0.0062031576
 70
     1
  0
VERTEX
  5
83E4
330
83DB
100
AcDbEntity
  8
1外形線
100
AcDbVertex
100
AcDb2dVertex
 10
398.8426385717921
 20
103.4067055752412
 30
0.0
 42
0.0062684552
  0
VERTEX
  5
83E5
330
83DB
100
AcDbEntity
  8
1外形線
100
AcDbVertex
100
AcDb2dVertex
 10
398.8525685717922
 20
103.4088055752412
 30
0.0
 42
0.0063073508
 70
     1
  0
VERTEX
  5
83E6
330
83DB
100
AcDbEntity
  8
1外形線
100
AcDbVertex
100
AcDb2dVertex
 10
398.8625185717922
 20
103.4111655752412
 30
0.0
 42
0.006363551
  0
VERTEX
  5
83E7
330
83DB
100
AcDbEntity
  8
1外形線
100
AcDbVertex
100
AcDb2dVertex
 10
398.8724685717921
 20
103.4138155752412
 30
0.0
 42
0.00639815
 70
     1
  0
VERTEX
  5
83E8
330
83DB
100
AcDbEntity
  8
1外形線
100
AcDbVertex
100
AcDb2dVertex
 10
398.8824185717922
 20
103.4167255752412
 30
0.0
 42
0.006451831
  0
VERTEX
  5
83E9
330
83DB
100
AcDbEntity
  8
1外形線
100
AcDbVertex
100
AcDb2dVertex
 10
398.8923585717921
 20
103.4199255752412
 30
0.0
 42
0.0064842797
 70
     1
  0
VERTEX
  5
83EA
330
83DB
100
AcDbEntity
  8
1外形線
100
AcDbVertex
100
AcDb2dVertex
 10
398.9022585717921
 20
103.4234055752412
 30
0.0
 42
0.0065332274
  0
VERTEX
  5
83EB
330
83DB
100
AcDbEntity
  8
1外形線
100
AcDbVertex
100
AcDb2dVertex
 10
398.9121285717922
 20
103.4271655752411
 30
0.0
 42
0.0065626611
 70
     1
  0
VERTEX
  5
83EC
330
83DB
100
AcDbEntity
  8
1外形線
100
AcDbVertex
100
AcDb2dVertex
 10
398.9219585717922
 20
103.4311955752412
 30
0.0
 42
0.0066069631
  0
VERTEX
  5
83ED
330
83DB
100
AcDbEntity
  8
1外形線
100
AcDbVertex
100
AcDb2dVertex
 10
398.9317185717922
 20
103.4355255752412
 30
0.0
 42
0.006633312
 70
     1
  0
VERTEX
  5
83EE
330
83DB
100
AcDbEntity
  8
1外形線
100
AcDbVertex
100
AcDb2dVertex
 10
398.9413985717921
 20
103.4401255752411
 30
0.0
 42
0.0066724886
  0
VERTEX
  5
83EF
330
83DB
100
AcDbEntity
  8
1外形線
100
AcDbVertex
100
AcDb2dVertex
 10
398.951008571792
 20
103.4450055752412
 30
0.0
 42
0.0066954981
 70
     1
  0
VERTEX
  5
83F0
330
83DB
100
AcDbEntity
  8
1外形線
100
AcDbVertex
100
AcDb2dVertex
 10
398.9605085717922
 20
103.4501655752411
 30
0.0
 42
0.0067292534
  0
VERTEX
  5
83F1
330
83DB
100
AcDbEntity
  8
1外形線
100
AcDbVertex
100
AcDb2dVertex
 10
398.9699085717922
 20
103.4556155752412
 30
0.0
 42
0.0067487429
 70
     1
  0
VERTEX
  5
83F2
330
83DB
100
AcDbEntity
  8
1外形線
100
AcDbVertex
100
AcDb2dVertex
 10
398.9791885717922
 20
103.4613155752412
 30
0.0
 42
0.0067767788
  0
VERTEX
  5
83F3
330
83DB
100
AcDbEntity
  8
1外形線
100
AcDbVertex
100
AcDb2dVertex
 10
398.9883385717921
 20
103.4673055752412
 30
0.0
 42
0.0067925797
 70
     1
  0
VERTEX
  5
83F4
330
83DB
100
AcDbEntity
  8
1外形線
100
AcDbVertex
100
AcDb2dVertex
 10
398.9973385717922
 20
103.4735455752412
 30
0.0
 42
0.006814653
  0
VERTEX
  5
83F5
330
83DB
100
AcDbEntity
  8
1外形線
100
AcDbVertex
100
AcDb2dVertex
 10
399.0061885717921
 20
103.4800455752411
 30
0.0
 42
0.006826627
 70
     1
  0
VERTEX
  5
83F6
330
83DB
100
AcDbEntity
  8
1外形線
100
AcDbVertex
100
AcDb2dVertex
 10
399.0148685717922
 20
103.4868055752412
 30
0.0
 42
0.0068425348
  0
VERTEX
  5
83F7
330
83DB
100
AcDbEntity
  8
1外形線
100
AcDbVertex
100
AcDb2dVertex
 10
399.0233785717921
 20
103.4938155752412
 30
0.0
 42
0.0068505826
 70
     1
  0
VERTEX
  5
83F8
330
83DB
100
AcDbEntity
  8
1外形線
100
AcDbVertex
100
AcDb2dVertex
 10
399.0316985717921
 20
103.5010555752412
 30
0.0
 42
0.0068602019
  0
VERTEX
  5
83F9
330
83DB
100
AcDbEntity
  8
1外形線
100
AcDbVertex
100
AcDb2dVertex
 10
399.0398185717921
 20
103.5085355752411
 30
0.0
 42
0.0068642194
 70
     1
  0
VERTEX
  5
83FA
330
83DB
100
AcDbEntity
  8
1外形線
100
AcDbVertex
100
AcDb2dVertex
 10
399.0477385717923
 20
103.5162355752412
 30
0.0
 42
0.0068673649
  0
VERTEX
  5
83FB
330
83DB
100
AcDbEntity
  8
1外形線
100
AcDbVertex
100
AcDb2dVertex
 10
399.0554385717921
 20
103.5241455752412
 30
0.0
 42
0.0068673638
 70
     1
  0
VERTEX
  5
83FC
330
83DB
100
AcDbEntity
  8
1外形線
100
AcDbVertex
100
AcDb2dVertex
 10
399.0629185717921
 20
103.5322755752412
 30
0.0
 42
0.0068642129
  0
VERTEX
  5
83FD
330
83DB
100
AcDbEntity
  8
1外形線
100
AcDbVertex
100
AcDb2dVertex
 10
399.070158571792
 20
103.5405955752412
 30
0.0
 42
0.006860178
 70
     1
  0
VERTEX
  5
83FE
330
83DB
100
AcDbEntity
  8
1外形線
100
AcDbVertex
100
AcDb2dVertex
 10
399.0771685717922
 20
103.5490955752412
 30
0.0
 42
0.0068505346
  0
VERTEX
  5
83FF
330
83DB
100
AcDbEntity
  8
1外形線
100
AcDbVertex
100
AcDb2dVertex
 10
399.0839185717922
 20
103.5577855752411
 30
0.0
 42
0.0068425003
 70
     1
  0
VERTEX
  5
8400
330
83DB
100
AcDbEntity
  8
1外形線
100
AcDbVertex
100
AcDb2dVertex
 10
399.0904285717923
 20
103.5666255752412
 30
0.0
 42
0.0068266431
  0
VERTEX
  5
8401
330
83DB
100
AcDbEntity
  8
1外形線
100
AcDbVertex
100
AcDb2dVertex
 10
399.0966685717922
 20
103.5756355752412
 30
0.0
 42
0.0068145793
 70
     1
  0
VERTEX
  5
8402
330
83DB
100
AcDbEntity
  8
1外形線
100
AcDbVertex
100
AcDb2dVertex
 10
399.1026485717921
 20
103.5847755752412
 30
0.0
 42
0.0067922813
  0
VERTEX
  5
8403
330
83DB
100
AcDbEntity
  8
1外形線
100
AcDbVertex
100
AcDb2dVertex
 10
399.1083585717921
 20
103.5940555752412
 30
0.0
 42
0.0067767679
 70
     1
  0
VERTEX
  5
8404
330
83DB
100
AcDbEntity
  8
1外形線
100
AcDbVertex
100
AcDb2dVertex
 10
399.1137985717921
 20
103.6034555752412
 30
0.0
 42
0.0067495056
  0
VERTEX
  5
8405
330
83DB
100
AcDbEntity
  8
1外形線
100
AcDbVertex
100
AcDb2dVertex
 10
399.1189585717921
 20
103.6129655752412
 30
0.0
 42
0.0067289374
 70
     1
  0
VERTEX
  5
8406
330
83DB
100
AcDbEntity
  8
1外形線
100
AcDbVertex
100
AcDb2dVertex
 10
399.1238485717921
 20
103.6225655752411
 30
0.0
 42
0.006692391
  0
VERTEX
  5
8407
330
83DB
100
AcDbEntity
  8
1外形線
100
AcDbVertex
100
AcDb2dVertex
 10
399.1284485717921
 20
103.6322555752412
 30
0.0
 42
0.0066732168
 70
     1
  0
VERTEX
  5
8408
330
83DB
100
AcDbEntity
  8
1外形線
100
AcDbVertex
100
AcDb2dVertex
 10
399.1327685717922
 20
103.6420155752411
 30
0.0
 42
0.006643819
  0
VERTEX
  5
8409
330
83DB
100
AcDbEntity
  8
1外形線
100
AcDbVertex
100
AcDb2dVertex
 10
399.1368085717923
 20
103.6518355752411
 30
0.0
 42
0.0066038564
 70
     1
  0
VERTEX
  5
840A
330
83DB
100
AcDbEntity
  8
1外形線
100
AcDbVertex
100
AcDb2dVertex
 10
399.1405685717921
 20
103.6617055752412
 30
0.0
 42
0.006525778
  0
VERTEX
  5
840B
330
83DB
100
AcDbEntity
  8
1外形線
100
AcDbVertex
100
AcDb2dVertex
 10
399.1440385717922
 20
103.6716155752412
 30
0.0
 42
0.006543793
 70
     1
  0
VERTEX
  5
840C
330
83DB
100
AcDbEntity
  8
1外形線
100
AcDbVertex
100
AcDb2dVertex
 10
399.1472385717922
 20
103.6815455752412
 30
0.0
 42
0.0066083902
  0
VERTEX
  5
840D
330
83DB
100
AcDbEntity
  8
1外形線
100
AcDbVertex
100
AcDb2dVertex
 10
399.1501585717922
 20
103.6915155752412
 30
0.0
 42
0.0064142374
 70
     1
  0
VERTEX
  5
840E
330
83DB
100
AcDbEntity
  8
1外形線
100
AcDbVertex
100
AcDb2dVertex
 10
399.1527985717921
 20
103.7014555752412
 30
0.0
 42
0.0059892476
  0
VERTEX
  5
840F
330
83DB
100
AcDbEntity
  8
1外形線
100
AcDbVertex
100
AcDb2dVertex
 10
399.155168571792
 20
103.7113255752412
 30
0.0
 42
0.006494786
 70
     1
  0
VERTEX
  5
8410
330
83DB
100
AcDbEntity
  8
1外形線
100
AcDbVertex
100
AcDb2dVertex
 10
399.1572685717922
 20
103.7213355752411
 30
0.0
 42
0.0075596826
  0
VERTEX
  5
8411
330
83DB
100
AcDbEntity
  8
1外形線
100
AcDbVertex
100
AcDb2dVertex
 10
399.1591085717921
 20
103.7315355752411
 30
0.0
 42
0.0058499018
 70
     1
  0
VERTEX
  5
8412
330
83DB
100
AcDbEntity
  8
1外形線
100
AcDbVertex
100
AcDb2dVertex
 10
399.1606685717923
 20
103.7411055752412
 30
0.0
 42
0.0023086673
  0
VERTEX
  5
8413
330
83DB
100
AcDbEntity
  8
1外形線
100
AcDbVertex
100
AcDb2dVertex
 10
399.1619585717921
 20
103.7497455752412
 30
0.0
 42
0.0078949687
 70
     1
  0
VERTEX
  5
8414
330
83DB
100
AcDbEntity
  8
1外形線
100
AcDbVertex
100
AcDb2dVertex
 10
399.1630485717922
 20
103.7607055752412
 30
0.0
 42
0.013359874
  0
VERTEX
  5
8415
330
83DB
100
AcDbEntity
  8
1外形線
100
AcDbVertex
100
AcDb2dVertex
 10
399.1640285717922
 20
103.7773655752412
 30
0.0
 42
0.0066970247
 70
     1
  0
VERTEX
  5
8416
330
83DB
100
AcDbEntity
  8
1外形線
100
AcDbVertex
100
AcDb2dVertex
 10
399.1648985717922
 20
103.7990755752411
 30
0.0
 42
0.0036319756
  0
SEQEND
  5
8417
330
83DB
100
AcDbEntity
  8
1外形線
  0
SPLINE
  5
8418
330
70C7
100
AcDbEntity
  8
1外形線
  6
Continuous
100
AcDbSpline
210
0.0
220
0.0
230
1.0
 70
     8
 71
     3
 72
     8
 73
     4
 74
     0
 42
0.000000001
 43
0.0000000001
 40
0.0
 40
0.0
 40
0.0
 40
0.0
 40
1.0
 40
1.0
 40
1.0
 40
1.0
 10
399.1648985717922
 20
124.1656255752412
 30
0.0
 10
399.1678285717922
 20
124.3832955752412
 30
0.0
 10
398.9971285717922
 20
124.6084655752412
 30
0.0
 10
398.7648885717922
 20
124.6090755752412
 30
0.0
  0
SPLINE
  5
8419
330
70C7
100
AcDbEntity
  8
1外形線
  6
Continuous
100
AcDbSpline
210
0.0
220
0.0
230
1.0
 70
     8
 71
     3
 72
     9
 73
     5
 74
     0
 42
0.000000001
 43
0.0000000001
 40
0.13835108
 40
0.13835108
 40
0.13835108
 40
0.13835108
 40
0.68872674
 40
1.0
 40
1.0
 40
1.0
 40
1.0
 10
395.2352985717921
 20
124.6090755752412
 30
0.0
 10
394.6755585717922
 20
124.7284955752412
 30
0.0
 10
393.983068571792
 20
124.9925255752412
 30
0.0
 10
393.8900785717922
 20
125.1774955752411
 30
0.0
 10
393.914898571792
 20
125.1182955752412
 30
0.0
  0
POLYLINE
  5
841A
330
70C7
100
AcDbEntity
  8
1外形線
  6
Continuous
100
AcDb2dPolyline
 66
     1
 10
0.0
 20
0.0
 30
0.0
 70
     2
  0
VERTEX
  5
841B
330
841A
100
AcDbEntity
  8
1外形線
100
AcDbVertex
100
AcDb2dVertex
 10
393.914898571792
 20
125.4990755752412
 30
0.0
  0
VERTEX
  5
841C
330
841A
100
AcDbEntity
  8
1外形線
100
AcDbVertex
100
AcDb2dVertex
 10
393.9148385717922
 20
125.5038155752412
 30
0.0
 42
0.0061476977
 70
     1
  0
VERTEX
  5
841D
330
841A
100
AcDbEntity
  8
1外形線
100
AcDbVertex
100
AcDb2dVertex
 10
393.9146685717922
 20
125.5085855752412
 30
0.0
 42
0.0059700294
  0
VERTEX
  5
841E
330
841A
100
AcDbEntity
  8
1外形線
100
AcDbVertex
100
AcDb2dVertex
 10
393.9143785717922
 20
125.5134055752412
 30
0.0
 42
0.0059270918
 70
     1
  0
VERTEX
  5
841F
330
841A
100
AcDbEntity
  8
1外形線
100
AcDbVertex
100
AcDb2dVertex
 10
393.9139785717922
 20
125.5182655752411
 30
0.0
 42
0.006058528
  0
VERTEX
  5
8420
330
841A
100
AcDbEntity
  8
1外形線
100
AcDbVertex
100
AcDb2dVertex
 10
393.9134385717922
 20
125.5231455752412
 30
0.0
 42
0.006122308
 70
     1
  0
VERTEX
  5
8421
330
841A
100
AcDbEntity
  8
1外形線
100
AcDbVertex
100
AcDb2dVertex
 10
393.9127885717921
 20
125.5280555752411
 30
0.0
 42
0.0061694206
  0
VERTEX
  5
8422
330
841A
100
AcDbEntity
  8
1外形線
100
AcDbVertex
100
AcDb2dVertex
 10
393.9119985717921
 20
125.5329955752412
 30
0.0
 42
0.006203086
 70
     1
  0
VERTEX
  5
8423
330
841A
100
AcDbEntity
  8
1外形線
100
AcDbVertex
100
AcDb2dVertex
 10
393.9110785717921
 20
125.5379455752412
 30
0.0
 42
0.0062683657
  0
VERTEX
  5
8424
330
841A
100
AcDbEntity
  8
1外形線
100
AcDbVertex
100
AcDb2dVertex
 10
393.9100285717922
 20
125.5429155752412
 30
0.0
 42
0.0063072426
 70
     1
  0
VERTEX
  5
8425
330
841A
100
AcDbEntity
  8
1外形線
100
AcDbVertex
100
AcDb2dVertex
 10
393.9088485717921
 20
125.5478855752413
 30
0.0
 42
0.0063634246
  0
VERTEX
  5
8426
330
841A
100
AcDbEntity
  8
1外形線
100
AcDbVertex
100
AcDb2dVertex
 10
393.9075285717922
 20
125.5528655752412
 30
0.0
 42
0.006398005
 70
     1
  0
VERTEX
  5
8427
330
841A
100
AcDbEntity
  8
1外形線
100
AcDbVertex
100
AcDb2dVertex
 10
393.9060685717922
 20
125.5578355752412
 30
0.0
 42
0.0064516678
  0
VERTEX
  5
8428
330
841A
100
AcDbEntity
  8
1外形線
100
AcDbVertex
100
AcDb2dVertex
 10
393.9044685717922
 20
125.5628055752412
 30
0.0
 42
0.006484098
 70
     1
  0
VERTEX
  5
8429
330
841A
100
AcDbEntity
  8
1外形線
100
AcDbVertex
100
AcDb2dVertex
 10
393.9027285717922
 20
125.5677555752412
 30
0.0
 42
0.0065330278
  0
VERTEX
  5
842A
330
841A
100
AcDbEntity
  8
1外形線
100
AcDbVertex
100
AcDb2dVertex
 10
393.900848571792
 20
125.5726955752412
 30
0.0
 42
0.0065624437
 70
     1
  0
VERTEX
  5
842B
330
841A
100
AcDbEntity
  8
1外形線
100
AcDbVertex
100
AcDb2dVertex
 10
393.8988385717921
 20
125.5776055752413
 30
0.0
 42
0.0066067283
  0
VERTEX
  5
842C
330
841A
100
AcDbEntity
  8
1外形線
100
AcDbVertex
100
AcDb2dVertex
 10
393.8966685717921
 20
125.5824855752412
 30
0.0
 42
0.0066330602
 70
     1
  0
VERTEX
  5
842D
330
841A
100
AcDbEntity
  8
1外形線
100
AcDbVertex
100
AcDb2dVertex
 10
393.8943685717923
 20
125.5873255752412
 30
0.0
 42
0.0066722206
  0
VERTEX
  5
842E
330
841A
100
AcDbEntity
  8
1外形線
100
AcDbVertex
100
AcDb2dVertex
 10
393.8919285717922
 20
125.5921255752412
 30
0.0
 42
0.0066952144
 70
     1
  0
VERTEX
  5
842F
330
841A
100
AcDbEntity
  8
1外形線
100
AcDbVertex
100
AcDb2dVertex
 10
393.8893485717921
 20
125.5968855752412
 30
0.0
 42
0.0067289548
  0
VERTEX
  5
8430
330
841A
100
AcDbEntity
  8
1外形線
100
AcDbVertex
100
AcDb2dVertex
 10
393.8866285717923
 20
125.6015755752412
 30
0.0
 42
0.0067484302
 70
     1
  0
VERTEX
  5
8431
330
841A
100
AcDbEntity
  8
1外形線
100
AcDbVertex
100
AcDb2dVertex
 10
393.8837685717921
 20
125.6062155752412
 30
0.0
 42
0.0067764533
  0
VERTEX
  5
8432
330
841A
100
AcDbEntity
  8
1外形線
100
AcDbVertex
100
AcDb2dVertex
 10
393.8807785717922
 20
125.6107955752412
 30
0.0
 42
0.0067922414
 70
     1
  0
VERTEX
  5
8433
330
841A
100
AcDbEntity
  8
1外形線
100
AcDbVertex
100
AcDb2dVertex
 10
393.8776585717921
 20
125.6152955752412
 30
0.0
 42
0.006814302
  0
VERTEX
  5
8434
330
841A
100
AcDbEntity
  8
1外形線
100
AcDbVertex
100
AcDb2dVertex
 10
393.8744085717922
 20
125.6197155752412
 30
0.0
 42
0.006826268
 70
     1
  0
VERTEX
  5
8435
330
841A
100
AcDbEntity
  8
1外形線
100
AcDbVertex
100
AcDb2dVertex
 10
393.8710285717922
 20
125.6240655752412
 30
0.0
 42
0.0068421741
  0
VERTEX
  5
8436
330
841A
100
AcDbEntity
  8
1外形線
100
AcDbVertex
100
AcDb2dVertex
 10
393.8675285717922
 20
125.6283155752412
 30
0.0
 42
0.006850205
 70
     1
  0
VERTEX
  5
8437
330
841A
100
AcDbEntity
  8
1外形線
100
AcDbVertex
100
AcDb2dVertex
 10
393.8639085717921
 20
125.6324755752412
 30
0.0
 42
0.006859788
  0
VERTEX
  5
8438
330
841A
100
AcDbEntity
  8
1外形線
100
AcDbVertex
100
AcDb2dVertex
 10
393.8601685717922
 20
125.6365355752412
 30
0.0
 42
0.0068638513
 70
     1
  0
VERTEX
  5
8439
330
841A
100
AcDbEntity
  8
1外形線
100
AcDbVertex
100
AcDb2dVertex
 10
393.8563185717922
 20
125.6404955752412
 30
0.0
 42
0.0068671462
  0
VERTEX
  5
843A
330
841A
100
AcDbEntity
  8
1外形線
100
AcDbVertex
100
AcDb2dVertex
 10
393.8523585717921
 20
125.6443455752412
 30
0.0
 42
0.0068671542
 70
     1
  0
VERTEX
  5
843B
330
841A
100
AcDbEntity
  8
1外形線
100
AcDbVertex
100
AcDb2dVertex
 10
393.8482985717921
 20
125.6480855752411
 30
0.0
 42
0.0068638863
  0
VERTEX
  5
843C
330
841A
100
AcDbEntity
  8
1外形線
100
AcDbVertex
100
AcDb2dVertex
 10
393.8441385717922
 20
125.6517055752412
 30
0.0
 42
0.0068598474
 70
     1
  0
VERTEX
  5
843D
330
841A
100
AcDbEntity
  8
1外形線
100
AcDbVertex
100
AcDb2dVertex
 10
393.8398785717922
 20
125.6552055752412
 30
0.0
 42
0.0068502713
  0
VERTEX
  5
843E
330
841A
100
AcDbEntity
  8
1外形線
100
AcDbVertex
100
AcDb2dVertex
 10
393.8355385717922
 20
125.6585855752412
 30
0.0
 42
0.0068422863
 70
     1
  0
VERTEX
  5
843F
330
841A
100
AcDbEntity
  8
1外形線
100
AcDbVertex
100
AcDb2dVertex
 10
393.8311185717921
 20
125.6618355752412
 30
0.0
 42
0.0068264647
  0
VERTEX
  5
8440
330
841A
100
AcDbEntity
  8
1外形線
100
AcDbVertex
100
AcDb2dVertex
 10
393.8266185717921
 20
125.6649555752412
 30
0.0
 42
0.0068144428
 70
     1
  0
VERTEX
  5
8441
330
841A
100
AcDbEntity
  8
1外形線
100
AcDbVertex
100
AcDb2dVertex
 10
393.822038571792
 20
125.6679555752412
 30
0.0
 42
0.0067921878
  0
VERTEX
  5
8442
330
841A
100
AcDbEntity
  8
1外形線
100
AcDbVertex
100
AcDb2dVertex
 10
393.8173985717922
 20
125.6708055752412
 30
0.0
 42
0.006776718
 70
     1
  0
VERTEX
  5
8443
330
841A
100
AcDbEntity
  8
1外形線
100
AcDbVertex
100
AcDb2dVertex
 10
393.8127085717921
 20
125.6735255752412
 30
0.0
 42
0.006749497
  0
VERTEX
  5
8444
330
841A
100
AcDbEntity
  8
1外形線
100
AcDbVertex
100
AcDb2dVertex
 10
393.8079485717921
 20
125.6761055752412
 30
0.0
 42
0.0067289716
 70
     1
  0
VERTEX
  5
8445
330
841A
100
AcDbEntity
  8
1外形線
100
AcDbVertex
100
AcDb2dVertex
 10
393.8031485717921
 20
125.6785455752412
 30
0.0
 42
0.0066924656
  0
VERTEX
  5
8446
330
841A
100
AcDbEntity
  8
1外形線
100
AcDbVertex
100
AcDb2dVertex
 10
393.7983085717922
 20
125.6808455752412
 30
0.0
 42
0.0066733329
 70
     1
  0
VERTEX
  5
8447
330
841A
100
AcDbEntity
  8
1外形線
100
AcDbVertex
100
AcDb2dVertex
 10
393.7934285717922
 20
125.6830155752412
 30
0.0
 42
0.006643974
  0
VERTEX
  5
8448
330
841A
100
AcDbEntity
  8
1外形線
100
AcDbVertex
100
AcDb2dVertex
 10
393.7885185717921
 20
125.6850255752412
 30
0.0
 42
0.0066040507
 70
     1
  0
VERTEX
  5
8449
330
841A
100
AcDbEntity
  8
1外形線
100
AcDbVertex
100
AcDb2dVertex
 10
393.7835785717922
 20
125.6869055752411
 30
0.0
 42
0.0065260071
  0
VERTEX
  5
844A
330
841A
100
AcDbEntity
  8
1外形線
100
AcDbVertex
100
AcDb2dVertex
 10
393.7786285717922
 20
125.6886455752413
 30
0.0
 42
0.0065440608
 70
     1
  0
VERTEX
  5
844B
330
841A
100
AcDbEntity
  8
1外形線
100
AcDbVertex
100
AcDb2dVertex
 10
393.7736585717921
 20
125.6902455752412
 30
0.0
 42
0.006608697
  0
VERTEX
  5
844C
330
841A
100
AcDbEntity
  8
1外形線
100
AcDbVertex
100
AcDb2dVertex
 10
393.7686785717922
 20
125.6917055752412
 30
0.0
 42
0.006414571
 70
     1
  0
VERTEX
  5
844D
330
841A
100
AcDbEntity
  8
1外形線
100
AcDbVertex
100
AcDb2dVertex
 10
393.7637085717922
 20
125.6930255752412
 30
0.0
 42
0.0059895887
  0
VERTEX
  5
844E
330
841A
100
AcDbEntity
  8
1外形線
100
AcDbVertex
100
AcDb2dVertex
 10
393.7587685717921
 20
125.6942055752412
 30
0.0
 42
0.0064951879
 70
     1
  0
VERTEX
  5
844F
330
841A
100
AcDbEntity
  8
1外形線
100
AcDbVertex
100
AcDb2dVertex
 10
393.7537685717921
 20
125.6952555752412
 30
0.0
 42
0.0075601903
  0
VERTEX
  5
8450
330
841A
100
AcDbEntity
  8
1外形線
100
AcDbVertex
100
AcDb2dVertex
 10
393.7486685717921
 20
125.6961755752412
 30
0.0
 42
0.0058503258
 70
     1
  0
VERTEX
  5
8451
330
841A
100
AcDbEntity
  8
1外形線
100
AcDbVertex
100
AcDb2dVertex
 10
393.7438785717922
 20
125.6969655752412
 30
0.0
 42
0.0023088411
  0
VERTEX
  5
8452
330
841A
100
AcDbEntity
  8
1外形線
100
AcDbVertex
100
AcDb2dVertex
 10
393.739558571792
 20
125.6976055752412
 30
0.0
 42
0.007895583
 70
     1
  0
VERTEX
  5
8453
330
841A
100
AcDbEntity
  8
1外形線
100
AcDbVertex
100
AcDb2dVertex
 10
393.7340885717922
 20
125.6981455752412
 30
0.0
 42
0.013361014
  0
VERTEX
  5
8454
330
841A
100
AcDbEntity
  8
1外形線
100
AcDbVertex
100
AcDb2dVertex
 10
393.7257485717921
 20
125.6986355752412
 30
0.0
 42
0.006697637
 70
     1
  0
VERTEX
  5
8455
330
841A
100
AcDbEntity
  8
1外形線
100
AcDbVertex
100
AcDb2dVertex
 10
393.7148985717921
 20
125.6990755752412
 30
0.0
 42
0.0036323172
  0
SEQEND
  5
8456
330
841A
100
AcDbEntity
  8
1外形線
  0
POLYLINE
  5
8457
330
70C7
100
AcDbEntity
  8
1外形線
  6
Continuous
100
AcDb2dPolyline
 66
     1
 10
0.0
 20
0.0
 30
0.0
 70
     2
  0
VERTEX
  5
8458
330
8457
100
AcDbEntity
  8
1外形線
100
AcDbVertex
100
AcDb2dVertex
 10
374.1648985717922
 20
103.7990755752411
 30
0.0
  0
VERTEX
  5
8459
330
8457
100
AcDbEntity
  8
1外形線
100
AcDbVertex
100
AcDb2dVertex
 10
374.1650085717922
 20
103.7896055752412
 30
0.0
 42
0.0061475156
 70
     1
  0
VERTEX
  5
845A
330
8457
100
AcDbEntity
  8
1外形線
100
AcDbVertex
100
AcDb2dVertex
 10
374.1653485717922
 20
103.7800455752412
 30
0.0
 42
0.0059698693
  0
VERTEX
  5
845B
330
8457
100
AcDbEntity
  8
1外形線
100
AcDbVertex
100
AcDb2dVertex
 10
374.1659285717922
 20
103.7704055752412
 30
0.0
 42
0.0059269501
 70
     1
  0
VERTEX
  5
845C
330
8457
100
AcDbEntity
  8
1外形線
100
AcDbVertex
100
AcDb2dVertex
 10
374.1667385717922
 20
103.7607055752412
 30
0.0
 42
0.0060584008
  0
VERTEX
  5
845D
330
8457
100
AcDbEntity
  8
1外形線
100
AcDbVertex
100
AcDb2dVertex
 10
374.1678085717921
 20
103.7509355752412
 30
0.0
 42
0.0061221986
 70
     1
  0
VERTEX
  5
845E
330
8457
100
AcDbEntity
  8
1外形線
100
AcDbVertex
100
AcDb2dVertex
 10
374.1691185717921
 20
103.7411055752412
 30
0.0
 42
0.0061693291
  0
VERTEX
  5
845F
330
8457
100
AcDbEntity
  8
1外形線
100
AcDbVertex
100
AcDb2dVertex
 10
374.1706885717921
 20
103.7312355752412
 30
0.0
 42
0.0062030141
 70
     1
  0
VERTEX
  5
8460
330
8457
100
AcDbEntity
  8
1外形線
100
AcDbVertex
100
AcDb2dVertex
 10
374.1725185717921
 20
103.7213355752411
 30
0.0
 42
0.006268313
  0
VERTEX
  5
8461
330
8457
100
AcDbEntity
  8
1外形線
100
AcDbVertex
100
AcDb2dVertex
 10
374.1746285717923
 20
103.7114055752412
 30
0.0
 42
0.0063072107
 70
     1
  0
VERTEX
  5
8462
330
8457
100
AcDbEntity
  8
1外形線
100
AcDbVertex
100
AcDb2dVertex
 10
374.1769885717921
 20
103.7014555752412
 30
0.0
 42
0.006363413
  0
VERTEX
  5
8463
330
8457
100
AcDbEntity
  8
1外形線
100
AcDbVertex
100
AcDb2dVertex
 10
374.1796385717921
 20
103.6914955752412
 30
0.0
 42
0.0063980152
 70
     1
  0
VERTEX
  5
8464
330
8457
100
AcDbEntity
  8
1外形線
100
AcDbVertex
100
AcDb2dVertex
 10
374.1825485717921
 20
103.6815455752412
 30
0.0
 42
0.0064516994
  0
VERTEX
  5
8465
330
8457
100
AcDbEntity
  8
1外形線
100
AcDbVertex
100
AcDb2dVertex
 10
374.1857485717921
 20
103.6716155752412
 30
0.0
 42
0.0064841521
 70
     1
  0
VERTEX
  5
8466
330
8457
100
AcDbEntity
  8
1外形線
100
AcDbVertex
100
AcDb2dVertex
 10
374.189218571792
 20
103.6617055752412
 30
0.0
 42
0.006533104
  0
VERTEX
  5
8467
330
8457
100
AcDbEntity
  8
1外形線
100
AcDbVertex
100
AcDb2dVertex
 10
374.1929785717922
 20
103.6518355752411
 30
0.0
 42
0.0065625428
 70
     1
  0
VERTEX
  5
8468
330
8457
100
AcDbEntity
  8
1外形線
100
AcDbVertex
100
AcDb2dVertex
 10
374.1970185717921
 20
103.6420155752411
 30
0.0
 42
0.0066068498
  0
VERTEX
  5
8469
330
8457
100
AcDbEntity
  8
1外形線
100
AcDbVertex
100
AcDb2dVertex
 10
374.2013485717921
 20
103.6322555752412
 30
0.0
 42
0.0066332044
 70
     1
  0
VERTEX
  5
846A
330
8457
100
AcDbEntity
  8
1外形線
100
AcDbVertex
100
AcDb2dVertex
 10
374.2059485717922
 20
103.6225655752411
 30
0.0
 42
0.006672387
  0
VERTEX
  5
846B
330
8457
100
AcDbEntity
  8
1外形線
100
AcDbVertex
100
AcDb2dVertex
 10
374.2108285717922
 20
103.6129655752412
 30
0.0
 42
0.0066954033
 70
     1
  0
VERTEX
  5
846C
330
8457
100
AcDbEntity
  8
1外形線
100
AcDbVertex
100
AcDb2dVertex
 10
374.2159885717922
 20
103.6034555752412
 30
0.0
 42
0.0067291653
  0
VERTEX
  5
846D
330
8457
100
AcDbEntity
  8
1外形線
100
AcDbVertex
100
AcDb2dVertex
 10
374.2214285717921
 20
103.5940555752412
 30
0.0
 42
0.0067486623
 70
     1
  0
VERTEX
  5
846E
330
8457
100
AcDbEntity
  8
1外形線
100
AcDbVertex
100
AcDb2dVertex
 10
374.2271385717921
 20
103.5847755752412
 30
0.0
 42
0.0067767058
  0
VERTEX
  5
846F
330
8457
100
AcDbEntity
  8
1外形線
100
AcDbVertex
100
AcDb2dVertex
 10
374.2331185717922
 20
103.5756355752412
 30
0.0
 42
0.0067925148
 70
     1
  0
VERTEX
  5
8470
330
8457
100
AcDbEntity
  8
1外形線
100
AcDbVertex
100
AcDb2dVertex
 10
374.239368571792
 20
103.5666255752412
 30
0.0
 42
0.0068145961
  0
VERTEX
  5
8471
330
8457
100
AcDbEntity
  8
1外形線
100
AcDbVertex
100
AcDb2dVertex
 10
374.2458685717922
 20
103.5577855752411
 30
0.0
 42
0.006826579
 70
     1
  0
VERTEX
  5
8472
330
8457
100
AcDbEntity
  8
1外形線
100
AcDbVertex
100
AcDb2dVertex
 10
374.2526285717922
 20
103.5490955752412
 30
0.0
 42
0.0068424958
  0
VERTEX
  5
8473
330
8457
100
AcDbEntity
  8
1外形線
100
AcDbVertex
100
AcDb2dVertex
 10
374.2596285717922
 20
103.5405955752412
 30
0.0
 42
0.006850552
 70
     1
  0
VERTEX
  5
8474
330
8457
100
AcDbEntity
  8
1外形線
100
AcDbVertex
100
AcDb2dVertex
 10
374.2668785717922
 20
103.5322755752412
 30
0.0
 42
0.0068601796
  0
VERTEX
  5
8475
330
8457
100
AcDbEntity
  8
1外形線
100
AcDbVertex
100
AcDb2dVertex
 10
374.2743585717922
 20
103.5241455752412
 30
0.0
 42
0.006864208
 70
     1
  0
VERTEX
  5
8476
330
8457
100
AcDbEntity
  8
1外形線
100
AcDbVertex
100
AcDb2dVertex
 10
374.2820485717921
 20
103.5162355752412
 30
0.0
 42
0.0068673621
  0
VERTEX
  5
8477
330
8457
100
AcDbEntity
  8
1外形線
100
AcDbVertex
100
AcDb2dVertex
 10
374.2899685717922
 20
103.5085355752411
 30
0.0
 42
0.0068673664
 70
     1
  0
VERTEX
  5
8478
330
8457
100
AcDbEntity
  8
1外形線
100
AcDbVertex
100
AcDb2dVertex
 10
374.298088571792
 20
103.5010555752412
 30
0.0
 42
0.0068642242
  0
VERTEX
  5
8479
330
8457
100
AcDbEntity
  8
1外形線
100
AcDbVertex
100
AcDb2dVertex
 10
374.3064185717922
 20
103.4938155752412
 30
0.0
 42
0.0068602002
 70
     1
  0
VERTEX
  5
847A
330
8457
100
AcDbEntity
  8
1外形線
100
AcDbVertex
100
AcDb2dVertex
 10
374.3149185717921
 20
103.4868055752412
 30
0.0
 42
0.006850565
  0
VERTEX
  5
847B
330
8457
100
AcDbEntity
  8
1外形線
100
AcDbVertex
100
AcDb2dVertex
 10
374.3236085717922
 20
103.4800455752411
 30
0.0
 42
0.0068425394
 70
     1
  0
VERTEX
  5
847C
330
8457
100
AcDbEntity
  8
1外形線
100
AcDbVertex
100
AcDb2dVertex
 10
374.3324485717922
 20
103.4735455752412
 30
0.0
 42
0.006826691
  0
VERTEX
  5
847D
330
8457
100
AcDbEntity
  8
1外形線
100
AcDbVertex
100
AcDb2dVertex
 10
374.3414585717922
 20
103.4673055752412
 30
0.0
 42
0.0068146362
 70
     1
  0
VERTEX
  5
847E
330
8457
100
AcDbEntity
  8
1外形線
100
AcDbVertex
100
AcDb2dVertex
 10
374.3505985717921
 20
103.4613155752412
 30
0.0
 42
0.0067923461
  0
VERTEX
  5
847F
330
8457
100
AcDbEntity
  8
1外形線
100
AcDbVertex
100
AcDb2dVertex
 10
374.359878571792
 20
103.4556155752412
 30
0.0
 42
0.0067768409
 70
     1
  0
VERTEX
  5
8480
330
8457
100
AcDbEntity
  8
1外形線
100
AcDbVertex
100
AcDb2dVertex
 10
374.3692785717922
 20
103.4501655752411
 30
0.0
 42
0.0067495861
  0
VERTEX
  5
8481
330
8457
100
AcDbEntity
  8
1外形線
100
AcDbVertex
100
AcDb2dVertex
 10
374.378788571792
 20
103.4450055752412
 30
0.0
 42
0.0067290256
 70
     1
  0
VERTEX
  5
8482
330
8457
100
AcDbEntity
  8
1外形線
100
AcDbVertex
100
AcDb2dVertex
 10
374.3883885717921
 20
103.4401255752411
 30
0.0
 42
0.0066924858
  0
VERTEX
  5
8483
330
8457
100
AcDbEntity
  8
1外形線
100
AcDbVertex
100
AcDb2dVertex
 10
374.3980785717922
 20
103.4355255752412
 30
0.0
 42
0.0066733183
 70
     1
  0
VERTEX
  5
8484
330
8457
100
AcDbEntity
  8
1外形線
100
AcDbVertex
100
AcDb2dVertex
 10
374.4078385717921
 20
103.4311955752412
 30
0.0
 42
0.0066439267
  0
VERTEX
  5
8485
330
8457
100
AcDbEntity
  8
1外形線
100
AcDbVertex
100
AcDb2dVertex
 10
374.4176585717921
 20
103.4271655752411
 30
0.0
 42
0.0066039699
 70
     1
  0
VERTEX
  5
8486
330
8457
100
AcDbEntity
  8
1外形線
100
AcDbVertex
100
AcDb2dVertex
 10
374.4275285717922
 20
103.4234055752412
 30
0.0
 42
0.0065258959
  0
VERTEX
  5
8487
330
8457
100
AcDbEntity
  8
1外形線
100
AcDbVertex
100
AcDb2dVertex
 10
374.4374285717921
 20
103.4199255752412
 30
0.0
 42
0.0065439167
 70
     1
  0
VERTEX
  5
8488
330
8457
100
AcDbEntity
  8
1外形線
100
AcDbVertex
100
AcDb2dVertex
 10
374.4473685717921
 20
103.4167255752412
 30
0.0
 42
0.0066085202
  0
VERTEX
  5
8489
330
8457
100
AcDbEntity
  8
1外形線
100
AcDbVertex
100
AcDb2dVertex
 10
374.4573385717922
 20
103.4138155752412
 30
0.0
 42
0.0064143684
 70
     1
  0
VERTEX
  5
848A
330
8457
100
AcDbEntity
  8
1外形線
100
AcDbVertex
100
AcDb2dVertex
 10
374.4672785717921
 20
103.4111655752412
 30
0.0
 42
0.0059893736
  0
VERTEX
  5
848B
330
8457
100
AcDbEntity
  8
1外形線
100
AcDbVertex
100
AcDb2dVertex
 10
374.4771485717922
 20
103.4088055752412
 30
0.0
 42
0.0064949264
 70
     1
  0
VERTEX
  5
848C
330
8457
100
AcDbEntity
  8
1外形線
100
AcDbVertex
100
AcDb2dVertex
 10
374.4871585717922
 20
103.4067055752412
 30
0.0
 42
0.0075598506
  0
VERTEX
  5
848D
330
8457
100
AcDbEntity
  8
1外形線
100
AcDbVertex
100
AcDb2dVertex
 10
374.4973585717921
 20
103.4048655752412
 30
0.0
 42
0.005850035
 70
     1
  0
VERTEX
  5
848E
330
8457
100
AcDbEntity
  8
1外形線
100
AcDbVertex
100
AcDb2dVertex
 10
374.5069285717922
 20
103.4032955752412
 30
0.0
 42
0.0023087207
  0
VERTEX
  5
848F
330
8457
100
AcDbEntity
  8
1外形線
100
AcDbVertex
100
AcDb2dVertex
 10
374.5155685717922
 20
103.4020155752412
 30
0.0
 42
0.0078951524
 70
     1
  0
VERTEX
  5
8490
330
8457
100
AcDbEntity
  8
1外形線
100
AcDbVertex
100
AcDb2dVertex
 10
374.5265185717922
 20
103.4009155752411
 30
0.0
 42
0.013360193
  0
VERTEX
  5
8491
330
8457
100
AcDbEntity
  8
1外形線
100
AcDbVertex
100
AcDb2dVertex
 10
374.5431885717922
 20
103.3999355752412
 30
0.0
 42
0.0066971868
 70
     1
  0
VERTEX
  5
8492
330
8457
100
AcDbEntity
  8
1外形線
100
AcDbVertex
100
AcDb2dVertex
 10
374.5648985717921
 20
103.3990755752412
 30
0.0
 42
0.0036320639
  0
SEQEND
  5
8493
330
8457
100
AcDbEntity
  8
1外形線
  0
SPLINE
  5
8494
330
70C7
100
AcDbEntity
  8
1外形線
  6
Continuous
100
AcDbSpline
210
0.0
220
0.0
230
1.0
 70
     8
 71
     3
 72
     8
 73
     4
 74
     0
 42
0.000000001
 43
0.0000000001
 40
0.0
 40
0.0
 40
0.0
 40
0.0
 40
1.0
 40
1.0
 40
1.0
 40
1.0
 10
374.5648985717921
 20
124.6090755752412
 30
0.0
 10
374.3335785717921
 20
124.6088855752412
 30
0.0
 10
374.1610885717921
 20
124.3830155752412
 30
0.0
 10
374.1648985717922
 20
124.1656255752412
 30
0.0
  0
POLYLINE
  5
8495
330
70C7
100
AcDbEntity
  8
1外形線
  6
Continuous
100
AcDb2dPolyline
 66
     1
 10
0.0
 20
0.0
 30
0.0
 70
     2
  0
VERTEX
  5
8496
330
8495
100
AcDbEntity
  8
1外形線
100
AcDbVertex
100
AcDb2dVertex
 10
379.4347485717922
 20
125.2036055752412
 30
0.0
  0
VERTEX
  5
8497
330
8495
100
AcDbEntity
  8
1外形線
100
AcDbVertex
100
AcDb2dVertex
 10
379.434708571792
 20
125.2021155752412
 30
0.0
 42
-0.003088639
 70
     1
  0
VERTEX
  5
8498
330
8495
100
AcDbEntity
  8
1外形線
100
AcDbVertex
100
AcDb2dVertex
 10
379.4346485717921
 20
125.2006255752412
 30
0.0
 42
-0.0030752436
  0
VERTEX
  5
8499
330
8495
100
AcDbEntity
  8
1外形線
100
AcDbVertex
100
AcDb2dVertex
 10
379.4345785717922
 20
125.1991355752412
 30
0.0
 42
-0.0030580356
 70
     1
  0
VERTEX
  5
849A
330
8495
100
AcDbEntity
  8
1外形線
100
AcDbVertex
100
AcDb2dVertex
 10
379.4344785717921
 20
125.1976355752412
 30
0.0
 42
-0.0030381753
  0
VERTEX
  5
849B
330
8495
100
AcDbEntity
  8
1外形線
100
AcDbVertex
100
AcDb2dVertex
 10
379.4343685717922
 20
125.1961355752412
 30
0.0
 42
-0.0030179819
 70
     1
  0
VERTEX
  5
849C
330
8495
100
AcDbEntity
  8
1外形線
100
AcDbVertex
100
AcDb2dVertex
 10
379.4342385717921
 20
125.1946355752413
 30
0.0
 42
-0.002998145
  0
VERTEX
  5
849D
330
8495
100
AcDbEntity
  8
1外形線
100
AcDbVertex
100
AcDb2dVertex
 10
379.434088571792
 20
125.1931255752412
 30
0.0
 42
-0.002977112
 70
     1
  0
VERTEX
  5
849E
330
8495
100
AcDbEntity
  8
1外形線
100
AcDbVertex
100
AcDb2dVertex
 10
379.4339185717921
 20
125.1916155752412
 30
0.0
 42
-0.0029558507
  0
VERTEX
  5
849F
330
8495
100
AcDbEntity
  8
1外形線
100
AcDbVertex
100
AcDb2dVertex
 10
379.4337285717923
 20
125.1901055752412
 30
0.0
 42
-0.0029336081
 70
     1
  0
VERTEX
  5
84A0
330
8495
100
AcDbEntity
  8
1外形線
100
AcDbVertex
100
AcDb2dVertex
 10
379.4335285717922
 20
125.1885955752411
 30
0.0
 42
-0.0029114306
  0
VERTEX
  5
84A1
330
8495
100
AcDbEntity
  8
1外形線
100
AcDbVertex
100
AcDb2dVertex
 10
379.4332985717921
 20
125.1870755752411
 30
0.0
 42
-0.00288823
 70
     1
  0
VERTEX
  5
84A2
330
8495
100
AcDbEntity
  8
1外形線
100
AcDbVertex
100
AcDb2dVertex
 10
379.4330585717921
 20
125.1855555752412
 30
0.0
 42
-0.0028651676
  0
VERTEX
  5
84A3
330
8495
100
AcDbEntity
  8
1外形線
100
AcDbVertex
100
AcDb2dVertex
 10
379.4327985717921
 20
125.1840355752411
 30
0.0
 42
-0.0028411003
 70
     1
  0
VERTEX
  5
84A4
330
8495
100
AcDbEntity
  8
1外形線
100
AcDbVertex
100
AcDb2dVertex
 10
379.4325185717921
 20
125.1825055752412
 30
0.0
 42
-0.0028172827
  0
VERTEX
  5
84A5
330
8495
100
AcDbEntity
  8
1外形線
100
AcDbVertex
100
AcDb2dVertex
 10
379.4322285717921
 20
125.1809755752412
 30
0.0
 42
-0.0027924997
 70
     1
  0
VERTEX
  5
84A6
330
8495
100
AcDbEntity
  8
1外形線
100
AcDbVertex
100
AcDb2dVertex
 10
379.431908571792
 20
125.1794455752412
 30
0.0
 42
-0.0027680891
  0
VERTEX
  5
84A7
330
8495
100
AcDbEntity
  8
1外形線
100
AcDbVertex
100
AcDb2dVertex
 10
379.4315785717922
 20
125.1779155752412
 30
0.0
 42
-0.0027426394
 70
     1
  0
VERTEX
  5
84A8
330
8495
100
AcDbEntity
  8
1外形線
100
AcDbVertex
100
AcDb2dVertex
 10
379.4312185717922
 20
125.1763755752412
 30
0.0
 42
-0.0027175716
  0
VERTEX
  5
84A9
330
8495
100
AcDbEntity
  8
1外形線
100
AcDbVertex
100
AcDb2dVertex
 10
379.4308485717922
 20
125.1748355752412
 30
0.0
 42
-0.0026918197
 70
     1
  0
VERTEX
  5
84AA
330
8495
100
AcDbEntity
  8
1外形線
100
AcDbVertex
100
AcDb2dVertex
 10
379.4304585717921
 20
125.1732855752412
 30
0.0
 42
-0.0026668343
  0
VERTEX
  5
84AB
330
8495
100
AcDbEntity
  8
1外形線
100
AcDbVertex
100
AcDb2dVertex
 10
379.4300585717921
 20
125.1717455752411
 30
0.0
 42
-0.0026400137
 70
     1
  0
VERTEX
  5
84AC
330
8495
100
AcDbEntity
  8
1外形線
100
AcDbVertex
100
AcDb2dVertex
 10
379.4296285717921
 20
125.1701955752412
 30
0.0
 42
-0.0026130156
  0
VERTEX
  5
84AD
330
8495
100
AcDbEntity
  8
1外形線
100
AcDbVertex
100
AcDb2dVertex
 10
379.4291885717921
 20
125.1686455752412
 30
0.0
 42
-0.0025883004
 70
     1
  0
VERTEX
  5
84AE
330
8495
100
AcDbEntity
  8
1外形線
100
AcDbVertex
100
AcDb2dVertex
 10
379.4287285717921
 20
125.1670955752412
 30
0.0
 42
-0.0025669347
  0
VERTEX
  5
84AF
330
8495
100
AcDbEntity
  8
1外形線
100
AcDbVertex
100
AcDb2dVertex
 10
379.4282485717922
 20
125.1655355752411
 30
0.0
 42
-0.0025338064
 70
     1
  0
VERTEX
  5
84B0
330
8495
100
AcDbEntity
  8
1外形線
100
AcDbVertex
100
AcDb2dVertex
 10
379.4277485717921
 20
125.1639755752412
 30
0.0
 42
-0.0024926778
  0
VERTEX
  5
84B1
330
8495
100
AcDbEntity
  8
1外形線
100
AcDbVertex
100
AcDb2dVertex
 10
379.4272285717922
 20
125.1624155752411
 30
0.0
 42
-0.002487409
 70
     1
  0
VERTEX
  5
84B2
330
8495
100
AcDbEntity
  8
1外形線
100
AcDbVertex
100
AcDb2dVertex
 10
379.426698571792
 20
125.1608455752412
 30
0.0
 42
-0.0025106897
  0
VERTEX
  5
84B3
330
8495
100
AcDbEntity
  8
1外形線
100
AcDbVertex
100
AcDb2dVertex
 10
379.4261385717922
 20
125.1592755752412
 30
0.0
 42
-0.0024125564
 70
     1
  0
VERTEX
  5
84B4
330
8495
100
AcDbEntity
  8
1外形線
100
AcDbVertex
100
AcDb2dVertex
 10
379.4255685717922
 20
125.1577155752411
 30
0.0
 42
-0.0022300346
  0
VERTEX
  5
84B5
330
8495
100
AcDbEntity
  8
1外形線
100
AcDbVertex
100
AcDb2dVertex
 10
379.424988571792
 20
125.1561555752412
 30
0.0
 42
-0.0024344004
 70
     1
  0
VERTEX
  5
84B6
330
8495
100
AcDbEntity
  8
1外形線
100
AcDbVertex
100
AcDb2dVertex
 10
379.4243785717922
 20
125.1545655752412
 30
0.0
 42
-0.0028652321
  0
VERTEX
  5
84B7
330
8495
100
AcDbEntity
  8
1外形線
100
AcDbVertex
100
AcDb2dVertex
 10
379.4237285717922
 20
125.1529355752412
 30
0.0
 42
-0.0021482181
 70
     1
  0
VERTEX
  5
84B8
330
8495
100
AcDbEntity
  8
1外形線
100
AcDbVertex
100
AcDb2dVertex
 10
379.4231085717922
 20
125.1514055752412
 30
0.0
 42
-0.0007351769
  0
VERTEX
  5
84B9
330
8495
100
AcDbEntity
  8
1外形線
100
AcDbVertex
100
AcDb2dVertex
 10
379.4225385717922
 20
125.1500255752412
 30
0.0
 42
-0.002987902
 70
     1
  0
VERTEX
  5
84BA
330
8495
100
AcDbEntity
  8
1外形線
100
AcDbVertex
100
AcDb2dVertex
 10
379.4217685717922
 20
125.1482355752412
 30
0.0
 42
-0.005028043
  0
VERTEX
  5
84BB
330
8495
100
AcDbEntity
  8
1外形線
100
AcDbVertex
100
AcDb2dVertex
 10
379.4205285717922
 20
125.1454855752411
 30
0.0
 42
-0.0024120237
 70
     1
  0
VERTEX
  5
84BC
330
8495
100
AcDbEntity
  8
1外形線
100
AcDbVertex
100
AcDb2dVertex
 10
379.4188685717923
 20
125.1418755752412
 30
0.0
 42
-0.0012673324
  0
SEQEND
  5
84BD
330
8495
100
AcDbEntity
  8
1外形線
  0
POLYLINE
  5
84BE
330
70C7
100
AcDbEntity
  8
1外形線
  6
Continuous
100
AcDb2dPolyline
 66
     1
 10
0.0
 20
0.0
 30
0.0
 70
     2
  0
VERTEX
  5
84BF
330
84BE
100
AcDbEntity
  8
1外形線
100
AcDbVertex
100
AcDb2dVertex
 10
379.4734785717921
 20
125.2571755752412
 30
0.0
  0
VERTEX
  5
84C0
330
84BE
100
AcDbEntity
  8
1外形線
100
AcDbVertex
100
AcDb2dVertex
 10
379.4734485717921
 20
125.2536255752412
 30
0.0
 42
-0.0083826439
 70
     1
  0
VERTEX
  5
84C1
330
84BE
100
AcDbEntity
  8
1外形線
100
AcDbVertex
100
AcDb2dVertex
 10
379.4733085717922
 20
125.2500555752412
 30
0.0
 42
-0.0082760466
  0
VERTEX
  5
84C2
330
84BE
100
AcDbEntity
  8
1外形線
100
AcDbVertex
100
AcDb2dVertex
 10
379.4730485717921
 20
125.2464655752413
 30
0.0
 42
-0.008124774
 70
     1
  0
VERTEX
  5
84C3
330
84BE
100
AcDbEntity
  8
1外形線
100
AcDbVertex
100
AcDb2dVertex
 10
379.4726585717922
 20
125.2428455752412
 30
0.0
 42
-0.0079429424
  0
VERTEX
  5
84C4
330
84BE
100
AcDbEntity
  8
1外形線
100
AcDbVertex
100
AcDb2dVertex
 10
379.4721585717922
 20
125.2392055752412
 30
0.0
 42
-0.0077566859
 70
     1
  0
VERTEX
  5
84C5
330
84BE
100
AcDbEntity
  8
1外形線
100
AcDbVertex
100
AcDb2dVertex
 10
379.4715385717922
 20
125.2355455752412
 30
0.0
 42
-0.0075727796
  0
VERTEX
  5
84C6
330
84BE
100
AcDbEntity
  8
1外形線
100
AcDbVertex
100
AcDb2dVertex
 10
379.4707985717921
 20
125.2318655752412
 30
0.0
 42
-0.0073779494
 70
     1
  0
VERTEX
  5
84C7
330
84BE
100
AcDbEntity
  8
1外形線
100
AcDbVertex
100
AcDb2dVertex
 10
379.4699485717921
 20
125.2281555752412
 30
0.0
 42
-0.0071828752
  0
VERTEX
  5
84C8
330
84BE
100
AcDbEntity
  8
1外形線
100
AcDbVertex
100
AcDb2dVertex
 10
379.4689785717921
 20
125.2244355752412
 30
0.0
 42
-0.0069812668
 70
     1
  0
VERTEX
  5
84C9
330
84BE
100
AcDbEntity
  8
1外形線
100
AcDbVertex
100
AcDb2dVertex
 10
379.4678885717922
 20
125.2206855752412
 30
0.0
 42
-0.0067841763
  0
VERTEX
  5
84CA
330
84BE
100
AcDbEntity
  8
1外形線
100
AcDbVertex
100
AcDb2dVertex
 10
379.4666785717922
 20
125.2169255752413
 30
0.0
 42
-0.0065820877
 70
     1
  0
VERTEX
  5
84CB
330
84BE
100
AcDbEntity
  8
1外形線
100
AcDbVertex
100
AcDb2dVertex
 10
379.4653585717922
 20
125.2131355752412
 30
0.0
 42
-0.0063866739
  0
VERTEX
  5
84CC
330
84BE
100
AcDbEntity
  8
1外形線
100
AcDbVertex
100
AcDb2dVertex
 10
379.4639185717922
 20
125.2093255752412
 30
0.0
 42
-0.0061880231
 70
     1
  0
VERTEX
  5
84CD
330
84BE
100
AcDbEntity
  8
1外形線
100
AcDbVertex
100
AcDb2dVertex
 10
379.462358571792
 20
125.2055055752412
 30
0.0
 42
-0.0059978998
  0
VERTEX
  5
84CE
330
84BE
100
AcDbEntity
  8
1外形線
100
AcDbVertex
100
AcDb2dVertex
 10
379.4606885717922
 20
125.2016555752412
 30
0.0
 42
-0.0058058773
 70
     1
  0
VERTEX
  5
84CF
330
84BE
100
AcDbEntity
  8
1外形線
100
AcDbVertex
100
AcDb2dVertex
 10
379.4589085717921
 20
125.1977955752411
 30
0.0
 42
-0.0056235791
  0
VERTEX
  5
84D0
330
84BE
100
AcDbEntity
  8
1外形線
100
AcDbVertex
100
AcDb2dVertex
 10
379.4570085717921
 20
125.1939155752413
 30
0.0
 42
-0.0054401758
 70
     1
  0
VERTEX
  5
84D1
330
84BE
100
AcDbEntity
  8
1外形線
100
AcDbVertex
100
AcDb2dVertex
 10
379.4549985717921
 20
125.1900155752412
 30
0.0
 42
-0.005267002
  0
VERTEX
  5
84D2
330
84BE
100
AcDbEntity
  8
1外形線
100
AcDbVertex
100
AcDb2dVertex
 10
379.4528685717921
 20
125.1861055752412
 30
0.0
 42
-0.0050940584
 70
     1
  0
VERTEX
  5
84D3
330
84BE
100
AcDbEntity
  8
1外形線
100
AcDbVertex
100
AcDb2dVertex
 10
379.4506385717921
 20
125.1821655752412
 30
0.0
 42
-0.0049321203
  0
VERTEX
  5
84D4
330
84BE
100
AcDbEntity
  8
1外形線
100
AcDbVertex
100
AcDb2dVertex
 10
379.4482785717921
 20
125.1782155752412
 30
0.0
 42
-0.0047687057
 70
     1
  0
VERTEX
  5
84D5
330
84BE
100
AcDbEntity
  8
1外形線
100
AcDbVertex
100
AcDb2dVertex
 10
379.4458185717922
 20
125.1742455752411
 30
0.0
 42
-0.0046145516
  0
VERTEX
  5
84D6
330
84BE
100
AcDbEntity
  8
1外形線
100
AcDbVertex
100
AcDb2dVertex
 10
379.4432385717921
 20
125.1702655752412
 30
0.0
 42
-0.0044664328
 70
     1
  0
VERTEX
  5
84D7
330
84BE
100
AcDbEntity
  8
1外形線
100
AcDbVertex
100
AcDb2dVertex
 10
379.4405585717921
 20
125.1662655752411
 30
0.0
 42
-0.0043328257
  0
VERTEX
  5
84D8
330
84BE
100
AcDbEntity
  8
1外形線
100
AcDbVertex
100
AcDb2dVertex
 10
379.4377585717922
 20
125.1622555752412
 30
0.0
 42
-0.0041815981
 70
     1
  0
VERTEX
  5
84D9
330
84BE
100
AcDbEntity
  8
1外形線
100
AcDbVertex
100
AcDb2dVertex
 10
379.4348485717922
 20
125.1582255752412
 30
0.0
 42
-0.004027063
  0
VERTEX
  5
84DA
330
84BE
100
AcDbEntity
  8
1外形線
100
AcDbVertex
100
AcDb2dVertex
 10
379.4318285717921
 20
125.1541855752412
 30
0.0
 42
-0.003932129
 70
     1
  0
VERTEX
  5
84DB
330
84BE
100
AcDbEntity
  8
1外形線
100
AcDbVertex
100
AcDb2dVertex
 10
379.4286985717922
 20
125.1501255752412
 30
0.0
 42
-0.0038867754
  0
VERTEX
  5
84DC
330
84BE
100
AcDbEntity
  8
1外形線
100
AcDbVertex
100
AcDb2dVertex
 10
379.4254485717921
 20
125.1460455752411
 30
0.0
 42
-0.0036562982
 70
     1
  0
VERTEX
  5
84DD
330
84BE
100
AcDbEntity
  8
1外形線
100
AcDbVertex
100
AcDb2dVertex
 10
379.422108571792
 20
125.1419655752412
 30
0.0
 42
-0.0033161963
  0
VERTEX
  5
84DE
330
84BE
100
AcDbEntity
  8
1外形線
100
AcDbVertex
100
AcDb2dVertex
 10
379.418688571792
 20
125.1378955752412
 30
0.0
 42
-0.0035509249
 70
     1
  0
VERTEX
  5
84DF
330
84BE
100
AcDbEntity
  8
1外形線
100
AcDbVertex
100
AcDb2dVertex
 10
379.4150885717921
 20
125.1337555752413
 30
0.0
 42
-0.0040912286
  0
VERTEX
  5
84E0
330
84BE
100
AcDbEntity
  8
1外形線
100
AcDbVertex
100
AcDb2dVertex
 10
379.4112685717921
 20
125.1294955752411
 30
0.0
 42
-0.003001139
 70
     1
  0
VERTEX
  5
84E1
330
84BE
100
AcDbEntity
  8
1外形線
100
AcDbVertex
100
AcDb2dVertex
 10
379.4076285717922
 20
125.1254855752412
 30
0.0
 42
-0.0010147966
  0
VERTEX
  5
84E2
330
84BE
100
AcDbEntity
  8
1外形線
100
AcDbVertex
100
AcDb2dVertex
 10
379.4042785717922
 20
125.1218655752412
 30
0.0
 42
-0.0040865177
 70
     1
  0
VERTEX
  5
84E3
330
84BE
100
AcDbEntity
  8
1外形線
100
AcDbVertex
100
AcDb2dVertex
 10
379.3997385717921
 20
125.1171855752411
 30
0.0
 42
-0.0066479219
  0
VERTEX
  5
84E4
330
84BE
100
AcDbEntity
  8
1外形線
100
AcDbVertex
100
AcDb2dVertex
 10
379.3924385717921
 20
125.1099355752411
 30
0.0
 42
-0.003096987
 70
     1
  0
VERTEX
  5
84E5
330
84BE
100
AcDbEntity
  8
1外形線
100
AcDbVertex
100
AcDb2dVertex
 10
379.3826885717921
 20
125.1004355752411
 30
0.0
 42
-0.0016054697
  0
SEQEND
  5
84E6
330
84BE
100
AcDbEntity
  8
1外形線
  0
POLYLINE
  5
84E7
330
70C7
100
AcDbEntity
  8
1外形線
  6
Continuous
100
AcDb2dPolyline
 66
     1
 10
0.0
 20
0.0
 30
0.0
 70
     2
  0
VERTEX
  5
84E8
330
84E7
100
AcDbEntity
  8
1外形線
100
AcDbVertex
100
AcDb2dVertex
 10
379.4155585717922
 20
125.1342855752412
 30
0.0
  0
VERTEX
  5
84E9
330
84E7
100
AcDbEntity
  8
1外形線
100
AcDbVertex
100
AcDb2dVertex
 10
379.4159585717921
 20
125.1385255752412
 30
0.0
 42
-0.0056758571
 70
     1
  0
VERTEX
  5
84EA
330
84E7
100
AcDbEntity
  8
1外形線
100
AcDbVertex
100
AcDb2dVertex
 10
379.4164585717922
 20
125.1427855752412
 30
0.0
 42
-0.0055424566
  0
VERTEX
  5
84EB
330
84E7
100
AcDbEntity
  8
1外形線
100
AcDbVertex
100
AcDb2dVertex
 10
379.4170485717922
 20
125.1470655752412
 30
0.0
 42
-0.0055086908
 70
     1
  0
VERTEX
  5
84EC
330
84E7
100
AcDbEntity
  8
1外形線
100
AcDbVertex
100
AcDb2dVertex
 10
379.4177485717921
 20
125.1513555752412
 30
0.0
 42
-0.0056059854
  0
VERTEX
  5
84ED
330
84E7
100
AcDbEntity
  8
1外形線
100
AcDbVertex
100
AcDb2dVertex
 10
379.4185485717922
 20
125.1556655752412
 30
0.0
 42
-0.005652351
 70
     1
  0
VERTEX
  5
84EE
330
84E7
100
AcDbEntity
  8
1外形線
100
AcDbVertex
100
AcDb2dVertex
 10
379.4194585717921
 20
125.1599855752412
 30
0.0
 42
-0.005685395
  0
VERTEX
  5
84EF
330
84E7
100
AcDbEntity
  8
1外形線
100
AcDbVertex
100
AcDb2dVertex
 10
379.4204685717921
 20
125.1643155752412
 30
0.0
 42
-0.0057080853
 70
     1
  0
VERTEX
  5
84F0
330
84E7
100
AcDbEntity
  8
1外形線
100
AcDbVertex
100
AcDb2dVertex
 10
379.4215785717922
 20
125.1686455752412
 30
0.0
 42
-0.0057538948
  0
VERTEX
  5
84F1
330
84E7
100
AcDbEntity
  8
1外形線
100
AcDbVertex
100
AcDb2dVertex
 10
379.4228085717922
 20
125.1729855752412
 30
0.0
 42
-0.0057804341
 70
     1
  0
VERTEX
  5
84F2
330
84E7
100
AcDbEntity
  8
1外形線
100
AcDbVertex
100
AcDb2dVertex
 10
379.4241385717921
 20
125.1773155752412
 30
0.0
 42
-0.0058198192
  0
VERTEX
  5
84F3
330
84E7
100
AcDbEntity
  8
1外形線
100
AcDbVertex
100
AcDb2dVertex
 10
379.4255785717921
 20
125.1816355752412
 30
0.0
 42
-0.0058409266
 70
     1
  0
VERTEX
  5
84F4
330
84E7
100
AcDbEntity
  8
1外形線
100
AcDbVertex
100
AcDb2dVertex
 10
379.4271385717922
 20
125.1859455752412
 30
0.0
 42
-0.0058737637
  0
VERTEX
  5
84F5
330
84E7
100
AcDbEntity
  8
1外形線
100
AcDbVertex
100
AcDb2dVertex
 10
379.4287985717921
 20
125.1902455752412
 30
0.0
 42
-0.0058983764
 70
     1
  0
VERTEX
  5
84F6
330
84E7
100
AcDbEntity
  8
1外形線
100
AcDbVertex
100
AcDb2dVertex
 10
379.4305685717922
 20
125.1945255752412
 30
0.0
 42
-0.0059413056
  0
VERTEX
  5
84F7
330
84E7
100
AcDbEntity
  8
1外形線
100
AcDbVertex
100
AcDb2dVertex
 10
379.432458571792
 20
125.1987755752412
 30
0.0
 42
-0.0059433679
 70
     1
  0
VERTEX
  5
84F8
330
84E7
100
AcDbEntity
  8
1外形線
100
AcDbVertex
100
AcDb2dVertex
 10
379.4344585717921
 20
125.2030055752412
 30
0.0
 42
-0.00593376
  0
VERTEX
  5
84F9
330
84E7
100
AcDbEntity
  8
1外形線
100
AcDbVertex
100
AcDb2dVertex
 10
379.4365585717922
 20
125.2072055752412
 30
0.0
 42
-0.0060016217
 70
     1
  0
VERTEX
  5
84FA
330
84E7
100
AcDbEntity
  8
1外形線
100
AcDbVertex
100
AcDb2dVertex
 10
379.4387785717922
 20
125.2113655752412
 30
0.0
 42
-0.0061503474
  0
VERTEX
  5
84FB
330
84E7
100
AcDbEntity
  8
1外形線
100
AcDbVertex
100
AcDb2dVertex
 10
379.441108571792
 20
125.2155055752412
 30
0.0
 42
-0.005983375
 70
     1
  0
VERTEX
  5
84FC
330
84E7
100
AcDbEntity
  8
1外形線
100
AcDbVertex
100
AcDb2dVertex
 10
379.4435385717922
 20
125.2195755752412
 30
0.0
 42
-0.0055985762
  0
VERTEX
  5
84FD
330
84E7
100
AcDbEntity
  8
1外形線
100
AcDbVertex
100
AcDb2dVertex
 10
379.446058571792
 20
125.2235855752412
 30
0.0
 42
-0.0061988436
 70
     1
  0
VERTEX
  5
84FE
330
84E7
100
AcDbEntity
  8
1外形線
100
AcDbVertex
100
AcDb2dVertex
 10
379.4487285717921
 20
125.2275955752413
 30
0.0
 42
-0.0074190974
  0
VERTEX
  5
84FF
330
84E7
100
AcDbEntity
  8
1外形線
100
AcDbVertex
100
AcDb2dVertex
 10
379.4515885717922
 20
125.2316355752411
 30
0.0
 42
-0.005620867
 70
     1
  0
VERTEX
  5
8500
330
84E7
100
AcDbEntity
  8
1外形線
100
AcDbVertex
100
AcDb2dVertex
 10
379.4543285717922
 20
125.2353955752412
 30
0.0
 42
-0.0019086159
  0
VERTEX
  5
8501
330
84E7
100
AcDbEntity
  8
1外形線
100
AcDbVertex
100
AcDb2dVertex
 10
379.456868571792
 20
125.2387655752412
 30
0.0
 42
-0.0079651046
 70
     1
  0
VERTEX
  5
8502
330
84E7
100
AcDbEntity
  8
1外形線
100
AcDbVertex
100
AcDb2dVertex
 10
379.4603385717921
 20
125.2429455752411
 30
0.0
 42
-0.013725621
  0
VERTEX
  5
8503
330
84E7
100
AcDbEntity
  8
1外形線
100
AcDbVertex
100
AcDb2dVertex
 10
379.4659585717921
 20
125.2491555752412
 30
0.0
 42
-0.0066897222
 70
     1
  0
VERTEX
  5
8504
330
84E7
100
AcDbEntity
  8
1外形線
100
AcDbVertex
100
AcDb2dVertex
 10
379.4734785717921
 20
125.2571755752412
 30
0.0
 42
-0.0035258243
  0
SEQEND
  5
8505
330
84E7
100
AcDbEntity
  8
1外形線
  0
SPLINE
  5
8506
330
70C7
100
AcDbEntity
  8
1外形線
  6
Continuous
100
AcDbSpline
210
0.0
220
0.0
230
1.0
 70
     8
 71
     3
 72
     8
 73
     4
 74
     0
 42
0.000000001
 43
0.0000000001
 40
0.13228778
 40
0.13228778
 40
0.13228778
 40
0.13228778
 40
0.8455535799999999
 40
0.8455535799999999
 40
0.8455535799999999
 40
0.8455535799999999
 10
379.3826885717921
 20
125.1004355752411
 30
0.0
 10
379.2572485717922
 20
124.9781055752412
 30
0.0
 10
378.7699185717921
 20
124.7530755752411
 30
0.0
 10
378.1044785717922
 20
124.6090755752412
 30
0.0
  0
POLYLINE
  5
8507
330
70C7
100
AcDbEntity
  8
1外形線
  6
Continuous
100
AcDb2dPolyline
 66
     1
 10
0.0
 20
0.0
 30
0.0
 70
     2
  0
VERTEX
  5
8508
330
8507
100
AcDbEntity
  8
1外形線
100
AcDbVertex
100
AcDb2dVertex
 10
379.6148885717921
 20
125.6990755752412
 30
0.0
  0
VERTEX
  5
8509
330
8507
100
AcDbEntity
  8
1外形線
100
AcDbVertex
100
AcDb2dVertex
 10
379.6101485717922
 20
125.6990155752412
 30
0.0
 42
0.0061481158
 70
     1
  0
VERTEX
  5
850A
330
8507
100
AcDbEntity
  8
1外形線
100
AcDbVertex
100
AcDb2dVertex
 10
379.6053785717922
 20
125.6988455752412
 30
0.0
 42
0.0059704343
  0
VERTEX
  5
850B
330
8507
100
AcDbEntity
  8
1外形線
100
AcDbVertex
100
AcDb2dVertex
 10
379.6005585717921
 20
125.6985555752412
 30
0.0
 42
0.0059274916
 70
     1
  0
VERTEX
  5
850C
330
8507
100
AcDbEntity
  8
1外形線
100
AcDbVertex
100
AcDb2dVertex
 10
379.5957085717921
 20
125.6981455752412
 30
0.0
 42
0.0060589337
  0
VERTEX
  5
850D
330
8507
100
AcDbEntity
  8
1外形線
100
AcDbVertex
100
AcDb2dVertex
 10
379.5908185717922
 20
125.6976155752412
 30
0.0
 42
0.0061227138
 70
     1
  0
VERTEX
  5
850E
330
8507
100
AcDbEntity
  8
1外形線
100
AcDbVertex
100
AcDb2dVertex
 10
379.5859085717921
 20
125.6969655752412
 30
0.0
 42
0.0061698243
  0
VERTEX
  5
850F
330
8507
100
AcDbEntity
  8
1外形線
100
AcDbVertex
100
AcDb2dVertex
 10
379.5809785717922
 20
125.6961755752412
 30
0.0
 42
0.0062034856
 70
     1
  0
VERTEX
  5
8510
330
8507
100
AcDbEntity
  8
1外形線
100
AcDbVertex
100
AcDb2dVertex
 10
379.576018571792
 20
125.6952555752412
 30
0.0
 42
0.0062687621
  0
VERTEX
  5
8511
330
8507
100
AcDbEntity
  8
1外形線
100
AcDbVertex
100
AcDb2dVertex
 10
379.571058571792
 20
125.6942055752412
 30
0.0
 42
0.0063076328
 70
     1
  0
VERTEX
  5
8512
330
8507
100
AcDbEntity
  8
1外形線
100
AcDbVertex
100
AcDb2dVertex
 10
379.5660785717921
 20
125.6930255752412
 30
0.0
 42
0.0063638088
  0
VERTEX
  5
8513
330
8507
100
AcDbEntity
  8
1外形線
100
AcDbVertex
100
AcDb2dVertex
 10
379.5611085717922
 20
125.6917055752412
 30
0.0
 42
0.0063983801
 70
     1
  0
VERTEX
  5
8514
330
8507
100
AcDbEntity
  8
1外形線
100
AcDbVertex
100
AcDb2dVertex
 10
379.5561285717922
 20
125.6902455752412
 30
0.0
 42
0.0064520343
  0
VERTEX
  5
8515
330
8507
100
AcDbEntity
  8
1外形線
100
AcDbVertex
100
AcDb2dVertex
 10
379.5511685717921
 20
125.6886455752413
 30
0.0
 42
0.006484453
 70
     1
  0
VERTEX
  5
8516
330
8507
100
AcDbEntity
  8
1外形線
100
AcDbVertex
100
AcDb2dVertex
 10
379.546208571792
 20
125.6869055752411
 30
0.0
 42
0.0065333714
  0
VERTEX
  5
8517
330
8507
100
AcDbEntity
  8
1外形線
100
AcDbVertex
100
AcDb2dVertex
 10
379.5412785717922
 20
125.6850255752412
 30
0.0
 42
0.0065627732
 70
     1
  0
VERTEX
  5
8518
330
8507
100
AcDbEntity
  8
1外形線
100
AcDbVertex
100
AcDb2dVertex
 10
379.5363685717922
 20
125.6830155752412
 30
0.0
 42
0.006607044
  0
VERTEX
  5
8519
330
8507
100
AcDbEntity
  8
1外形線
100
AcDbVertex
100
AcDb2dVertex
 10
379.5314885717921
 20
125.6808455752412
 30
0.0
 42
0.0066333591
 70
     1
  0
VERTEX
  5
851A
330
8507
100
AcDbEntity
  8
1外形線
100
AcDbVertex
100
AcDb2dVertex
 10
379.5266385717921
 20
125.6785455752412
 30
0.0
 42
0.006672503
  0
VERTEX
  5
851B
330
8507
100
AcDbEntity
  8
1外形線
100
AcDbVertex
100
AcDb2dVertex
 10
379.5218385717922
 20
125.6761055752412
 30
0.0
 42
0.006695478
 70
     1
  0
VERTEX
  5
851C
330
8507
100
AcDbEntity
  8
1外形線
100
AcDbVertex
100
AcDb2dVertex
 10
379.5170885717921
 20
125.6735255752412
 30
0.0
 42
0.0067291994
  0
VERTEX
  5
851D
330
8507
100
AcDbEntity
  8
1外形線
100
AcDbVertex
100
AcDb2dVertex
 10
379.5123885717921
 20
125.6708055752412
 30
0.0
 42
0.0067486538
 70
     1
  0
VERTEX
  5
851E
330
8507
100
AcDbEntity
  8
1外形線
100
AcDbVertex
100
AcDb2dVertex
 10
379.5077485717921
 20
125.6679555752412
 30
0.0
 42
0.0067766559
  0
VERTEX
  5
851F
330
8507
100
AcDbEntity
  8
1外形線
100
AcDbVertex
100
AcDb2dVertex
 10
379.5031785717922
 20
125.6649555752412
 30
0.0
 42
0.0067924212
 70
     1
  0
VERTEX
  5
8520
330
8507
100
AcDbEntity
  8
1外形線
100
AcDbVertex
100
AcDb2dVertex
 10
379.4986785717922
 20
125.6618355752412
 30
0.0
 42
0.0068144597
  0
VERTEX
  5
8521
330
8507
100
AcDbEntity
  8
1外形線
100
AcDbVertex
100
AcDb2dVertex
 10
379.4942485717923
 20
125.6585855752412
 30
0.0
 42
0.0068264006
 70
     1
  0
VERTEX
  5
8522
330
8507
100
AcDbEntity
  8
1外形線
100
AcDbVertex
100
AcDb2dVertex
 10
379.4899085717922
 20
125.6552055752412
 30
0.0
 42
0.0068422817
  0
VERTEX
  5
8523
330
8507
100
AcDbEntity
  8
1外形線
100
AcDbVertex
100
AcDb2dVertex
 10
379.4856585717921
 20
125.6517055752412
 30
0.0
 42
0.0068502889
 70
     1
  0
VERTEX
  5
8524
330
8507
100
AcDbEntity
  8
1外形線
100
AcDbVertex
100
AcDb2dVertex
 10
379.4814985717922
 20
125.6480855752411
 30
0.0
 42
0.006859849
  0
VERTEX
  5
8525
330
8507
100
AcDbEntity
  8
1外形線
100
AcDbVertex
100
AcDb2dVertex
 10
379.4774385717922
 20
125.6443455752412
 30
0.0
 42
0.0068638816
 70
     1
  0
VERTEX
  5
8526
330
8507
100
AcDbEntity
  8
1外形線
100
AcDbVertex
100
AcDb2dVertex
 10
379.4734785717921
 20
125.6404955752412
 30
0.0
 42
0.0068671527
  0
VERTEX
  5
8527
330
8507
100
AcDbEntity
  8
1外形線
100
AcDbVertex
100
AcDb2dVertex
 10
379.4696285717921
 20
125.6365355752412
 30
0.0
 42
0.0068671479
 70
     1
  0
VERTEX
  5
8528
330
8507
100
AcDbEntity
  8
1外形線
100
AcDbVertex
100
AcDb2dVertex
 10
379.4658885717921
 20
125.6324755752412
 30
0.0
 42
0.0068638561
  0
VERTEX
  5
8529
330
8507
100
AcDbEntity
  8
1外形線
100
AcDbVertex
100
AcDb2dVertex
 10
379.4622685717921
 20
125.6283155752412
 30
0.0
 42
0.0068597863
 70
     1
  0
VERTEX
  5
852A
330
8507
100
AcDbEntity
  8
1外形線
100
AcDbVertex
100
AcDb2dVertex
 10
379.458758571792
 20
125.6240655752412
 30
0.0
 42
0.0068501876
  0
VERTEX
  5
852B
330
8507
100
AcDbEntity
  8
1外形線
100
AcDbVertex
100
AcDb2dVertex
 10
379.4553785717921
 20
125.6197155752412
 30
0.0
 42
0.0068421788
 70
     1
  0
VERTEX
  5
852C
330
8507
100
AcDbEntity
  8
1外形線
100
AcDbVertex
100
AcDb2dVertex
 10
379.4521285717922
 20
125.6152955752412
 30
0.0
 42
0.006826332
  0
VERTEX
  5
852D
330
8507
100
AcDbEntity
  8
1外形線
100
AcDbVertex
100
AcDb2dVertex
 10
379.4490085717921
 20
125.6107955752412
 30
0.0
 42
0.0068142851
 70
     1
  0
VERTEX
  5
852E
330
8507
100
AcDbEntity
  8
1外形線
100
AcDbVertex
100
AcDb2dVertex
 10
379.4460185717921
 20
125.6062155752412
 30
0.0
 42
0.006792008
  0
VERTEX
  5
852F
330
8507
100
AcDbEntity
  8
1外形線
100
AcDbVertex
100
AcDb2dVertex
 10
379.443168571792
 20
125.6015755752412
 30
0.0
 42
0.0067765154
 70
     1
  0
VERTEX
  5
8530
330
8507
100
AcDbEntity
  8
1外形線
100
AcDbVertex
100
AcDb2dVertex
 10
379.4404385717921
 20
125.5968855752412
 30
0.0
 42
0.0067492734
  0
VERTEX
  5
8531
330
8507
100
AcDbEntity
  8
1外形線
100
AcDbVertex
100
AcDb2dVertex
 10
379.4378685717922
 20
125.5921255752412
 30
0.0
 42
0.006728727
 70
     1
  0
VERTEX
  5
8532
330
8507
100
AcDbEntity
  8
1外形線
100
AcDbVertex
100
AcDb2dVertex
 10
379.4354185717921
 20
125.5873255752412
 30
0.0
 42
0.0066922022
  0
VERTEX
  5
8533
330
8507
100
AcDbEntity
  8
1外形線
100
AcDbVertex
100
AcDb2dVertex
 10
379.4331185717922
 20
125.5824855752412
 30
0.0
 42
0.0066730503
 70
     1
  0
VERTEX
  5
8534
330
8507
100
AcDbEntity
  8
1外形線
100
AcDbVertex
100
AcDb2dVertex
 10
379.4309585717921
 20
125.5776055752413
 30
0.0
 42
0.0066436746
  0
VERTEX
  5
8535
330
8507
100
AcDbEntity
  8
1外形線
100
AcDbVertex
100
AcDb2dVertex
 10
379.4289385717922
 20
125.5726955752412
 30
0.0
 42
0.0066037351
 70
     1
  0
VERTEX
  5
8536
330
8507
100
AcDbEntity
  8
1外形線
100
AcDbVertex
100
AcDb2dVertex
 10
379.427058571792
 20
125.5677555752412
 30
0.0
 42
0.0065256794
  0
VERTEX
  5
8537
330
8507
100
AcDbEntity
  8
1外形線
100
AcDbVertex
100
AcDb2dVertex
 10
379.4253185717921
 20
125.5628055752412
 30
0.0
 42
0.0065437166
 70
     1
  0
VERTEX
  5
8538
330
8507
100
AcDbEntity
  8
1外形線
100
AcDbVertex
100
AcDb2dVertex
 10
379.423718571792
 20
125.5578355752412
 30
0.0
 42
0.0066083351
  0
VERTEX
  5
8539
330
8507
100
AcDbEntity
  8
1外形線
100
AcDbVertex
100
AcDb2dVertex
 10
379.4222685717922
 20
125.5528555752412
 30
0.0
 42
0.0064142063
 70
     1
  0
VERTEX
  5
853A
330
8507
100
AcDbEntity
  8
1外形線
100
AcDbVertex
100
AcDb2dVertex
 10
379.4209385717922
 20
125.5478855752413
 30
0.0
 42
0.0059892376
  0
VERTEX
  5
853B
330
8507
100
AcDbEntity
  8
1外形線
100
AcDbVertex
100
AcDb2dVertex
 10
379.419758571792
 20
125.5429455752412
 30
0.0
 42
0.0064947963
 70
     1
  0
VERTEX
  5
853C
330
8507
100
AcDbEntity
  8
1外形線
100
AcDbVertex
100
AcDb2dVertex
 10
379.4187085717922
 20
125.5379455752412
 30
0.0
 42
0.007559722
  0
VERTEX
  5
853D
330
8507
100
AcDbEntity
  8
1外形線
100
AcDbVertex
100
AcDb2dVertex
 10
379.4177885717922
 20
125.5328455752412
 30
0.0
 42
0.0058499544
 70
     1
  0
VERTEX
  5
853E
330
8507
100
AcDbEntity
  8
1外形線
100
AcDbVertex
100
AcDb2dVertex
 10
379.4170085717922
 20
125.5280555752411
 30
0.0
 42
0.002308693
  0
VERTEX
  5
853F
330
8507
100
AcDbEntity
  8
1外形線
100
AcDbVertex
100
AcDb2dVertex
 10
379.4163685717921
 20
125.5237355752412
 30
0.0
 42
0.0078950709
 70
     1
  0
VERTEX
  5
8540
330
8507
100
AcDbEntity
  8
1外形線
100
AcDbVertex
100
AcDb2dVertex
 10
379.4158185717921
 20
125.5182655752411
 30
0.0
 42
0.013360126
  0
VERTEX
  5
8541
330
8507
100
AcDbEntity
  8
1外形線
100
AcDbVertex
100
AcDb2dVertex
 10
379.4153285717921
 20
125.5099255752412
 30
0.0
 42
0.0066971851
 70
     1
  0
VERTEX
  5
8542
330
8507
100
AcDbEntity
  8
1外形線
100
AcDbVertex
100
AcDb2dVertex
 10
379.4148985717921
 20
125.4990755752412
 30
0.0
 42
0.0036320711
  0
SEQEND
  5
8543
330
8507
100
AcDbEntity
  8
1外形線
  0
LINE
  5
8544
330
70C7
100
AcDbEntity
  8
1外形線
  6
Continuous
100
AcDbLine
 10
379.1648985717921
 20
121.2696355752412
 30
0.0
 11
394.164898571792
 21
121.2696355752412
 31
0.0
  0
LINE
  5
8545
330
70C7
100
AcDbEntity
  8
1外形線
  6
Continuous
100
AcDbLine
 10
374.5648985717921
 20
103.3990755752412
 30
0.0
 11
379.4224541625688
 21
103.3990755752412
 31
0.0
  0
LINE
  5
8546
330
70C7
100
AcDbEntity
  8
1外形線
  6
Continuous
100
AcDbLine
 10
394.164898571792
 20
105.1990755752412
 30
0.0
 11
393.9148985717921
 21
105.1990755752412
 31
0.0
  0
LINE
  5
8547
330
70C7
100
AcDbEntity
  8
1外形線
  6
Continuous
100
AcDbLine
 10
393.7148985717921
 20
125.6990755752412
 30
0.0
 11
392.414898571792
 21
125.6990755752412
 31
0.0
  0
LINE
  5
8548
330
70C7
100
AcDbEntity
  8
1外形線
  6
Continuous
100
AcDbLine
 10
392.414898571792
 20
125.6990755752412
 30
0.0
 11
392.414898571792
 21
125.6896555752412
 31
0.0
  0
LINE
  5
8549
330
70C7
100
AcDbEntity
  8
1外形線
  6
Continuous
100
AcDbLine
 10
392.4148985717922
 20
128.8990762430912
 30
0.0
 11
380.9148985717921
 21
128.8990762430912
 31
0.0
  0
LINE
  5
854A
330
70C7
100
AcDbEntity
  8
1外形線
  6
Continuous
100
AcDbLine
 10
380.9148985717921
 20
125.6896555752412
 30
0.0
 11
380.9148985717921
 21
125.6990755752412
 31
0.0
  0
LINE
  5
854B
330
70C7
100
AcDbEntity
  8
1外形線
  6
Continuous
100
AcDbLine
 10
380.9148885717921
 20
125.6990755752412
 30
0.0
 11
379.6148885717921
 21
125.6990755752412
 31
0.0
  0
LINE
  5
854C
330
70C7
100
AcDbEntity
  8
1外形線
  6
Continuous
100
AcDbLine
 10
398.7648885717922
 20
124.6090755752412
 30
0.0
 11
374.5648985717921
 21
124.6090755752412
 31
0.0
  0
LINE
  5
8550
330
70C7
100
AcDbEntity
  8
1外形線
  6
Continuous
100
AcDbLine
 10
379.4148985717921
 20
105.1990755752412
 30
0.0
 11
379.1648885717921
 21
105.1990755752412
 31
0.0
  0
LINE
  5
8552
330
70C7
100
AcDbEntity
  8
1外形線
  6
Continuous
100
AcDbLine
 10
393.9073429810155
 20
103.3990755752412
 30
0.0
 11
398.7648885717922
 21
103.3990755752412
 31
0.0
  0
LINE
  5
8553
330
70C7
100
AcDbEntity
  8
1外形線
100
AcDbLine
 10
380.9148985717921
 20
128.8990762430912
 30
0.0
 11
380.9148985717921
 21
125.6896555752412
 31
0.0
  0
LINE
  5
8554
330
70C7
100
AcDbEntity
  8
1外形線
100
AcDbLine
 10
392.4148985717922
 20
128.8990762430912
 30
0.0
 11
392.4148985717922
 21
125.6990755752412
 31
0.0
  0
ENDSEC
  0
SECTION
  2
OBJECTS
  0
DICTIONARY
  5
7064
330
0
100
AcDbDictionary
281
     1
  3
ACAD_CIP_PREVIOUS_PRODUCT_INFO
350
70D9
  3
ACAD_COLOR
350
70BA
  3
ACAD_DETAILVIEWSTYLE
350
70C1
  3
ACAD_GROUP
350
7065
  3
ACAD_LAYOUT
350
70B9
  3
ACAD_MATERIAL
350
7068
  3
ACAD_MLEADERSTYLE
350
70BD
  3
ACAD_MLINESTYLE
350
70B6
  3
ACAD_PLOTSETTINGS
350
70B8
  3
ACAD_PLOTSTYLENAME
350
7066
  3
ACAD_SCALELIST
350
709A
  3
ACAD_SECTIONVIEWSTYLE
350
70BF
  3
ACAD_TABLESTYLE
350
70BB
  3
ACAD_VISUALSTYLE
350
7081
  3
ACDB_RECOMPOSE_DATA
350
8569
  3
AcDbVariableDictionary
350
855D
  0
DICTIONARY
  5
70DF
330
705A
100
AcDbDictionary
280
     1
281
     1
  3
ACAD_LAYERSTATES
360
70E0
  0
DICTIONARY
  5
8555
330
70AC
100
AcDbDictionary
280
     1
281
     1
  3
ADSK_XREC_LAYER_RECONCILED
360
8556
  0
DICTIONARY
  5
8557
330
70CC
100
AcDbDictionary
280
     1
281
     1
  3
ADSK_XREC_LAYER_RECONCILED
360
8558
  0
DICTIONARY
  5
8559
330
70CD
100
AcDbDictionary
280
     1
281
     1
  3
ADSK_XREC_LAYER_RECONCILED
360
855A
  0
DICTIONARY
  5
70DC
330
70DB
100
AcDbDictionary
280
     1
281
     1
  3
ADSK_XREC_LAYER_RECONCILED
360
855B
  0
DICTIONARY
  5
762A
330
7629
100
AcDbDictionary
280
     1
281
     1
  3
ADSK_XREC_LAYER_RECONCILED
360
855C
  0
DICTIONARY
  5
83BC
330
70C7
100
AcDbDictionary
280
     1
281
     1
  3
ACAD_SORTENTS
360
83BD
  0
XRECORD
  5
70D9
102
{ACAD_REACTORS
330
7064
102
}
330
7064
100
AcDbXrecord
280
     1
300
ACD
300
2022
300

  0
DICTIONARY
  5
70BA
102
{ACAD_REACTORS
330
7064
102
}
330
7064
100
AcDbDictionary
281
     1
  0
DICTIONARY
  5
70C1
102
{ACAD_REACTORS
330
7064
102
}
330
7064
100
AcDbDictionary
281
     1
  3
Imperial24
350
70C2
  3
Metric50
350
70E2
  0
DICTIONARY
  5
7065
102
{ACAD_REACTORS
330
7064
102
}
330
7064
100
AcDbDictionary
281
     1
  0
DICTIONARY
  5
70B9
102
{ACAD_REACTORS
330
7064
102
}
330
7064
100
AcDbDictionary
281
     1
  3
Model
350
70CA
  3
レイアウト1
350
70C6
  0
DICTIONARY
  5
7068
102
{ACAD_REACTORS
330
7064
102
}
330
7064
100
AcDbDictionary
281
     1
  3
ByBlock
350
7071
  3
ByLayer
350
7069
  3
Global
350
7079
  0
DICTIONARY
  5
70BD
102
{ACAD_REACTORS
330
7064
102
}
330
7064
100
AcDbDictionary
281
     1
  3
Standard
350
70BE
  0
DICTIONARY
  5
70B6
102
{ACAD_REACTORS
330
7064
102
}
330
7064
100
AcDbDictionary
281
     1
  3
Standard
350
70B7
  0
DICTIONARY
  5
70B8
102
{ACAD_REACTORS
330
7064
102
}
330
7064
100
AcDbDictionary
281
     1
  0
ACDBDICTIONARYWDFLT
  5
7066
102
{ACAD_REACTORS
330
7064
102
}
330
7064
100
AcDbDictionary
281
     1
  3
Normal
350
7067
100
AcDbDictionaryWithDefault
340
7067
  0
DICTIONARY
  5
709A
102
{ACAD_REACTORS
330
7064
102
}
330
7064
100
AcDbDictionary
281
     1
  3
A0
350
709B
  3
A1
350
709C
  3
A2
350
709D
  3
A3
350
709E
  3
A4
350
709F
  3
A5
350
70A0
  3
A6
350
70A1
  3
A7
350
70A2
  3
A8
350
70A3
  3
A9
350
70A4
  3
B0
350
70A5
  3
B1
350
70A6
  3
B2
350
70A7
  3
B3
350
70A8
  3
B4
350
70A9
  3
B5
350
70AA
  3
B6
350
70AB
  0
DICTIONARY
  5
70BF
102
{ACAD_REACTORS
330
7064
102
}
330
7064
100
AcDbDictionary
281
     1
  3
Imperial24
350
70C0
  3
Metric50
350
70E1
  0
DICTIONARY
  5
70BB
102
{ACAD_REACTORS
330
7064
102
}
330
7064
100
AcDbDictionary
281
     1
  3
Standard
350
70BC
  0
DICTIONARY
  5
7081
102
{ACAD_REACTORS
330
7064
102
}
330
7064
100
AcDbDictionary
281
     1
  3
2dWireframe
350
7087
  3
Basic
350
7086
  3
Brighten
350
708D
  3
ColorChange
350
7091
  3
Conceptual
350
708A
  3
Dim
350
708C
  3
EdgeColorOff
350
7099
  3
Facepattern
350
7090
  3
Flat
350
7082
  3
FlatWithEdges
350
7083
  3
Gouraud
350
7084
  3
GouraudWithEdges
350
7085
  3
Hidden
350
7089
  3
JitterOff
350
7097
  3
Linepattern
350
708F
  3
OverhangOff
350
7098
  3
Realistic
350
708B
  3
Shaded
350
7096
  3
Shaded with edges
350
7095
  3
Shades of Gray
350
7092
  3
Sketchy
350
7093
  3
Thicken
350
708E
  3
Wireframe
350
7088
  3
X-Ray
350
7094
  0
XRECORD
  5
8569
102
{ACAD_REACTORS
330
7064
102
}
330
7064
100
AcDbXrecord
280
     1
 90
        1
330
70BC
  0
DICTIONARY
  5
855D
102
{ACAD_REACTORS
330
7064
102
}
330
7064
100
AcDbDictionary
281
     1
  3
CANNOSCALE
350
8563
  3
CMLEADERSTYLE
350
855F
  3
CTABLESTYLE
350
855E
  3
CVIEWDETAILSTYLE
350
8560
  3
CVIEWSECTIONSTYLE
350
8561
  3
LAYEREVAL
350
8565
  3
LAYERNOTIFY
350
8566
  3
LIGHTINGUNITS
350
8564
  3
MSLTSCALE
350
8562
  0
DICTIONARY
  5
70E0
102
{ACAD_REACTORS
330
70DF
102
}
330
70DF
100
AcDbDictionary
281
     1
  0
XRECORD
  5
8556
102
{ACAD_REACTORS
330
8555
102
}
330
8555
100
AcDbXrecord
280
     1
290
     1
  0
XRECORD
  5
8558
102
{ACAD_REACTORS
330
8557
102
}
330
8557
100
AcDbXrecord
280
     1
290
     1
  0
XRECORD
  5
855A
102
{ACAD_REACTORS
330
8559
102
}
330
8559
100
AcDbXrecord
280
     1
290
     1
  0
XRECORD
  5
855B
102
{ACAD_REACTORS
330
70DC
102
}
330
70DC
100
AcDbXrecord
280
     1
290
     1
  0
XRECORD
  5
855C
102
{ACAD_REACTORS
330
762A
102
}
330
762A
100
AcDbXrecord
280
     1
290
     1
  0
SORTENTSTABLE
  5
83BD
102
{ACAD_REACTORS
330
83BC
102
}
330
83BC
100
AcDbSortentsTable
330
70C7
331
7392
  5
7393
331
7393
  5
7394
331
7394
  5
7395
331
7395
  5
7396
331
7396
  5
7397
331
7397
  5
7398
331
7398
  5
7399
331
7399
  5
739A
331
739A
  5
739B
331
739B
  5
739C
331
739C
  5
739D
331
739D
  5
739E
331
739E
  5
739F
331
739F
  5
73A0
331
73A0
  5
73A1
331
73A1
  5
73A2
331
73A2
  5
73A3
331
73A3
  5
73A4
331
73A4
  5
73A5
331
73A5
  5
73A6
331
73A6
  5
73A7
331
73A7
  5
73A8
331
73A8
  5
73A9
331
73A9
  5
73AA
331
73AA
  5
73AB
331
73AB
  5
73AC
331
73AC
  5
73AD
331
73AD
  5
73AE
331
73AE
  5
73AF
331
73AF
  5
73B0
331
73B0
  5
73B1
331
73B1
  5
73B2
331
73B2
  5
73C7
331
73C8
  5
73C9
331
73C9
  5
73CA
331
73CA
  5
73CB
331
73CB
  5
73CC
331
73CC
  5
73CD
331
73CD
  5
73CE
331
73CE
  5
73CF
331
73CF
  5
73D0
331
73D0
  5
73D1
331
73D1
  5
73D2
331
73D2
  5
73D3
331
73D3
  5
73D4
331
73D4
  5
73D5
331
73D5
  5
73D6
331
73D6
  5
73D7
331
73D7
  5
73D8
331
73D8
  5
73D9
331
73D9
  5
73DA
331
73DA
  5
73DB
331
73DB
  5
73DC
331
73DC
  5
73DD
331
73DD
  5
73DE
331
73DE
  5
73DF
331
73DF
  5
73E0
331
73E0
  5
73E1
331
73E1
  5
73E2
331
73E2
  5
73E3
331
73E4
  5
73E5
331
745E
  5
745F
331
745F
  5
7460
331
7460
  5
7461
331
7461
  5
7462
331
7462
  5
7463
331
7465
  5
7466
331
7466
  5
7467
331
7467
  5
7468
331
7468
  5
7469
331
7469
  5
746A
331
746A
  5
746B
331
746B
  5
746C
331
746C
  5
746D
331
746D
  5
746E
331
746E
  5
746F
331
746F
  5
7470
331
7470
  5
7471
331
7471
  5
7472
331
7472
  5
7473
331
7473
  5
7474
331
7474
  5
7475
331
7475
  5
7476
331
7476
  5
7477
331
7477
  5
7478
331
7478
  5
7479
331
7479
  5
747A
331
7480
  5
7481
331
7481
  5
7482
331
74AD
  5
74AE
331
74AE
  5
74AF
331
74AF
  5
74B0
331
74B0
  5
74B1
331
74B1
  5
74B2
331
74B2
  5
74B3
331
74B3
  5
74B4
331
74B4
  5
74B5
331
74B5
  5
74B6
331
74B6
  5
74B7
331
74B7
  5
74B8
331
74B8
  5
74B9
331
74B9
  5
74BA
331
74BA
  5
74BB
331
74BB
  5
74BC
331
74BC
  5
74BD
331
74BD
  5
74BE
331
74BE
  5
74BF
331
74BF
  5
74C0
331
74C0
  5
74C1
331
74C1
  5
74FE
331
74FE
  5
753B
331
753B
  5
753C
331
753C
  5
753D
331
7540
  5
7541
331
7541
  5
7542
331
7542
  5
7543
331
7543
  5
7544
331
75FD
  5
75FE
331
75FE
  5
75FF
331
75FF
  5
7600
331
7600
  5
7601
331
7601
  5
7602
331
7602
  5
7603
331
7603
  5
7604
331
7604
  5
7605
331
7605
  5
7606
331
7606
  5
7607
331
7607
  5
7608
331
7608
  5
7609
331
7609
  5
760A
331
760A
  5
760B
331
760B
  5
760C
331
760C
  5
760D
331
760D
  5
760E
331
760E
  5
760F
331
760F
  5
7610
331
7610
  5
7611
331
7611
  5
7612
331
7612
  5
7613
331
7613
  5
7614
331
7614
  5
7615
331
7615
  5
7616
331
7616
  5
7617
331
7617
  5
7618
331
7618
  5
7619
331
7619
  5
761A
331
761A
  5
761B
331
761B
  5
761C
331
761C
  5
761D
331
761D
  5
761E
331
761E
  5
761F
331
761F
  5
7620
331
7CF2
  5
7CF3
331
7CF3
  5
7CF4
331
7CF4
  5
7CF5
331
7CF5
  5
7CF6
331
7CF6
  5
7CF7
331
7CF7
  5
7CF8
331
7CF8
  5
7CF9
331
7CF9
  5
7CFB
331
7CFA
  5
7CFC
331
7CFB
  5
7CFD
331
7CFC
  5
7CFE
331
7CFD
  5
7CFF
331
7CFE
  5
7D00
331
7CFF
  5
7D01
331
7D00
  5
7D02
331
7D01
  5
7D03
331
7D02
  5
7D04
331
7D03
  5
7D05
331
7D04
  5
7D06
331
7D05
  5
7D07
331
7D06
  5
7D08
331
7D07
  5
7D09
331
7D08
  5
7D0A
331
7D09
  5
7D0B
331
7D0A
  5
7D0C
331
7D0B
  5
7D0D
331
7D0C
  5
7D0E
331
7D0D
  5
7D0F
331
7D0E
  5
7D38
331
7D0F
  5
7D39
331
7D38
  5
7D3A
331
7D39
  5
7D63
331
7D3A
  5
7D64
331
8120
  5
8122
331
8121
  5
8123
331
8122
  5
8124
331
8123
  5
8125
331
8124
  5
8126
331
8125
  5
8127
331
8126
  5
8128
331
8127
  5
8129
331
8128
  5
812A
331
83C6
  5
7CFA
331
8546
  5
8547
331
8547
  5
8549
331
8548
  5
854A
331
8549
  5
854B
331
854A
  5
854C
331
854B
  5
854D
331
854C
  5
854E
331
8550
  5
8548
331
8552
  5
8546
  0
ACDBDETAILVIEWSTYLE
  5
70C2
102
{ACAD_XDICTIONARY
360
859C
102
}
102
{ACAD_REACTORS
330
70C1
102
}
330
70C1
100
AcDbModelDocViewStyle
 70
     0
  3
Imperial24
290
     0
100
AcDbDetailViewStyle
 70
     0
 71
     0
 90
        3
 71
     1
340
70AD
 62
   256
 40
0.24
340
0
 62
   256
 40
0.24
300

 40
0.36
280
     3
 71
     2
340
70B4
 90
       25
 62
   256
 71
     3
340
70AD
 62
   256
 40
0.24
 90
        1
 40
0.75
 90
        1
300
%<\AcVar ViewType \f "%tc1">% %<\AcVar ViewDetailId>%\PSCALE %<\AcVar ViewScale \f "%sn">%
 71
     4
340
70B4
 90
       25
 62
   256
340
70B4
 90
       25
 62
   256
280
     0
  0
ACDBDETAILVIEWSTYLE
  5
70E2
102
{ACAD_XDICTIONARY
360
85A0
102
}
102
{ACAD_REACTORS
330
70C1
102
}
330
70C1
100
AcDbModelDocViewStyle
 70
     0
  3
Metric50
290
     0
100
AcDbDetailViewStyle
 70
     0
 71
     0
 90
        3
 71
     1
340
70AD
 62
   256
 40
5.0
340
0
 62
   256
 40
5.0
300

 40
0.0
280
     1
 71
     2
340
70B4
 90
       25
 62
   256
 71
     3
340
70AD
 62
   256
 40
5.0
 90
        0
 40
15.0
 90
        1
300
%<\AcVar ViewDetailId>% (%<\AcVar ViewScale \f "%sn">%)
 71
     4
340
70B4
 90
       25
 62
   256
340
70B4
 90
       25
 62
   256
280
     0
  0
LAYOUT
  5
70CA
102
{ACAD_REACTORS
330
70B9
102
}
330
70B9
100
AcDbPlotSettings
  1

  2
SHARP MX-5151 (1502249400)
  4

  6

 40
0.0
 41
0.0
 42
0.0
 43
0.0
 44
0.0
 45
0.0
 46
0.0
 47
0.0
 48
0.0
 49
0.0
140
0.0
141
0.0
142
1.0
143
1.0
 70
  1712
 72
     0
 73
     0
 74
     0
  7

 75
     0
147
1.0
 76
     0
 77
     2
 78
   300
148
0.0
149
0.0
100
AcDbLayout
  1
Model
 70
     1
 71
     0
 10
0.0
 20
0.0
 11
12.0
 21
9.0
 12
0.0
 22
0.0
 32
0.0
 14
0.0
 24
0.0
 34
0.0
 15
0.0
 25
0.0
 35
0.0
146
0.0
 13
0.0
 23
0.0
 33
0.0
 16
1.0
 26
0.0
 36
0.0
 17
0.0
 27
1.0
 37
0.0
 76
     0
330
70C7
331
70CB
  0
LAYOUT
  5
70C6
102
{ACAD_REACTORS
330
70B9
102
}
330
70B9
100
AcDbPlotSettings
  1

  2
SHARP MX-5151 (1502249400)
  4

  6

 40
0.0
 41
0.0
 42
0.0
 43
0.0
 44
0.0
 45
0.0
 46
0.0
 47
0.0
 48
0.0
 49
0.0
140
0.0
141
0.0
142
1.0
143
1.0
 70
   688
 72
     0
 73
     0
 74
     5
  7

 75
    16
147
1.0
 76
     0
 77
     2
 78
   300
148
0.0
149
0.0
100
AcDbLayout
  1
レイアウト1
 70
     1
 71
     1
 10
0.0
 20
0.0
 11
420.0
 21
297.0
 12
0.0
 22
0.0
 32
0.0
 14
1.000000000000000E+20
 24
1.000000000000000E+20
 34
1.000000000000000E+20
 15
-1.000000000000000E+20
 25
-1.000000000000000E+20
 35
-1.000000000000000E+20
146
0.0
 13
0.0
 23
0.0
 33
0.0
 16
1.0
 26
0.0
 36
0.0
 17
0.0
 27
1.0
 37
0.0
 76
     0
330
70C3
  0
MATERIAL
  5
7071
102
{ACAD_XDICTIONARY
360
7072
102
}
102
{ACAD_REACTORS
330
7068
102
}
330
7068
100
AcDbMaterial
  1
ByBlock
 72
     0
 43
0.0208333333333333
 43
0.0
 43
0.0
 43
0.0
 43
0.0
 43
0.0208333333333333
 43
0.0
 43
0.0
 43
0.0
 43
0.0
 43
1.0
 43
0.0
 43
0.0
 43
0.0
 43
0.0
 43
1.0
 77
     0
 47
0.0208333333333333
 47
0.0
 47
0.0
 47
0.0
 47
0.0
 47
0.0208333333333333
 47
0.0
 47
0.0
 47
0.0
 47
0.0
 47
1.0
 47
0.0
 47
0.0
 47
0.0
 47
0.0
 47
1.0
171
     0
 49
0.0208333333333333
 49
0.0
 49
0.0
 49
0.0
 49
0.0
 49
0.0208333333333333
 49
0.0
 49
0.0
 49
0.0
 49
0.0
 49
1.0
 49
0.0
 49
0.0
 49
0.0
 49
0.0
 49
1.0
175
     0
142
0.0208333333333333
142
0.0
142
0.0
142
0.0
142
0.0
142
0.0208333333333333
142
0.0
142
0.0
142
0.0
142
0.0
142
1.0
142
0.0
142
0.0
142
0.0
142
0.0
142
1.0
179
     0
144
0.0208333333333333
144
0.0
144
0.0
144
0.0
144
0.0
144
0.0208333333333333
144
0.0
144
0.0
144
0.0
144
0.0
144
1.0
144
0.0
144
0.0
144
0.0
144
0.0
144
1.0
147
0.0208333333333333
147
0.0
147
0.0
147
0.0
147
0.0
147
0.0208333333333333
147
0.0
147
0.0
147
0.0
147
0.0
147
1.0
147
0.0
147
0.0
147
0.0
147
0.0
147
1.0
  0
MATERIAL
  5
7069
102
{ACAD_XDICTIONARY
360
706A
102
}
102
{ACAD_REACTORS
330
7068
102
}
330
7068
100
AcDbMaterial
  1
ByLayer
 72
     0
 43
0.0208333333333333
 43
0.0
 43
0.0
 43
0.0
 43
0.0
 43
0.0208333333333333
 43
0.0
 43
0.0
 43
0.0
 43
0.0
 43
1.0
 43
0.0
 43
0.0
 43
0.0
 43
0.0
 43
1.0
 77
     0
 47
0.0208333333333333
 47
0.0
 47
0.0
 47
0.0
 47
0.0
 47
0.0208333333333333
 47
0.0
 47
0.0
 47
0.0
 47
0.0
 47
1.0
 47
0.0
 47
0.0
 47
0.0
 47
0.0
 47
1.0
171
     0
 49
0.0208333333333333
 49
0.0
 49
0.0
 49
0.0
 49
0.0
 49
0.0208333333333333
 49
0.0
 49
0.0
 49
0.0
 49
0.0
 49
1.0
 49
0.0
 49
0.0
 49
0.0
 49
0.0
 49
1.0
175
     0
142
0.0208333333333333
142
0.0
142
0.0
142
0.0
142
0.0
142
0.0208333333333333
142
0.0
142
0.0
142
0.0
142
0.0
142
1.0
142
0.0
142
0.0
142
0.0
142
0.0
142
1.0
179
     0
144
0.0208333333333333
144
0.0
144
0.0
144
0.0
144
0.0
144
0.0208333333333333
144
0.0
144
0.0
144
0.0
144
0.0
144
1.0
144
0.0
144
0.0
144
0.0
144
0.0
144
1.0
147
0.0208333333333333
147
0.0
147
0.0
147
0.0
147
0.0
147
0.0208333333333333
147
0.0
147
0.0
147
0.0
147
0.0
147
1.0
147
0.0
147
0.0
147
0.0
147
0.0
147
1.0
  0
MATERIAL
  5
7079
102
{ACAD_XDICTIONARY
360
707A
102
}
102
{ACAD_REACTORS
330
7068
102
}
330
7068
100
AcDbMaterial
  1
Global
 72
     0
 43
0.0208333333333333
 43
0.0
 43
0.0
 43
0.0
 43
0.0
 43
0.0208333333333333
 43
0.0
 43
0.0
 43
0.0
 43
0.0
 43
1.0
 43
0.0
 43
0.0
 43
0.0
 43
0.0
 43
1.0
 77
     0
 47
0.0208333333333333
 47
0.0
 47
0.0
 47
0.0
 47
0.0
 47
0.0208333333333333
 47
0.0
 47
0.0
 47
0.0
 47
0.0
 47
1.0
 47
0.0
 47
0.0
 47
0.0
 47
0.0
 47
1.0
171
     0
 49
0.0208333333333333
 49
0.0
 49
0.0
 49
0.0
 49
0.0
 49
0.0208333333333333
 49
0.0
 49
0.0
 49
0.0
 49
0.0
 49
1.0
 49
0.0
 49
0.0
 49
0.0
 49
0.0
 49
1.0
175
     0
142
0.0208333333333333
142
0.0
142
0.0
142
0.0
142
0.0
142
0.0208333333333333
142
0.0
142
0.0
142
0.0
142
0.0
142
1.0
142
0.0
142
0.0
142
0.0
142
0.0
142
1.0
179
     0
144
0.0208333333333333
144
0.0
144
0.0
144
0.0
144
0.0
144
0.0208333333333333
144
0.0
144
0.0
144
0.0
144
0.0
144
1.0
144
0.0
144
0.0
144
0.0
144
0.0
144
1.0
147
0.0208333333333333
147
0.0
147
0.0
147
0.0
147
0.0
147
0.0208333333333333
147
0.0
147
0.0
147
0.0
147
0.0
147
1.0
147
0.0
147
0.0
147
0.0
147
0.0
147
1.0
  0
MLEADERSTYLE
  5
70BE
102
{ACAD_REACTORS
330
70BD
102
}
330
70BD
100
AcDbMLeaderStyle
179
     2
170
     2
171
     1
172
     0
 90
        2
 40
0.0
 41
0.0
173
     1
 91
-1056964608
340
70B2
 92
       -2
290
     1
 42
0.09
291
     1
 43
0.36
  3
Standard
 44
0.18
300

342
70AD
174
     1
178
     6
175
     1
176
     0
 93
-1056964608
 45
0.18
292
     0
297
     0
 46
0.18
 94
-1056964608
 47
1.0
 49
1.0
140
1.0
293
     1
141
0.0
294
     1
177
     0
142
1.0
295
     0
296
     0
143
0.125
271
     0
272
     9
273
     9
  0
MLINESTYLE
  5
70B7
102
{ACAD_REACTORS
330
70B6
102
}
330
70B6
100
AcDbMlineStyle
  2
STANDARD
 70
     0
  3

 62
   256
 51
90.0
 52
90.0
 71
     2
 49
0.5
 62
   256
  6
BYLAYER
 49
-0.5
 62
   256
  6
BYLAYER
  0
ACDBPLACEHOLDER
  5
7067
102
{ACAD_REACTORS
330
7066
102
}
330
7066
  0
SCALE
  5
709B
102
{ACAD_REACTORS
330
709A
102
}
330
709A
100
AcDbScale
 70
     0
300
1:1
140
1.0
141
1.0
290
     1
  0
SCALE
  5
709C
102
{ACAD_REACTORS
330
709A
102
}
330
709A
100
AcDbScale
 70
     0
300
1/128" = 1'-0"
140
0.0078125
141
12.0
290
     0
  0
SCALE
  5
709D
102
{ACAD_REACTORS
330
709A
102
}
330
709A
100
AcDbScale
 70
     0
300
1/64" = 1'-0"
140
0.015625
141
12.0
290
     0
  0
SCALE
  5
709E
102
{ACAD_REACTORS
330
709A
102
}
330
709A
100
AcDbScale
 70
     0
300
1/32" = 1'-0"
140
0.03125
141
12.0
290
     0
  0
SCALE
  5
709F
102
{ACAD_REACTORS
330
709A
102
}
330
709A
100
AcDbScale
 70
     0
300
1/16" = 1'-0"
140
0.0625
141
12.0
290
     0
  0
SCALE
  5
70A0
102
{ACAD_REACTORS
330
709A
102
}
330
709A
100
AcDbScale
 70
     0
300
3/32" = 1'-0"
140
0.09375
141
12.0
290
     0
  0
SCALE
  5
70A1
102
{ACAD_REACTORS
330
709A
102
}
330
709A
100
AcDbScale
 70
     0
300
1/8" = 1'-0"
140
0.125
141
12.0
290
     0
  0
SCALE
  5
70A2
102
{ACAD_REACTORS
330
709A
102
}
330
709A
100
AcDbScale
 70
     0
300
3/16" = 1'-0"
140
0.1875
141
12.0
290
     0
  0
SCALE
  5
70A3
102
{ACAD_REACTORS
330
709A
102
}
330
709A
100
AcDbScale
 70
     0
300
1/4" = 1'-0"
140
0.25
141
12.0
290
     0
  0
SCALE
  5
70A4
102
{ACAD_REACTORS
330
709A
102
}
330
709A
100
AcDbScale
 70
     0
300
3/8" = 1'-0"
140
0.375
141
12.0
290
     0
  0
SCALE
  5
70A5
102
{ACAD_REACTORS
330
709A
102
}
330
709A
100
AcDbScale
 70
     0
300
1/2" = 1'-0"
140
0.5
141
12.0
290
     0
  0
SCALE
  5
70A6
102
{ACAD_REACTORS
330
709A
102
}
330
709A
100
AcDbScale
 70
     0
300
3/4" = 1'-0"
140
0.75
141
12.0
290
     0
  0
SCALE
  5
70A7
102
{ACAD_REACTORS
330
709A
102
}
330
709A
100
AcDbScale
 70
     0
300
1" = 1'-0"
140
1.0
141
12.0
290
     0
  0
SCALE
  5
70A8
102
{ACAD_REACTORS
330
709A
102
}
330
709A
100
AcDbScale
 70
     0
300
1-1/2" = 1'-0"
140
1.5
141
12.0
290
     0
  0
SCALE
  5
70A9
102
{ACAD_REACTORS
330
709A
102
}
330
709A
100
AcDbScale
 70
     0
300
3" = 1'-0"
140
3.0
141
12.0
290
     0
  0
SCALE
  5
70AA
102
{ACAD_REACTORS
330
709A
102
}
330
709A
100
AcDbScale
 70
     0
300
6" = 1'-0"
140
6.0
141
12.0
290
     0
  0
SCALE
  5
70AB
102
{ACAD_REACTORS
330
709A
102
}
330
709A
100
AcDbScale
 70
     0
300
1'-0" = 1'-0"
140
12.0
141
12.0
290
     0
  0
ACDBSECTIONVIEWSTYLE
  5
70C0
102
{ACAD_XDICTIONARY
360
859A
102
}
102
{ACAD_REACTORS
330
70BF
102
}
330
70BF
100
AcDbModelDocViewStyle
 70
     0
  3
Imperial24
290
     0
100
AcDbSectionViewStyle
 70
     0
 71
     0
 90
       78
 71
     1
340
70AD
 62
   256
 40
0.24
340
0
340
0
 62
   256
 40
0.24
300
I, O, Q, S, X, Z
 40
0.48
 90
        3
 40
0.18
 90
        1
 71
     2
340
70B4
 90
       25
 62
   256
340
70B4
 90
       50
 62
   256
 40
0.24
 40
0.0
 40
0.24
 71
     3
340
70AD
 62
   256
 40
0.24
 90
        1
 40
0.75
 90
        1
300
%<\AcVar ViewType \f "%tc1">% %<\AcVar ViewSectionStartId>%-%<\AcVar ViewSectionEndId>%\PSCALE %<\AcVar ViewScale \f "%sn">%
 71
     4
 62
   256
 62
   257
300
ANSI31
 40
1.0
 90
        0
290
     0
290
     0
 90
        6
 40
0.0
 40
1.570796326794896
 40
0.2617993877991494
 40
1.308996938995747
 40
-0.2617993877991494
 40
1.832595714594046
  0
ACDBSECTIONVIEWSTYLE
  5
70E1
102
{ACAD_XDICTIONARY
360
859E
102
}
102
{ACAD_REACTORS
330
70BF
102
}
330
70BF
100
AcDbModelDocViewStyle
 70
     0
  3
Metric50
290
     0
100
AcDbSectionViewStyle
 70
     0
 71
     0
 90
      102
 71
     1
340
70AD
 62
   256
 40
5.0
340
0
340
0
 62
   256
 40
5.0
300
I, O, Q, S, X, Z
 40
10.0
 90
        0
 40
2.5
 90
        0
 71
     2
340
70B4
 90
       25
 62
   256
340
70B4
 90
       50
 62
   256
 40
5.0
 40
2.5
 40
5.0
 71
     3
340
70AD
 62
   256
 40
5.0
 90
        0
 40
15.0
 90
        1
300
%<\AcVar ViewSectionStartId>%-%<\AcVar ViewSectionEndId>% (%<\AcVar ViewScale \f "%sn">%)
 71
     4
 62
   256
 62
   257
300
ANSI31
 40
1.0
 90
        0
290
     0
290
     0
 90
        6
 40
0.0
 40
1.570796326794896
 40
0.2617993877991494
 40
1.308996938995747
 40
-0.2617993877991494
 40
1.832595714594046
  0
TABLESTYLE
  5
70BC
102
{ACAD_XDICTIONARY
360
8567
102
}
102
{ACAD_REACTORS
330
70BB
102
}
330
70BB
100
AcDbTableStyle
280
     0
  3
Standard
 70
     0
 71
     0
 40
0.06
 41
0.06
280
     0
281
     0
  7
STANDARD
140
0.18
170
     2
 62
     0
 63
     7
283
     0
 90
      512
 91
        0
  1

274
    -2
284
     1
 64
     0
275
    -2
285
     1
 65
     0
276
    -2
286
     1
 66
     0
277
    -2
287
     1
 67
     0
278
    -2
288
     1
 68
     0
279
    -2
289
     1
 69
     0
  7
STANDARD
140
0.25
170
     5
 62
     0
 63
     7
283
     0
 90
      512
 91
        0
  1

274
    -2
284
     1
 64
     0
275
    -2
285
     1
 65
     0
276
    -2
286
     1
 66
     0
277
    -2
287
     1
 67
     0
278
    -2
288
     1
 68
     0
279
    -2
289
     1
 69
     0
  7
STANDARD
140
0.18
170
     5
 62
     0
 63
     7
283
     0
 90
      512
 91
        0
  1

274
    -2
284
     1
 64
     0
275
    -2
285
     1
 65
     0
276
    -2
286
     1
 66
     0
277
    -2
287
     1
 67
     0
278
    -2
288
     1
 68
     0
279
    -2
289
     1
 69
     0
  0
VISUALSTYLE
  5
7087
102
{ACAD_XDICTIONARY
360
8574
102
}
102
{ACAD_REACTORS
330
7081
102
}
330
7081
100
AcDbVisualStyle
  2
2dWireframe
 70
     4
177
     2
291
     0
 71
     0
176
     1
 72
     2
176
     1
 73
     0
176
     1
 90
        0
176
     1
 40
0.6
176
     1
 41
30.0
176
     1
 63
     7
421
 16777215
176
     1
 74
     1
176
     1
 91
        4
176
     1
 64
     7
176
     1
 65
   257
176
     1
 75
     1
176
     1
175
     1
176
     1
 42
1.0
176
     1
 92
        0
176
     1
 66
   257
176
     1
 43
1.0
176
     1
 76
     1
176
     1
 77
     6
176
     1
 78
     2
176
     1
 67
     7
176
     1
 79
     5
176
     1
170
     0
176
     1
171
     0
176
     1
290
     0
176
     1
 93
        1
176
     1
 44
0.0
176
     1
173
     0
176
     1
1001
ACAD
1000
AcDbSavedByObjectVersion
1070
     0
  0
VISUALSTYLE
  5
7086
102
{ACAD_XDICTIONARY
360
8572
102
}
102
{ACAD_REACTORS
330
7081
102
}
330
7081
100
AcDbVisualStyle
  2
Basic
 70
     7
177
     2
291
     1
 71
     1
176
     1
 72
     0
176
     1
 73
     1
176
     1
 90
        0
176
     1
 40
0.6
176
     1
 41
30.0
176
     1
 63
     7
421
 16777215
176
     1
 74
     0
176
     1
 91
        4
176
     1
 64
     7
176
     1
 65
   257
176
     1
 75
     1
176
     1
175
     1
176
     1
 42
1.0
176
     1
 92
        8
176
     1
 66
     7
176
     1
 43
1.0
176
     1
 76
     1
176
     1
 77
     6
176
     1
 78
     2
176
     1
 67
     7
176
     1
 79
     5
176
     1
170
     0
176
     1
171
     0
176
     1
290
     0
176
     1
 93
        1
176
     1
 44
0.0
176
     1
173
     0
176
     1
1001
ACAD
1000
AcDbSavedByObjectVersion
1070
     0
  0
VISUALSTYLE
  5
708D
102
{ACAD_XDICTIONARY
360
8580
102
}
102
{ACAD_REACTORS
330
7081
102
}
330
7081
100
AcDbVisualStyle
  2
Brighten
 70
    12
177
     2
291
     1
 71
     2
176
     1
 72
     2
176
     1
 73
     0
176
     1
 90
        0
176
     1
 40
0.6
176
     1
 41
30.0
176
     1
 63
     7
421
 16777215
176
     1
 74
     1
176
     1
 91
        4
176
     1
 64
     7
176
     1
 65
   257
176
     1
 75
     1
176
     1
175
     1
176
     1
 42
1.0
176
     1
 92
        8
176
     1
 66
     7
176
     1
 43
1.0
176
     1
 76
     1
176
     1
 77
     6
176
     1
 78
     2
176
     1
 67
     7
176
     1
 79
     5
176
     1
170
     0
176
     1
171
     0
176
     1
290
     0
176
     1
 93
        1
176
     1
 44
50.0
176
     1
173
     0
176
     1
1001
ACAD
1000
AcDbSavedByObjectVersion
1070
     0
  0
VISUALSTYLE
  5
7091
102
{ACAD_XDICTIONARY
360
8588
102
}
102
{ACAD_REACTORS
330
7081
102
}
330
7081
100
AcDbVisualStyle
  2
ColorChange
 70
    16
177
     2
291
     1
 71
     2
176
     1
 72
     2
176
     1
 73
     3
176
     1
 90
        0
176
     1
 40
0.6
176
     1
 41
30.0
176
     1
 63
     8
421
  8421504
176
     1
 74
     1
176
     1
 91
        4
176
     1
 64
     7
176
     1
 65
   257
176
     1
 75
     1
176
     1
175
     1
176
     1
 42
1.0
176
     1
 92
        8
176
     1
 66
     8
424
  8421504
176
     1
 43
1.0
176
     1
 76
     1
176
     1
 77
     6
176
     1
 78
     2
176
     1
 67
     7
176
     1
 79
     5
176
     1
170
     0
176
     1
171
     0
176
     1
290
     0
176
     1
 93
        1
176
     1
 44
0.0
176
     1
173
     0
176
     1
1001
ACAD
1000
AcDbSavedByObjectVersion
1070
     0
  0
VISUALSTYLE
  5
708A
102
{ACAD_XDICTIONARY
360
857A
102
}
102
{ACAD_REACTORS
330
7081
102
}
330
7081
100
AcDbVisualStyle
  2
Conceptual
 70
     9
177
     2
291
     0
 71
     3
176
     1
 72
     2
176
     1
 73
     0
176
     1
 90
        0
176
     1
 40
0.6
176
     1
 41
30.0
176
     1
 63
     7
421
 16777215
176
     1
 74
     2
176
     1
 91
        2
176
     1
 64
     7
176
     1
 65
   257
176
     1
 75
     1
176
     1
175
     1
176
     1
 42
179.0
176
     1
 92
        8
176
     1
 66
     7
176
     1
 43
1.0
176
     1
 76
     1
176
     1
 77
     6
176
     1
 78
     2
176
     1
 67
     7
176
     1
 79
     3
176
     1
170
     0
176
     1
171
     0
176
     1
290
     0
176
     1
 93
        1
176
     1
 44
0.0
176
     1
173
     0
176
     1
1001
ACAD
1000
AcDbSavedByObjectVersion
1070
     0
  0
VISUALSTYLE
  5
708C
102
{ACAD_XDICTIONARY
360
857E
102
}
102
{ACAD_REACTORS
330
7081
102
}
330
7081
100
AcDbVisualStyle
  2
Dim
 70
    11
177
     2
291
     1
 71
     2
176
     1
 72
     2
176
     1
 73
     0
176
     1
 90
        0
176
     1
 40
0.6
176
     1
 41
30.0
176
     1
 63
     7
421
 16777215
176
     1
 74
     1
176
     1
 91
        4
176
     1
 64
     7
176
     1
 65
   257
176
     1
 75
     1
176
     1
175
     1
176
     1
 42
1.0
176
     1
 92
        8
176
     1
 66
     7
176
     1
 43
1.0
176
     1
 76
     1
176
     1
 77
     6
176
     1
 78
     2
176
     1
 67
     7
176
     1
 79
     5
176
     1
170
     0
176
     1
171
     0
176
     1
290
     0
176
     1
 93
        1
176
     1
 44
-50.0
176
     1
173
     0
176
     1
1001
ACAD
1000
AcDbSavedByObjectVersion
1070
     0
  0
VISUALSTYLE
  5
7099
102
{ACAD_XDICTIONARY
360
8598
102
}
102
{ACAD_REACTORS
330
7081
102
}
330
7081
100
AcDbVisualStyle
  2
EdgeColorOff
 70
    22
177
     2
291
     1
 71
     2
176
     0
 72
     2
176
     0
 73
     0
176
     0
 90
        0
176
     0
 40
0.6
176
     0
 41
30.0
176
     0
 63
     7
421
 16777215
176
     0
 74
     1
176
     0
 91
        4
176
     0
 64
     7
176
     0
 65
   257
176
     0
 75
     1
176
     0
175
     1
176
     0
 42
1.0
176
     0
 92
        8
176
     2
 66
     7
176
     0
 43
1.0
176
     0
 76
     1
176
     0
 77
     6
176
     0
 78
     2
176
     0
 67
     7
176
     0
 79
     5
176
     0
170
     0
176
     0
171
     0
176
     0
290
     0
176
     0
 93
        1
176
     0
 44
0.0
176
     0
173
     0
176
     0
1001
ACAD
1000
AcDbSavedByObjectVersion
1070
     0
  0
VISUALSTYLE
  5
7090
102
{ACAD_XDICTIONARY
360
8586
102
}
102
{ACAD_REACTORS
330
7081
102
}
330
7081
100
AcDbVisualStyle
  2
Facepattern
 70
    15
177
     2
291
     1
 71
     2
176
     1
 72
     2
176
     1
 73
     0
176
     1
 90
        0
176
     1
 40
0.6
176
     1
 41
30.0
176
     1
 63
     7
421
 16777215
176
     1
 74
     1
176
     1
 91
        4
176
     1
 64
     7
176
     1
 65
   257
176
     1
 75
     1
176
     1
175
     1
176
     1
 42
1.0
176
     1
 92
        8
176
     1
 66
     7
176
     1
 43
1.0
176
     1
 76
     1
176
     1
 77
     6
176
     1
 78
     2
176
     1
 67
     7
176
     1
 79
     5
176
     1
170
     0
176
     1
171
     0
176
     1
290
     0
176
     1
 93
        1
176
     1
 44
0.0
176
     1
173
     0
176
     1
1001
ACAD
1000
AcDbSavedByObjectVersion
1070
     0
  0
VISUALSTYLE
  5
7082
102
{ACAD_XDICTIONARY
360
856A
102
}
102
{ACAD_REACTORS
330
7081
102
}
330
7081
100
AcDbVisualStyle
  2
Flat
 70
     0
177
     2
291
     1
 71
     2
176
     1
 72
     1
176
     1
 73
     1
176
     1
 90
        2
176
     1
 40
0.6
176
     1
 41
30.0
176
     1
 63
     7
421
 16777215
176
     1
 74
     0
176
     1
 91
        0
176
     1
 64
     7
176
     1
 65
   257
176
     1
 75
     1
176
     1
175
     1
176
     1
 42
1.0
176
     1
 92
        8
176
     1
 66
     7
176
     1
 43
1.0
176
     1
 76
     1
176
     1
 77
     6
176
     1
 78
     2
176
     1
 67
     7
176
     1
 79
     5
176
     1
170
     0
176
     1
171
     0
176
     1
290
     0
176
     1
 93
       13
176
     1
 44
0.0
176
     1
173
     0
176
     1
1001
ACAD
1000
AcDbSavedByObjectVersion
1070
     0
  0
VISUALSTYLE
  5
7083
102
{ACAD_XDICTIONARY
360
856C
102
}
102
{ACAD_REACTORS
330
7081
102
}
330
7081
100
AcDbVisualStyle
  2
FlatWithEdges
 70
     1
177
     2
291
     1
 71
     2
176
     1
 72
     1
176
     1
 73
     1
176
     1
 90
        2
176
     1
 40
0.6
176
     1
 41
30.0
176
     1
 63
     7
421
 16777215
176
     1
 74
     1
176
     1
 91
        0
176
     1
 64
     7
176
     1
 65
   257
176
     1
 75
     1
176
     1
175
     1
176
     1
 42
1.0
176
     1
 92
        0
176
     1
 66
   257
176
     1
 43
1.0
176
     1
 76
     1
176
     1
 77
     6
176
     1
 78
     2
176
     1
 67
     7
176
     1
 79
     5
176
     1
170
     0
176
     1
171
     0
176
     1
290
     0
176
     1
 93
       13
176
     1
 44
0.0
176
     1
173
     0
176
     1
1001
ACAD
1000
AcDbSavedByObjectVersion
1070
     0
  0
VISUALSTYLE
  5
7084
102
{ACAD_XDICTIONARY
360
856E
102
}
102
{ACAD_REACTORS
330
7081
102
}
330
7081
100
AcDbVisualStyle
  2
Gouraud
 70
     2
177
     2
291
     1
 71
     2
176
     1
 72
     2
176
     1
 73
     1
176
     1
 90
        2
176
     1
 40
0.6
176
     1
 41
30.0
176
     1
 63
     7
421
 16777215
176
     1
 74
     0
176
     1
 91
        0
176
     1
 64
     7
176
     1
 65
   257
176
     1
 75
     1
176
     1
175
     1
176
     1
 42
1.0
176
     1
 92
        0
176
     1
 66
     7
176
     1
 43
1.0
176
     1
 76
     1
176
     1
 77
     6
176
     1
 78
     2
176
     1
 67
     7
176
     1
 79
     5
176
     1
170
     0
176
     1
171
     0
176
     1
290
     0
176
     1
 93
       13
176
     1
 44
0.0
176
     1
173
     0
176
     1
1001
ACAD
1000
AcDbSavedByObjectVersion
1070
     0
  0
VISUALSTYLE
  5
7085
102
{ACAD_XDICTIONARY
360
8570
102
}
102
{ACAD_REACTORS
330
7081
102
}
330
7081
100
AcDbVisualStyle
  2
GouraudWithEdges
 70
     3
177
     2
291
     1
 71
     2
176
     1
 72
     2
176
     1
 73
     1
176
     1
 90
        2
176
     1
 40
0.6
176
     1
 41
30.0
176
     1
 63
     7
421
 16777215
176
     1
 74
     1
176
     1
 91
        0
176
     1
 64
     7
176
     1
 65
   257
176
     1
 75
     1
176
     1
175
     1
176
     1
 42
1.0
176
     1
 92
        0
176
     1
 66
   257
176
     1
 43
1.0
176
     1
 76
     1
176
     1
 77
     6
176
     1
 78
     2
176
     1
 67
     7
176
     1
 79
     5
176
     1
170
     0
176
     1
171
     0
176
     1
290
     0
176
     1
 93
       13
176
     1
 44
0.0
176
     1
173
     0
176
     1
1001
ACAD
1000
AcDbSavedByObjectVersion
1070
     0
  0
VISUALSTYLE
  5
7089
102
{ACAD_XDICTIONARY
360
8578
102
}
102
{ACAD_REACTORS
330
7081
102
}
330
7081
100
AcDbVisualStyle
  2
Hidden
 70
     6
177
     2
291
     0
 71
     1
176
     1
 72
     2
176
     1
 73
     2
176
     1
 90
        0
176
     1
 40
0.6
176
     1
 41
30.0
176
     1
 63
     7
421
 16777215
176
     1
 74
     2
176
     1
 91
        2
176
     1
 64
     7
176
     1
 65
   257
176
     1
 75
     2
176
     1
175
     1
176
     1
 42
40.0
176
     1
 92
        0
176
     1
 66
   257
176
     1
 43
1.0
176
     1
 76
     1
176
     1
 77
     6
176
     1
 78
     2
176
     1
 67
     7
176
     1
 79
     3
176
     1
170
     0
176
     1
171
     0
176
     1
290
     0
176
     1
 93
        1
176
     1
 44
0.0
176
     1
173
     0
176
     1
1001
ACAD
1000
AcDbSavedByObjectVersion
1070
     0
  0
VISUALSTYLE
  5
7097
102
{ACAD_XDICTIONARY
360
8594
102
}
102
{ACAD_REACTORS
330
7081
102
}
330
7081
100
AcDbVisualStyle
  2
JitterOff
 70
    20
177
     2
291
     1
 71
     2
176
     0
 72
     2
176
     0
 73
     0
176
     0
 90
        0
176
     0
 40
0.6
176
     0
 41
30.0
176
     0
 63
     7
421
 16777215
176
     0
 74
     1
176
     0
 91
        4
176
     0
 64
     7
176
     0
 65
   257
176
     0
 75
     1
176
     0
175
     1
176
     0
 42
1.0
176
     0
 92
       10
176
     2
 66
     7
176
     0
 43
1.0
176
     0
 76
     1
176
     0
 77
     6
176
     0
 78
     2
176
     0
 67
     7
176
     0
 79
     5
176
     0
170
     0
176
     0
171
     0
176
     0
290
     0
176
     0
 93
        1
176
     0
 44
0.0
176
     0
173
     0
176
     0
1001
ACAD
1000
AcDbSavedByObjectVersion
1070
     0
  0
VISUALSTYLE
  5
708F
102
{ACAD_XDICTIONARY
360
8584
102
}
102
{ACAD_REACTORS
330
7081
102
}
330
7081
100
AcDbVisualStyle
  2
Linepattern
 70
    14
177
     2
291
     1
 71
     2
176
     1
 72
     2
176
     1
 73
     0
176
     1
 90
        0
176
     1
 40
0.6
176
     1
 41
30.0
176
     1
 63
     7
421
 16777215
176
     1
 74
     1
176
     1
 91
        4
176
     1
 64
     7
176
     1
 65
   257
176
     1
 75
     7
176
     1
175
     7
176
     1
 42
1.0
176
     1
 92
        8
176
     1
 66
     7
176
     1
 43
1.0
176
     1
 76
     1
176
     1
 77
     6
176
     1
 78
     2
176
     1
 67
     7
176
     1
 79
     5
176
     1
170
     0
176
     1
171
     0
176
     1
290
     0
176
     1
 93
        1
176
     1
 44
0.0
176
     1
173
     0
176
     1
1001
ACAD
1000
AcDbSavedByObjectVersion
1070
     0
  0
VISUALSTYLE
  5
7098
102
{ACAD_XDICTIONARY
360
8596
102
}
102
{ACAD_REACTORS
330
7081
102
}
330
7081
100
AcDbVisualStyle
  2
OverhangOff
 70
    21
177
     2
291
     1
 71
     2
176
     0
 72
     2
176
     0
 73
     0
176
     0
 90
        0
176
     0
 40
0.6
176
     0
 41
30.0
176
     0
 63
     7
421
 16777215
176
     0
 74
     1
176
     0
 91
        4
176
     0
 64
     7
176
     0
 65
   257
176
     0
 75
     1
176
     0
175
     1
176
     0
 42
1.0
176
     0
 92
        9
176
     2
 66
     7
176
     0
 43
1.0
176
     0
 76
     1
176
     0
 77
     6
176
     0
 78
     2
176
     0
 67
     7
176
     0
 79
     5
176
     0
170
     0
176
     0
171
     0
176
     0
290
     0
176
     0
 93
        1
176
     0
 44
0.0
176
     0
173
     0
176
     0
1001
ACAD
1000
AcDbSavedByObjectVersion
1070
     0
  0
VISUALSTYLE
  5
708B
102
{ACAD_XDICTIONARY
360
857C
102
}
102
{ACAD_REACTORS
330
7081
102
}
330
7081
100
AcDbVisualStyle
  2
Realistic
 70
     8
177
     2
291
     0
 71
     2
176
     1
 72
     3
176
     1
 73
     0
176
     1
 90
        2
176
     1
 40
0.6
176
     1
 41
30.0
176
     1
 63
     7
421
 16777215
176
     1
 74
     0
176
     1
 91
        0
176
     1
 64
     7
176
     1
 65
   257
176
     1
 75
     1
176
     1
175
     1
176
     1
 42
1.0
176
     1
 92
        8
176
     1
 66
   257
176
     1
 43
1.0
176
     1
 76
     1
176
     1
 77
     6
176
     1
 78
     2
176
     1
 67
     7
176
     1
 79
     3
176
     1
170
     0
176
     1
171
     0
176
     1
290
     0
176
     1
 93
       13
176
     1
 44
0.0
176
     1
173
     0
176
     1
1001
ACAD
1000
AcDbSavedByObjectVersion
1070
     0
  0
VISUALSTYLE
  5
7096
102
{ACAD_XDICTIONARY
360
8592
102
}
102
{ACAD_REACTORS
330
7081
102
}
330
7081
100
AcDbVisualStyle
  2
Shaded
 70
    27
177
     2
291
     0
 71
     2
176
     1
 72
     2
176
     1
 73
     1
176
     1
 90
        2
176
     1
 40
0.6
176
     1
 41
30.0
176
     1
 63
     7
421
 16777215
176
     1
 74
     0
176
     1
 91
        4
176
     1
 64
     7
176
     1
 65
   257
176
     1
 75
     1
176
     1
175
     1
176
     1
 42
1.0
176
     1
 92
        8
176
     1
 66
   257
176
     1
 43
1.0
176
     1
 76
     1
176
     1
 77
     6
176
     1
 78
     2
176
     1
 67
     8
425
  7895160
176
     1
 79
     3
176
     1
170
     0
176
     1
171
     0
176
     1
290
     0
176
     1
 93
        5
176
     1
 44
0.0
176
     1
173
     0
176
     1
1001
ACAD
1000
AcDbSavedByObjectVersion
1070
     0
  0
VISUALSTYLE
  5
7095
102
{ACAD_XDICTIONARY
360
8590
102
}
102
{ACAD_REACTORS
330
7081
102
}
330
7081
100
AcDbVisualStyle
  2
Shaded with edges
 70
    26
177
     2
291
     0
 71
     2
176
     1
 72
     2
176
     1
 73
     1
176
     1
 90
        2
176
     1
 40
0.6
176
     1
 41
30.0
176
     1
 63
     7
421
 16777215
176
     1
 74
     1
176
     1
 91
        2
176
     1
 64
     7
176
     1
 65
   257
176
     1
 75
     2
176
     1
175
     1
176
     1
 42
1.0
176
     1
 92
        8
176
     1
 66
   257
176
     1
 43
1.0
176
     1
 76
     1
176
     1
 77
     6
176
     1
 78
     2
176
     1
 67
     7
176
     1
 79
     3
176
     1
170
     0
176
     1
171
     0
176
     1
290
     0
176
     1
 93
        5
176
     1
 44
0.0
176
     1
173
     0
176
     1
1001
ACAD
1000
AcDbSavedByObjectVersion
1070
     0
  0
VISUALSTYLE
  5
7092
102
{ACAD_XDICTIONARY
360
858A
102
}
102
{ACAD_REACTORS
330
7081
102
}
330
7081
100
AcDbVisualStyle
  2
Shades of Gray
 70
    23
177
     2
291
     0
 71
     2
176
     1
 72
     2
176
     1
 73
     3
176
     1
 90
        0
176
     1
 40
0.6
176
     1
 41
30.0
176
     1
 63
     7
421
 16777215
176
     1
 74
     2
176
     1
 91
        2
176
     1
 64
     7
176
     1
 65
     7
176
     1
 75
     1
176
     1
175
     1
176
     1
 42
40.0
176
     1
 92
        8
176
     1
 66
     7
176
     1
 43
1.0
176
     1
 76
     1
176
     1
 77
     6
176
     1
 78
     2
176
     1
 67
     7
176
     1
 79
     3
176
     1
170
     0
176
     1
171
     0
176
     1
290
     0
176
     1
 93
        1
176
     1
 44
0.0
176
     1
173
     0
176
     1
1001
ACAD
1000
AcDbSavedByObjectVersion
1070
     0
  0
VISUALSTYLE
  5
7093
102
{ACAD_XDICTIONARY
360
858C
102
}
102
{ACAD_REACTORS
330
7081
102
}
330
7081
100
AcDbVisualStyle
  2
Sketchy
 70
    24
177
     2
291
     0
 71
     1
176
     1
 72
     2
176
     1
 73
     2
176
     1
 90
        0
176
     1
 40
0.6
176
     1
 41
30.0
176
     1
 63
     7
421
 16777215
176
     1
 74
     2
176
     1
 91
        2
176
     1
 64
     7
176
     1
 65
     7
176
     1
 75
     1
176
     1
175
     1
176
     1
 42
40.0
176
     1
 92
       11
176
     1
 66
     7
176
     1
 43
1.0
176
     1
 76
     1
176
     1
 77
     6
176
     1
 78
     2
176
     1
 67
     7
176
     1
 79
     6
176
     1
170
     0
176
     1
171
     0
176
     1
290
     0
176
     1
 93
        1
176
     1
 44
0.0
176
     1
173
     0
176
     1
1001
ACAD
1000
AcDbSavedByObjectVersion
1070
     0
  0
VISUALSTYLE
  5
708E
102
{ACAD_XDICTIONARY
360
8582
102
}
102
{ACAD_REACTORS
330
7081
102
}
330
7081
100
AcDbVisualStyle
  2
Thicken
 70
    13
177
     2
291
     1
 71
     2
176
     1
 72
     2
176
     1
 73
     0
176
     1
 90
        0
176
     1
 40
0.6
176
     1
 41
30.0
176
     1
 63
     7
421
 16777215
176
     1
 74
     1
176
     1
 91
        4
176
     1
 64
     7
176
     1
 65
   257
176
     1
 75
     1
176
     1
175
     1
176
     1
 42
1.0
176
     1
 92
       12
176
     1
 66
     7
176
     1
 43
1.0
176
     1
 76
     1
176
     1
 77
     6
176
     1
 78
     2
176
     1
 67
     7
176
     1
 79
     5
176
     1
170
     0
176
     1
171
     0
176
     1
290
     0
176
     1
 93
        1
176
     1
 44
0.0
176
     1
173
     0
176
     1
1001
ACAD
1000
AcDbSavedByObjectVersion
1070
     0
  0
VISUALSTYLE
  5
7088
102
{ACAD_XDICTIONARY
360
8576
102
}
102
{ACAD_REACTORS
330
7081
102
}
330
7081
100
AcDbVisualStyle
  2
Wireframe
 70
     5
177
     2
291
     0
 71
     0
176
     1
 72
     2
176
     1
 73
     0
176
     1
 90
        0
176
     1
 40
0.6
176
     1
 41
30.0
176
     1
 63
     7
421
 16777215
176
     1
 74
     1
176
     1
 91
        4
176
     1
 64
     7
176
     1
 65
   257
176
     1
 75
     1
176
     1
175
     1
176
     1
 42
1.0
176
     1
 92
        0
176
     1
 66
   257
176
     1
 43
1.0
176
     1
 76
     1
176
     1
 77
     6
176
     1
 78
     2
176
     1
 67
     7
176
     1
 79
     3
176
     1
170
     0
176
     1
171
     0
176
     1
290
     0
176
     1
 93
        1
176
     1
 44
0.0
176
     1
173
     0
176
     1
1001
ACAD
1000
AcDbSavedByObjectVersion
1070
     0
  0
VISUALSTYLE
  5
7094
102
{ACAD_XDICTIONARY
360
858E
102
}
102
{ACAD_REACTORS
330
7081
102
}
330
7081
100
AcDbVisualStyle
  2
X-Ray
 70
    25
177
     2
291
     0
 71
     2
176
     1
 72
     2
176
     1
 73
     1
176
     1
 90
        1
176
     1
 40
0.5
176
     1
 41
30.0
176
     1
 63
     7
421
 16777215
176
     1
 74
     1
176
     1
 91
        0
176
     1
 64
     7
176
     1
 65
   257
176
     1
 75
     1
176
     1
175
     1
176
     1
 42
1.0
176
     1
 92
        8
176
     1
 66
     7
176
     1
 43
1.0
176
     1
 76
     1
176
     1
 77
     6
176
     1
 78
     2
176
     1
 67
     7
176
     1
 79
     3
176
     1
170
     0
176
     1
171
     0
176
     1
290
     0
176
     1
 93
       13
176
     1
 44
0.0
176
     1
173
     0
176
     1
1001
ACAD
1000
AcDbSavedByObjectVersion
1070
     0
  0
DICTIONARYVAR
  5
8563
102
{ACAD_REACTORS
330
855D
102
}
330
855D
100
DictionaryVariables
280
     0
  1
1:1
  0
DICTIONARYVAR
  5
855F
102
{ACAD_REACTORS
330
855D
102
}
330
855D
100
DictionaryVariables
280
     0
  1
STANDARD
  0
DICTIONARYVAR
  5
855E
102
{ACAD_REACTORS
330
855D
102
}
330
855D
100
DictionaryVariables
280
     0
  1
STANDARD
  0
DICTIONARYVAR
  5
8560
102
{ACAD_REACTORS
330
855D
102
}
330
855D
100
DictionaryVariables
280
     0
  1
Imperial24
  0
DICTIONARYVAR
  5
8561
102
{ACAD_REACTORS
330
855D
102
}
330
855D
100
DictionaryVariables
280
     0
  1
Imperial24
  0
DICTIONARYVAR
  5
8565
102
{ACAD_REACTORS
330
855D
102
}
330
855D
100
DictionaryVariables
280
     0
  1
1
  0
DICTIONARYVAR
  5
8566
102
{ACAD_REACTORS
330
855D
102
}
330
855D
100
DictionaryVariables
280
     0
  1
15
  0
DICTIONARYVAR
  5
8564
102
{ACAD_REACTORS
330
855D
102
}
330
855D
100
DictionaryVariables
280
     0
  1
0
  0
DICTIONARYVAR
  5
8562
102
{ACAD_REACTORS
330
855D
102
}
330
855D
100
DictionaryVariables
280
     0
  1
0
  0
DICTIONARY
  5
859C
330
70C2
100
AcDbDictionary
280
     1
281
     1
  3
ACAD_XREC_ROUNDTRIP
360
859D
  0
DICTIONARY
  5
85A0
330
70E2
100
AcDbDictionary
280
     1
281
     1
  3
ACAD_XREC_ROUNDTRIP
360
85A1
  0
DICTIONARY
  5
7072
330
7071
100
AcDbDictionary
280
     1
281
     1
  3
BUMPTILE
360
7074
  3
DIFFUSETILE
360
7073
  3
OPACITYTILE
360
7077
  3
REFLECTIONTILE
360
7076
  3
REFRACTIONTILE
360
7078
  3
SPECULARTILE
360
7075
  0
DICTIONARY
  5
706A
330
7069
100
AcDbDictionary
280
     1
281
     1
  3
BUMPTILE
360
706C
  3
DIFFUSETILE
360
706B
  3
OPACITYTILE
360
706F
  3
REFLECTIONTILE
360
706E
  3
REFRACTIONTILE
360
7070
  3
SPECULARTILE
360
706D
  0
DICTIONARY
  5
707A
330
7079
100
AcDbDictionary
280
     1
281
     1
  3
BUMPTILE
360
707C
  3
DIFFUSETILE
360
707B
  3
OPACITYTILE
360
707F
  3
REFLECTIONTILE
360
707E
  3
REFRACTIONTILE
360
7080
  3
SPECULARTILE
360
707D
  0
DICTIONARY
  5
859A
330
70C0
100
AcDbDictionary
280
     1
281
     1
  3
ACAD_XREC_ROUNDTRIP
360
859B
  0
DICTIONARY
  5
859E
330
70E1
100
AcDbDictionary
280
     1
281
     1
  3
ACAD_XREC_ROUNDTRIP
360
859F
  0
DICTIONARY
  5
8567
330
70BC
100
AcDbDictionary
280
     1
281
     1
  3
ACAD_ROUNDTRIP_2008_TABLESTYLE_CELLSTYLEMAP
360
8568
  0
DICTIONARY
  5
8574
330
7087
100
AcDbDictionary
280
     1
281
     1
  3
ACAD_XREC_ROUNDTRIP
360
8575
  0
DICTIONARY
  5
8572
330
7086
100
AcDbDictionary
280
     1
281
     1
  3
ACAD_XREC_ROUNDTRIP
360
8573
  0
DICTIONARY
  5
8580
330
708D
100
AcDbDictionary
280
     1
281
     1
  3
ACAD_XREC_ROUNDTRIP
360
8581
  0
DICTIONARY
  5
8588
330
7091
100
AcDbDictionary
280
     1
281
     1
  3
ACAD_XREC_ROUNDTRIP
360
8589
  0
DICTIONARY
  5
857A
330
708A
100
AcDbDictionary
280
     1
281
     1
  3
ACAD_XREC_ROUNDTRIP
360
857B
  0
DICTIONARY
  5
857E
330
708C
100
AcDbDictionary
280
     1
281
     1
  3
ACAD_XREC_ROUNDTRIP
360
857F
  0
DICTIONARY
  5
8598
330
7099
100
AcDbDictionary
280
     1
281
     1
  3
ACAD_XREC_ROUNDTRIP
360
8599
  0
DICTIONARY
  5
8586
330
7090
100
AcDbDictionary
280
     1
281
     1
  3
ACAD_XREC_ROUNDTRIP
360
8587
  0
DICTIONARY
  5
856A
330
7082
100
AcDbDictionary
280
     1
281
     1
  3
ACAD_XREC_ROUNDTRIP
360
856B
  0
DICTIONARY
  5
856C
330
7083
100
AcDbDictionary
280
     1
281
     1
  3
ACAD_XREC_ROUNDTRIP
360
856D
  0
DICTIONARY
  5
856E
330
7084
100
AcDbDictionary
280
     1
281
     1
  3
ACAD_XREC_ROUNDTRIP
360
856F
  0
DICTIONARY
  5
8570
330
7085
100
AcDbDictionary
280
     1
281
     1
  3
ACAD_XREC_ROUNDTRIP
360
8571
  0
DICTIONARY
  5
8578
330
7089
100
AcDbDictionary
280
     1
281
     1
  3
ACAD_XREC_ROUNDTRIP
360
8579
  0
DICTIONARY
  5
8594
330
7097
100
AcDbDictionary
280
     1
281
     1
  3
ACAD_XREC_ROUNDTRIP
360
8595
  0
DICTIONARY
  5
8584
330
708F
100
AcDbDictionary
280
     1
281
     1
  3
ACAD_XREC_ROUNDTRIP
360
8585
  0
DICTIONARY
  5
8596
330
7098
100
AcDbDictionary
280
     1
281
     1
  3
ACAD_XREC_ROUNDTRIP
360
8597
  0
DICTIONARY
  5
857C
330
708B
100
AcDbDictionary
280
     1
281
     1
  3
ACAD_XREC_ROUNDTRIP
360
857D
  0
DICTIONARY
  5
8592
330
7096
100
AcDbDictionary
280
     1
281
     1
  3
ACAD_XREC_ROUNDTRIP
360
8593
  0
DICTIONARY
  5
8590
330
7095
100
AcDbDictionary
280
     1
281
     1
  3
ACAD_XREC_ROUNDTRIP
360
8591
  0
DICTIONARY
  5
858A
330
7092
100
AcDbDictionary
280
     1
281
     1
  3
ACAD_XREC_ROUNDTRIP
360
858B
  0
DICTIONARY
  5
858C
330
7093
100
AcDbDictionary
280
     1
281
     1
  3
ACAD_XREC_ROUNDTRIP
360
858D
  0
DICTIONARY
  5
8582
330
708E
100
AcDbDictionary
280
     1
281
     1
  3
ACAD_XREC_ROUNDTRIP
360
8583
  0
DICTIONARY
  5
8576
330
7088
100
AcDbDictionary
280
     1
281
     1
  3
ACAD_XREC_ROUNDTRIP
360
8577
  0
DICTIONARY
  5
858E
330
7094
100
AcDbDictionary
280
     1
281
     1
  3
ACAD_XREC_ROUNDTRIP
360
858F
  0
XRECORD
  5
859D
102
{ACAD_REACTORS
330
859C
102
}
330
859C
100
AcDbXrecord
280
     1
102
DISPLAYNAME
  1
Imperial24
102
FLAGS
 90
        0
  0
XRECORD
  5
85A1
102
{ACAD_REACTORS
330
85A0
102
}
330
85A0
100
AcDbXrecord
280
     1
102
DISPLAYNAME
  1
Metric50
102
FLAGS
 90
        0
  0
XRECORD
  5
7074
102
{ACAD_REACTORS
330
7072
102
}
330
7072
100
AcDbXrecord
280
     1
270
     1
271
     1
  0
XRECORD
  5
7073
102
{ACAD_REACTORS
330
7072
102
}
330
7072
100
AcDbXrecord
280
     1
270
     1
271
     1
  0
XRECORD
  5
7077
102
{ACAD_REACTORS
330
7072
102
}
330
7072
100
AcDbXrecord
280
     1
270
     1
271
     1
  0
XRECORD
  5
7076
102
{ACAD_REACTORS
330
7072
102
}
330
7072
100
AcDbXrecord
280
     1
270
     1
271
     1
  0
XRECORD
  5
7078
102
{ACAD_REACTORS
330
7072
102
}
330
7072
100
AcDbXrecord
280
     1
270
     1
271
     1
  0
XRECORD
  5
7075
102
{ACAD_REACTORS
330
7072
102
}
330
7072
100
AcDbXrecord
280
     1
270
     1
271
     1
  0
XRECORD
  5
706C
102
{ACAD_REACTORS
330
706A
102
}
330
706A
100
AcDbXrecord
280
     1
270
     1
271
     1
  0
XRECORD
  5
706B
102
{ACAD_REACTORS
330
706A
102
}
330
706A
100
AcDbXrecord
280
     1
270
     1
271
     1
  0
XRECORD
  5
706F
102
{ACAD_REACTORS
330
706A
102
}
330
706A
100
AcDbXrecord
280
     1
270
     1
271
     1
  0
XRECORD
  5
706E
102
{ACAD_REACTORS
330
706A
102
}
330
706A
100
AcDbXrecord
280
     1
270
     1
271
     1
  0
XRECORD
  5
7070
102
{ACAD_REACTORS
330
706A
102
}
330
706A
100
AcDbXrecord
280
     1
270
     1
271
     1
  0
XRECORD
  5
706D
102
{ACAD_REACTORS
330
706A
102
}
330
706A
100
AcDbXrecord
280
     1
270
     1
271
     1
  0
XRECORD
  5
707C
102
{ACAD_REACTORS
330
707A
102
}
330
707A
100
AcDbXrecord
280
     1
270
     1
271
     1
  0
XRECORD
  5
707B
102
{ACAD_REACTORS
330
707A
102
}
330
707A
100
AcDbXrecord
280
     1
270
     1
271
     1
  0
XRECORD
  5
707F
102
{ACAD_REACTORS
330
707A
102
}
330
707A
100
AcDbXrecord
280
     1
270
     1
271
     1
  0
XRECORD
  5
707E
102
{ACAD_REACTORS
330
707A
102
}
330
707A
100
AcDbXrecord
280
     1
270
     1
271
     1
  0
XRECORD
  5
7080
102
{ACAD_REACTORS
330
707A
102
}
330
707A
100
AcDbXrecord
280
     1
270
     1
271
     1
  0
XRECORD
  5
707D
102
{ACAD_REACTORS
330
707A
102
}
330
707A
100
AcDbXrecord
280
     1
270
     1
271
     1
  0
XRECORD
  5
859B
102
{ACAD_REACTORS
330
859A
102
}
330
859A
100
AcDbXrecord
280
     1
102
DISPLAYNAME
  1
Imperial24
102
FLAGS
 90
        0
  0
XRECORD
  5
859F
102
{ACAD_REACTORS
330
859E
102
}
330
859E
100
AcDbXrecord
280
     1
102
DISPLAYNAME
  1
Metric50
102
FLAGS
 90
        0
  0
CELLSTYLEMAP
  5
8568
102
{ACAD_REACTORS
330
8567
102
}
330
8567
100
AcDbCellStyleMap
 90
        3
300
CELLSTYLE
  1
TABLEFORMAT_BEGIN
 90
        5
170
     1
 91
        0
 92
    32768
 62
   257
 93
        1
300
CONTENTFORMAT
  1
CONTENTFORMAT_BEGIN
 90
        0
 91
        0
 92
      512
 93
        0
300

 40
0.0
140
1.0
 94
        5
 62
     0
340
70AD
144
0.25
309
CONTENTFORMAT_END
171
     0
 94
        0
309
TABLEFORMAT_END
  1
CELLSTYLE_BEGIN
 90
        1
 91
        1
300
_TITLE
309
CELLSTYLE_END
300
CELLSTYLE
  1
TABLEFORMAT_BEGIN
 90
        5
170
     1
 91
        0
 92
        0
 62
   257
 93
        1
300
CONTENTFORMAT
  1
CONTENTFORMAT_BEGIN
 90
        0
 91
        0
 92
      512
 93
        0
300

 40
0.0
140
1.0
 94
        5
 62
     0
340
70AD
144
0.18
309
CONTENTFORMAT_END
171
     0
 94
        0
309
TABLEFORMAT_END
  1
CELLSTYLE_BEGIN
 90
        2
 91
        1
300
_HEADER
309
CELLSTYLE_END
300
CELLSTYLE
  1
TABLEFORMAT_BEGIN
 90
        5
170
     1
 91
        0
 92
        0
 62
   257
 93
        1
300
CONTENTFORMAT
  1
CONTENTFORMAT_BEGIN
 90
        0
 91
        0
 92
      512
 93
        0
300

 40
0.0
140
1.0
 94
        2
 62
     0
340
70AD
144
0.18
309
CONTENTFORMAT_END
171
     0
 94
        0
309
TABLEFORMAT_END
  1
CELLSTYLE_BEGIN
 90
        3
 91
        2
300
_DATA
309
CELLSTYLE_END
  0
XRECORD
  5
8575
102
{ACAD_REACTORS
330
8574
102
}
330
8574
100
AcDbXrecord
280
     1
102
RTVSPost2010Prop28
280
     1
102
RTVSPost2010PropOp28
 70
     1
102
RTVSPost2010Prop29
280
     1
102
RTVSPost2010PropOp29
 70
     1
102
RTVSPost2010Prop30
280
     0
102
RTVSPost2010PropOp30
 70
     1
102
RTVSPost2010Prop31
280
     0
102
RTVSPost2010PropOp31
 70
     1
102
RTVSPost2010Prop32
280
     0
102
RTVSPost2010PropOp32
 70
     1
102
RTVSPost2010Prop33
280
     0
102
RTVSPost2010PropOp33
 70
     1
102
RTVSPost2010Prop34
280
     0
102
RTVSPost2010PropOp34
 70
     1
102
RTVSPost2010Prop35
280
     0
102
RTVSPost2010PropOp35
 70
     1
102
RTVSPost2010Prop36
280
     0
102
RTVSPost2010PropOp36
 70
     1
102
RTVSPost2010Prop37
 90
       50
102
RTVSPost2010PropOp37
 70
     1
102
RTVSPost2010Prop38
140
0.0
102
RTVSPost2010PropOp38
 70
     1
102
RTVSPost2010Prop39
140
1.0
102
RTVSPost2010PropOp39
 70
     1
102
RTVSPost2010Prop40
 90
        0
102
RTVSPost2010PropOp40
 70
     1
102
RTVSPost2010Prop41ColorIndex
 90
       18
102
RTVSPost2010Prop41ColorRGB
 90
        0
102
RTVSPost2010PropOp41
 70
     1
102
RTVSPost2010Prop42
 90
       50
102
RTVSPost2010PropOp42
 70
     1
102
RTVSPost2010Prop43
 90
        3
102
RTVSPost2010PropOp43
 70
     1
102
RTVSPost2010Prop44ColorIndex
 90
        5
102
RTVSPost2010Prop44ColorRGB
 90
      255
102
RTVSPost2010PropOp44
 70
     1
102
RTVSPost2010Prop45
280
     0
102
RTVSPost2010PropOp45
 70
     1
102
RTVSPost2010Prop46
 90
       50
102
RTVSPost2010PropOp46
 70
     1
102
RTVSPost2010Prop47
 90
       50
102
RTVSPost2010PropOp47
 70
     1
102
RTVSPost2010Prop48
 90
       50
102
RTVSPost2010PropOp48
 70
     1
102
RTVSPost2010Prop49
280
     0
102
RTVSPost2010PropOp49
 70
     1
102
RTVSPost2010Prop50
 90
       50
102
RTVSPost2010PropOp50
 70
     1
102
RTVSPost2010Prop51ColorIndex
 90
      256
102
RTVSPost2010Prop51ColorRGB
 90
-16777216
102
RTVSPost2010PropOp51
 70
     0
102
RTVSPost2010Prop52
140
1.0
102
RTVSPost2010PropOp52
 70
     0
102
RTVSPost2010Prop53
 90
        2
102
RTVSPost2010PropOp53
 70
     1
102
RTVSPost2010Prop54
  1
strokes_ogs.tif
102
RTVSPost2010PropOp54
 70
     1
102
RTVSPost2010Prop55
280
     0
102
RTVSPost2010PropOp55
 70
     1
102
RTVSPost2010Prop56
140
1.0
102
RTVSPost2010PropOp56
 70
     1
102
RTVSPost2010Prop57
140
1.0
102
RTVSPost2010PropOp57
 70
     1
  0
XRECORD
  5
8573
102
{ACAD_REACTORS
330
8572
102
}
330
8572
100
AcDbXrecord
280
     1
102
RTVSPost2010Prop28
280
     0
102
RTVSPost2010PropOp28
 70
     1
102
RTVSPost2010Prop29
280
     1
102
RTVSPost2010PropOp29
 70
     1
102
RTVSPost2010Prop30
280
     1
102
RTVSPost2010PropOp30
 70
     1
102
RTVSPost2010Prop31
280
     0
102
RTVSPost2010PropOp31
 70
     1
102
RTVSPost2010Prop32
280
     0
102
RTVSPost2010PropOp32
 70
     1
102
RTVSPost2010Prop33
280
     0
102
RTVSPost2010PropOp33
 70
     1
102
RTVSPost2010Prop34
280
     0
102
RTVSPost2010PropOp34
 70
     1
102
RTVSPost2010Prop35
280
     0
102
RTVSPost2010PropOp35
 70
     1
102
RTVSPost2010Prop36
280
     0
102
RTVSPost2010PropOp36
 70
     1
102
RTVSPost2010Prop37
 90
       50
102
RTVSPost2010PropOp37
 70
     1
102
RTVSPost2010Prop38
140
0.0
102
RTVSPost2010PropOp38
 70
     1
102
RTVSPost2010Prop39
140
1.0
102
RTVSPost2010PropOp39
 70
     1
102
RTVSPost2010Prop40
 90
        0
102
RTVSPost2010PropOp40
 70
     1
102
RTVSPost2010Prop41ColorIndex
 90
       18
102
RTVSPost2010Prop41ColorRGB
 90
        0
102
RTVSPost2010PropOp41
 70
     1
102
RTVSPost2010Prop42
 90
       50
102
RTVSPost2010PropOp42
 70
     1
102
RTVSPost2010Prop43
 90
        3
102
RTVSPost2010PropOp43
 70
     1
102
RTVSPost2010Prop44ColorIndex
 90
        5
102
RTVSPost2010Prop44ColorRGB
 90
      255
102
RTVSPost2010PropOp44
 70
     1
102
RTVSPost2010Prop45
280
     0
102
RTVSPost2010PropOp45
 70
     1
102
RTVSPost2010Prop46
 90
       50
102
RTVSPost2010PropOp46
 70
     1
102
RTVSPost2010Prop47
 90
       50
102
RTVSPost2010PropOp47
 70
     1
102
RTVSPost2010Prop48
 90
       50
102
RTVSPost2010PropOp48
 70
     1
102
RTVSPost2010Prop49
280
     0
102
RTVSPost2010PropOp49
 70
     1
102
RTVSPost2010Prop50
 90
       50
102
RTVSPost2010PropOp50
 70
     1
102
RTVSPost2010Prop51ColorIndex
 90
      256
102
RTVSPost2010Prop51ColorRGB
 90
-16777216
102
RTVSPost2010PropOp51
 70
     0
102
RTVSPost2010Prop52
140
1.0
102
RTVSPost2010PropOp52
 70
     0
102
RTVSPost2010Prop53
 90
        2
102
RTVSPost2010PropOp53
 70
     1
102
RTVSPost2010Prop54
  1
strokes_ogs.tif
102
RTVSPost2010PropOp54
 70
     1
102
RTVSPost2010Prop55
280
     0
102
RTVSPost2010PropOp55
 70
     1
102
RTVSPost2010Prop56
140
1.0
102
RTVSPost2010PropOp56
 70
     1
102
RTVSPost2010Prop57
140
1.0
102
RTVSPost2010PropOp57
 70
     1
  0
XRECORD
  5
8581
102
{ACAD_REACTORS
330
8580
102
}
330
8580
100
AcDbXrecord
280
     1
102
RTVSPost2010Prop28
280
     0
102
RTVSPost2010PropOp28
 70
     1
102
RTVSPost2010Prop29
280
     1
102
RTVSPost2010PropOp29
 70
     1
102
RTVSPost2010Prop30
280
     1
102
RTVSPost2010PropOp30
 70
     1
102
RTVSPost2010Prop31
280
     0
102
RTVSPost2010PropOp31
 70
     1
102
RTVSPost2010Prop32
280
     0
102
RTVSPost2010PropOp32
 70
     1
102
RTVSPost2010Prop33
280
     0
102
RTVSPost2010PropOp33
 70
     1
102
RTVSPost2010Prop34
280
     0
102
RTVSPost2010PropOp34
 70
     1
102
RTVSPost2010Prop35
280
     0
102
RTVSPost2010PropOp35
 70
     1
102
RTVSPost2010Prop36
280
     0
102
RTVSPost2010PropOp36
 70
     1
102
RTVSPost2010Prop37
 90
       50
102
RTVSPost2010PropOp37
 70
     1
102
RTVSPost2010Prop38
140
0.0
102
RTVSPost2010PropOp38
 70
     1
102
RTVSPost2010Prop39
140
1.0
102
RTVSPost2010PropOp39
 70
     1
102
RTVSPost2010Prop40
 90
        0
102
RTVSPost2010PropOp40
 70
     1
102
RTVSPost2010Prop41ColorIndex
 90
       18
102
RTVSPost2010Prop41ColorRGB
 90
        0
102
RTVSPost2010PropOp41
 70
     1
102
RTVSPost2010Prop42
 90
       50
102
RTVSPost2010PropOp42
 70
     1
102
RTVSPost2010Prop43
 90
        3
102
RTVSPost2010PropOp43
 70
     1
102
RTVSPost2010Prop44ColorIndex
 90
        5
102
RTVSPost2010Prop44ColorRGB
 90
      255
102
RTVSPost2010PropOp44
 70
     1
102
RTVSPost2010Prop45
280
     0
102
RTVSPost2010PropOp45
 70
     1
102
RTVSPost2010Prop46
 90
       50
102
RTVSPost2010PropOp46
 70
     1
102
RTVSPost2010Prop47
 90
       50
102
RTVSPost2010PropOp47
 70
     1
102
RTVSPost2010Prop48
 90
       50
102
RTVSPost2010PropOp48
 70
     1
102
RTVSPost2010Prop49
280
     0
102
RTVSPost2010PropOp49
 70
     1
102
RTVSPost2010Prop50
 90
       50
102
RTVSPost2010PropOp50
 70
     1
102
RTVSPost2010Prop51ColorIndex
 90
      256
102
RTVSPost2010Prop51ColorRGB
 90
-16777216
102
RTVSPost2010PropOp51
 70
     0
102
RTVSPost2010Prop52
140
1.0
102
RTVSPost2010PropOp52
 70
     0
102
RTVSPost2010Prop53
 90
        2
102
RTVSPost2010PropOp53
 70
     1
102
RTVSPost2010Prop54
  1
strokes_ogs.tif
102
RTVSPost2010PropOp54
 70
     1
102
RTVSPost2010Prop55
280
     0
102
RTVSPost2010PropOp55
 70
     1
102
RTVSPost2010Prop56
140
1.0
102
RTVSPost2010PropOp56
 70
     1
102
RTVSPost2010Prop57
140
1.0
102
RTVSPost2010PropOp57
 70
     1
  0
XRECORD
  5
8589
102
{ACAD_REACTORS
330
8588
102
}
330
8588
100
AcDbXrecord
280
     1
102
RTVSPost2010Prop28
280
     0
102
RTVSPost2010PropOp28
 70
     1
102
RTVSPost2010Prop29
280
     1
102
RTVSPost2010PropOp29
 70
     1
102
RTVSPost2010Prop30
280
     1
102
RTVSPost2010PropOp30
 70
     1
102
RTVSPost2010Prop31
280
     0
102
RTVSPost2010PropOp31
 70
     1
102
RTVSPost2010Prop32
280
     0
102
RTVSPost2010PropOp32
 70
     1
102
RTVSPost2010Prop33
280
     0
102
RTVSPost2010PropOp33
 70
     1
102
RTVSPost2010Prop34
280
     0
102
RTVSPost2010PropOp34
 70
     1
102
RTVSPost2010Prop35
280
     0
102
RTVSPost2010PropOp35
 70
     1
102
RTVSPost2010Prop36
280
     0
102
RTVSPost2010PropOp36
 70
     1
102
RTVSPost2010Prop37
 90
       50
102
RTVSPost2010PropOp37
 70
     1
102
RTVSPost2010Prop38
140
0.0
102
RTVSPost2010PropOp38
 70
     1
102
RTVSPost2010Prop39
140
1.0
102
RTVSPost2010PropOp39
 70
     1
102
RTVSPost2010Prop40
 90
        0
102
RTVSPost2010PropOp40
 70
     1
102
RTVSPost2010Prop41ColorIndex
 90
       18
102
RTVSPost2010Prop41ColorRGB
 90
        0
102
RTVSPost2010PropOp41
 70
     1
102
RTVSPost2010Prop42
 90
       50
102
RTVSPost2010PropOp42
 70
     1
102
RTVSPost2010Prop43
 90
        3
102
RTVSPost2010PropOp43
 70
     1
102
RTVSPost2010Prop44ColorIndex
 90
        5
102
RTVSPost2010Prop44ColorRGB
 90
      255
102
RTVSPost2010PropOp44
 70
     1
102
RTVSPost2010Prop45
280
     0
102
RTVSPost2010PropOp45
 70
     1
102
RTVSPost2010Prop46
 90
       50
102
RTVSPost2010PropOp46
 70
     1
102
RTVSPost2010Prop47
 90
       50
102
RTVSPost2010PropOp47
 70
     1
102
RTVSPost2010Prop48
 90
       50
102
RTVSPost2010PropOp48
 70
     1
102
RTVSPost2010Prop49
280
     0
102
RTVSPost2010PropOp49
 70
     1
102
RTVSPost2010Prop50
 90
       50
102
RTVSPost2010PropOp50
 70
     1
102
RTVSPost2010Prop51ColorIndex
 90
      256
102
RTVSPost2010Prop51ColorRGB
 90
-16777216
102
RTVSPost2010PropOp51
 70
     0
102
RTVSPost2010Prop52
140
1.0
102
RTVSPost2010PropOp52
 70
     0
102
RTVSPost2010Prop53
 90
        2
102
RTVSPost2010PropOp53
 70
     1
102
RTVSPost2010Prop54
  1
strokes_ogs.tif
102
RTVSPost2010PropOp54
 70
     1
102
RTVSPost2010Prop55
280
     0
102
RTVSPost2010PropOp55
 70
     1
102
RTVSPost2010Prop56
140
1.0
102
RTVSPost2010PropOp56
 70
     1
102
RTVSPost2010Prop57
140
1.0
102
RTVSPost2010PropOp57
 70
     1
  0
XRECORD
  5
857B
102
{ACAD_REACTORS
330
857A
102
}
330
857A
100
AcDbXrecord
280
     1
102
RTVSPost2010Prop28
280
     0
102
RTVSPost2010PropOp28
 70
     1
102
RTVSPost2010Prop29
280
     1
102
RTVSPost2010PropOp29
 70
     1
102
RTVSPost2010Prop30
280
     1
102
RTVSPost2010PropOp30
 70
     1
102
RTVSPost2010Prop31
280
     0
102
RTVSPost2010PropOp31
 70
     1
102
RTVSPost2010Prop32
280
     0
102
RTVSPost2010PropOp32
 70
     1
102
RTVSPost2010Prop33
280
     0
102
RTVSPost2010PropOp33
 70
     1
102
RTVSPost2010Prop34
280
     0
102
RTVSPost2010PropOp34
 70
     1
102
RTVSPost2010Prop35
280
     0
102
RTVSPost2010PropOp35
 70
     1
102
RTVSPost2010Prop36
280
     0
102
RTVSPost2010PropOp36
 70
     1
102
RTVSPost2010Prop37
 90
       50
102
RTVSPost2010PropOp37
 70
     1
102
RTVSPost2010Prop38
140
0.0
102
RTVSPost2010PropOp38
 70
     1
102
RTVSPost2010Prop39
140
1.0
102
RTVSPost2010PropOp39
 70
     1
102
RTVSPost2010Prop40
 90
        0
102
RTVSPost2010PropOp40
 70
     1
102
RTVSPost2010Prop41ColorIndex
 90
       18
102
RTVSPost2010Prop41ColorRGB
 90
        0
102
RTVSPost2010PropOp41
 70
     1
102
RTVSPost2010Prop42
 90
       50
102
RTVSPost2010PropOp42
 70
     1
102
RTVSPost2010Prop43
 90
        3
102
RTVSPost2010PropOp43
 70
     1
102
RTVSPost2010Prop44ColorIndex
 90
        5
102
RTVSPost2010Prop44ColorRGB
 90
      255
102
RTVSPost2010PropOp44
 70
     1
102
RTVSPost2010Prop45
280
     0
102
RTVSPost2010PropOp45
 70
     1
102
RTVSPost2010Prop46
 90
       50
102
RTVSPost2010PropOp46
 70
     1
102
RTVSPost2010Prop47
 90
       50
102
RTVSPost2010PropOp47
 70
     1
102
RTVSPost2010Prop48
 90
       50
102
RTVSPost2010PropOp48
 70
     1
102
RTVSPost2010Prop49
280
     0
102
RTVSPost2010PropOp49
 70
     1
102
RTVSPost2010Prop50
 90
       50
102
RTVSPost2010PropOp50
 70
     1
102
RTVSPost2010Prop51ColorIndex
 90
      256
102
RTVSPost2010Prop51ColorRGB
 90
-16777216
102
RTVSPost2010PropOp51
 70
     0
102
RTVSPost2010Prop52
140
1.0
102
RTVSPost2010PropOp52
 70
     0
102
RTVSPost2010Prop53
 90
        2
102
RTVSPost2010PropOp53
 70
     1
102
RTVSPost2010Prop54
  1
strokes_ogs.tif
102
RTVSPost2010PropOp54
 70
     1
102
RTVSPost2010Prop55
280
     0
102
RTVSPost2010PropOp55
 70
     1
102
RTVSPost2010Prop56
140
1.0
102
RTVSPost2010PropOp56
 70
     1
102
RTVSPost2010Prop57
140
1.0
102
RTVSPost2010PropOp57
 70
     1
  0
XRECORD
  5
857F
102
{ACAD_REACTORS
330
857E
102
}
330
857E
100
AcDbXrecord
280
     1
102
RTVSPost2010Prop28
280
     0
102
RTVSPost2010PropOp28
 70
     1
102
RTVSPost2010Prop29
280
     1
102
RTVSPost2010PropOp29
 70
     1
102
RTVSPost2010Prop30
280
     1
102
RTVSPost2010PropOp30
 70
     1
102
RTVSPost2010Prop31
280
     0
102
RTVSPost2010PropOp31
 70
     1
102
RTVSPost2010Prop32
280
     0
102
RTVSPost2010PropOp32
 70
     1
102
RTVSPost2010Prop33
280
     0
102
RTVSPost2010PropOp33
 70
     1
102
RTVSPost2010Prop34
280
     0
102
RTVSPost2010PropOp34
 70
     1
102
RTVSPost2010Prop35
280
     0
102
RTVSPost2010PropOp35
 70
     1
102
RTVSPost2010Prop36
280
     0
102
RTVSPost2010PropOp36
 70
     1
102
RTVSPost2010Prop37
 90
       50
102
RTVSPost2010PropOp37
 70
     1
102
RTVSPost2010Prop38
140
0.0
102
RTVSPost2010PropOp38
 70
     1
102
RTVSPost2010Prop39
140
1.0
102
RTVSPost2010PropOp39
 70
     1
102
RTVSPost2010Prop40
 90
        0
102
RTVSPost2010PropOp40
 70
     1
102
RTVSPost2010Prop41ColorIndex
 90
       18
102
RTVSPost2010Prop41ColorRGB
 90
        0
102
RTVSPost2010PropOp41
 70
     1
102
RTVSPost2010Prop42
 90
       50
102
RTVSPost2010PropOp42
 70
     1
102
RTVSPost2010Prop43
 90
        3
102
RTVSPost2010PropOp43
 70
     1
102
RTVSPost2010Prop44ColorIndex
 90
        5
102
RTVSPost2010Prop44ColorRGB
 90
      255
102
RTVSPost2010PropOp44
 70
     1
102
RTVSPost2010Prop45
280
     0
102
RTVSPost2010PropOp45
 70
     1
102
RTVSPost2010Prop46
 90
       50
102
RTVSPost2010PropOp46
 70
     1
102
RTVSPost2010Prop47
 90
       50
102
RTVSPost2010PropOp47
 70
     1
102
RTVSPost2010Prop48
 90
       50
102
RTVSPost2010PropOp48
 70
     1
102
RTVSPost2010Prop49
280
     0
102
RTVSPost2010PropOp49
 70
     1
102
RTVSPost2010Prop50
 90
       50
102
RTVSPost2010PropOp50
 70
     1
102
RTVSPost2010Prop51ColorIndex
 90
      256
102
RTVSPost2010Prop51ColorRGB
 90
-16777216
102
RTVSPost2010PropOp51
 70
     0
102
RTVSPost2010Prop52
140
1.0
102
RTVSPost2010PropOp52
 70
     0
102
RTVSPost2010Prop53
 90
        2
102
RTVSPost2010PropOp53
 70
     1
102
RTVSPost2010Prop54
  1
strokes_ogs.tif
102
RTVSPost2010PropOp54
 70
     1
102
RTVSPost2010Prop55
280
     0
102
RTVSPost2010PropOp55
 70
     1
102
RTVSPost2010Prop56
140
1.0
102
RTVSPost2010PropOp56
 70
     1
102
RTVSPost2010Prop57
140
1.0
102
RTVSPost2010PropOp57
 70
     1
  0
XRECORD
  5
8599
102
{ACAD_REACTORS
330
8598
102
}
330
8598
100
AcDbXrecord
280
     1
102
RTVSPost2010Prop28
280
     0
102
RTVSPost2010PropOp28
 70
     1
102
RTVSPost2010Prop29
280
     1
102
RTVSPost2010PropOp29
 70
     1
102
RTVSPost2010Prop30
280
     1
102
RTVSPost2010PropOp30
 70
     1
102
RTVSPost2010Prop31
280
     0
102
RTVSPost2010PropOp31
 70
     1
102
RTVSPost2010Prop32
280
     0
102
RTVSPost2010PropOp32
 70
     1
102
RTVSPost2010Prop33
280
     0
102
RTVSPost2010PropOp33
 70
     1
102
RTVSPost2010Prop34
280
     0
102
RTVSPost2010PropOp34
 70
     1
102
RTVSPost2010Prop35
280
     0
102
RTVSPost2010PropOp35
 70
     1
102
RTVSPost2010Prop36
280
     0
102
RTVSPost2010PropOp36
 70
     1
102
RTVSPost2010Prop37
 90
       50
102
RTVSPost2010PropOp37
 70
     0
102
RTVSPost2010Prop38
140
0.0
102
RTVSPost2010PropOp38
 70
     0
102
RTVSPost2010Prop39
140
1.0
102
RTVSPost2010PropOp39
 70
     0
102
RTVSPost2010Prop40
 90
        0
102
RTVSPost2010PropOp40
 70
     0
102
RTVSPost2010Prop41ColorIndex
 90
       18
102
RTVSPost2010Prop41ColorRGB
 90
        0
102
RTVSPost2010PropOp41
 70
     0
102
RTVSPost2010Prop42
 90
       50
102
RTVSPost2010PropOp42
 70
     0
102
RTVSPost2010Prop43
 90
        3
102
RTVSPost2010PropOp43
 70
     0
102
RTVSPost2010Prop44ColorIndex
 90
        5
102
RTVSPost2010Prop44ColorRGB
 90
      255
102
RTVSPost2010PropOp44
 70
     0
102
RTVSPost2010Prop45
280
     0
102
RTVSPost2010PropOp45
 70
     1
102
RTVSPost2010Prop46
 90
       50
102
RTVSPost2010PropOp46
 70
     0
102
RTVSPost2010Prop47
 90
       50
102
RTVSPost2010PropOp47
 70
     0
102
RTVSPost2010Prop48
 90
       50
102
RTVSPost2010PropOp48
 70
     0
102
RTVSPost2010Prop49
280
     0
102
RTVSPost2010PropOp49
 70
     1
102
RTVSPost2010Prop50
 90
       50
102
RTVSPost2010PropOp50
 70
     0
102
RTVSPost2010Prop51ColorIndex
 90
      256
102
RTVSPost2010Prop51ColorRGB
 90
-16777216
102
RTVSPost2010PropOp51
 70
     0
102
RTVSPost2010Prop52
140
1.0
102
RTVSPost2010PropOp52
 70
     0
102
RTVSPost2010Prop53
 90
        2
102
RTVSPost2010PropOp53
 70
     0
102
RTVSPost2010Prop54
  1
strokes_ogs.tif
102
RTVSPost2010PropOp54
 70
     0
102
RTVSPost2010Prop55
280
     0
102
RTVSPost2010PropOp55
 70
     1
102
RTVSPost2010Prop56
140
1.0
102
RTVSPost2010PropOp56
 70
     0
102
RTVSPost2010Prop57
140
1.0
102
RTVSPost2010PropOp57
 70
     0
  0
XRECORD
  5
8587
102
{ACAD_REACTORS
330
8586
102
}
330
8586
100
AcDbXrecord
280
     1
102
RTVSPost2010Prop28
280
     0
102
RTVSPost2010PropOp28
 70
     1
102
RTVSPost2010Prop29
280
     1
102
RTVSPost2010PropOp29
 70
     1
102
RTVSPost2010Prop30
280
     1
102
RTVSPost2010PropOp30
 70
     1
102
RTVSPost2010Prop31
280
     0
102
RTVSPost2010PropOp31
 70
     1
102
RTVSPost2010Prop32
280
     0
102
RTVSPost2010PropOp32
 70
     1
102
RTVSPost2010Prop33
280
     0
102
RTVSPost2010PropOp33
 70
     1
102
RTVSPost2010Prop34
280
     0
102
RTVSPost2010PropOp34
 70
     1
102
RTVSPost2010Prop35
280
     0
102
RTVSPost2010PropOp35
 70
     1
102
RTVSPost2010Prop36
280
     0
102
RTVSPost2010PropOp36
 70
     1
102
RTVSPost2010Prop37
 90
       50
102
RTVSPost2010PropOp37
 70
     1
102
RTVSPost2010Prop38
140
0.0
102
RTVSPost2010PropOp38
 70
     1
102
RTVSPost2010Prop39
140
1.0
102
RTVSPost2010PropOp39
 70
     1
102
RTVSPost2010Prop40
 90
        0
102
RTVSPost2010PropOp40
 70
     1
102
RTVSPost2010Prop41ColorIndex
 90
       18
102
RTVSPost2010Prop41ColorRGB
 90
        0
102
RTVSPost2010PropOp41
 70
     1
102
RTVSPost2010Prop42
 90
       50
102
RTVSPost2010PropOp42
 70
     1
102
RTVSPost2010Prop43
 90
        3
102
RTVSPost2010PropOp43
 70
     1
102
RTVSPost2010Prop44ColorIndex
 90
        5
102
RTVSPost2010Prop44ColorRGB
 90
      255
102
RTVSPost2010PropOp44
 70
     1
102
RTVSPost2010Prop45
280
     0
102
RTVSPost2010PropOp45
 70
     1
102
RTVSPost2010Prop46
 90
       50
102
RTVSPost2010PropOp46
 70
     1
102
RTVSPost2010Prop47
 90
       50
102
RTVSPost2010PropOp47
 70
     1
102
RTVSPost2010Prop48
 90
       50
102
RTVSPost2010PropOp48
 70
     1
102
RTVSPost2010Prop49
280
     0
102
RTVSPost2010PropOp49
 70
     1
102
RTVSPost2010Prop50
 90
       50
102
RTVSPost2010PropOp50
 70
     1
102
RTVSPost2010Prop51ColorIndex
 90
      256
102
RTVSPost2010Prop51ColorRGB
 90
-16777216
102
RTVSPost2010PropOp51
 70
     0
102
RTVSPost2010Prop52
140
1.0
102
RTVSPost2010PropOp52
 70
     0
102
RTVSPost2010Prop53
 90
        2
102
RTVSPost2010PropOp53
 70
     1
102
RTVSPost2010Prop54
  1
strokes_ogs.tif
102
RTVSPost2010PropOp54
 70
     1
102
RTVSPost2010Prop55
280
     0
102
RTVSPost2010PropOp55
 70
     1
102
RTVSPost2010Prop56
140
1.0
102
RTVSPost2010PropOp56
 70
     1
102
RTVSPost2010Prop57
140
1.0
102
RTVSPost2010PropOp57
 70
     1
  0
XRECORD
  5
856B
102
{ACAD_REACTORS
330
856A
102
}
330
856A
100
AcDbXrecord
280
     1
102
RTVSPost2010Prop28
280
     0
102
RTVSPost2010PropOp28
 70
     1
102
RTVSPost2010Prop29
280
     1
102
RTVSPost2010PropOp29
 70
     1
102
RTVSPost2010Prop30
280
     1
102
RTVSPost2010PropOp30
 70
     1
102
RTVSPost2010Prop31
280
     0
102
RTVSPost2010PropOp31
 70
     1
102
RTVSPost2010Prop32
280
     0
102
RTVSPost2010PropOp32
 70
     1
102
RTVSPost2010Prop33
280
     0
102
RTVSPost2010PropOp33
 70
     1
102
RTVSPost2010Prop34
280
     0
102
RTVSPost2010PropOp34
 70
     1
102
RTVSPost2010Prop35
280
     0
102
RTVSPost2010PropOp35
 70
     1
102
RTVSPost2010Prop36
280
     0
102
RTVSPost2010PropOp36
 70
     1
102
RTVSPost2010Prop37
 90
       50
102
RTVSPost2010PropOp37
 70
     1
102
RTVSPost2010Prop38
140
0.0
102
RTVSPost2010PropOp38
 70
     1
102
RTVSPost2010Prop39
140
1.0
102
RTVSPost2010PropOp39
 70
     1
102
RTVSPost2010Prop40
 90
        0
102
RTVSPost2010PropOp40
 70
     1
102
RTVSPost2010Prop41ColorIndex
 90
       18
102
RTVSPost2010Prop41ColorRGB
 90
        0
102
RTVSPost2010PropOp41
 70
     1
102
RTVSPost2010Prop42
 90
       50
102
RTVSPost2010PropOp42
 70
     1
102
RTVSPost2010Prop43
 90
        3
102
RTVSPost2010PropOp43
 70
     1
102
RTVSPost2010Prop44ColorIndex
 90
        5
102
RTVSPost2010Prop44ColorRGB
 90
      255
102
RTVSPost2010PropOp44
 70
     1
102
RTVSPost2010Prop45
280
     0
102
RTVSPost2010PropOp45
 70
     1
102
RTVSPost2010Prop46
 90
       50
102
RTVSPost2010PropOp46
 70
     1
102
RTVSPost2010Prop47
 90
       50
102
RTVSPost2010PropOp47
 70
     1
102
RTVSPost2010Prop48
 90
       50
102
RTVSPost2010PropOp48
 70
     1
102
RTVSPost2010Prop49
280
     0
102
RTVSPost2010PropOp49
 70
     1
102
RTVSPost2010Prop50
 90
       50
102
RTVSPost2010PropOp50
 70
     1
102
RTVSPost2010Prop51ColorIndex
 90
      256
102
RTVSPost2010Prop51ColorRGB
 90
-16777216
102
RTVSPost2010PropOp51
 70
     0
102
RTVSPost2010Prop52
140
1.0
102
RTVSPost2010PropOp52
 70
     0
102
RTVSPost2010Prop53
 90
        2
102
RTVSPost2010PropOp53
 70
     1
102
RTVSPost2010Prop54
  1
strokes_ogs.tif
102
RTVSPost2010PropOp54
 70
     1
102
RTVSPost2010Prop55
280
     0
102
RTVSPost2010PropOp55
 70
     1
102
RTVSPost2010Prop56
140
1.0
102
RTVSPost2010PropOp56
 70
     1
102
RTVSPost2010Prop57
140
1.0
102
RTVSPost2010PropOp57
 70
     1
  0
XRECORD
  5
856D
102
{ACAD_REACTORS
330
856C
102
}
330
856C
100
AcDbXrecord
280
     1
102
RTVSPost2010Prop28
280
     0
102
RTVSPost2010PropOp28
 70
     1
102
RTVSPost2010Prop29
280
     1
102
RTVSPost2010PropOp29
 70
     1
102
RTVSPost2010Prop30
280
     1
102
RTVSPost2010PropOp30
 70
     1
102
RTVSPost2010Prop31
280
     0
102
RTVSPost2010PropOp31
 70
     1
102
RTVSPost2010Prop32
280
     0
102
RTVSPost2010PropOp32
 70
     1
102
RTVSPost2010Prop33
280
     0
102
RTVSPost2010PropOp33
 70
     1
102
RTVSPost2010Prop34
280
     0
102
RTVSPost2010PropOp34
 70
     1
102
RTVSPost2010Prop35
280
     0
102
RTVSPost2010PropOp35
 70
     1
102
RTVSPost2010Prop36
280
     0
102
RTVSPost2010PropOp36
 70
     1
102
RTVSPost2010Prop37
 90
       50
102
RTVSPost2010PropOp37
 70
     1
102
RTVSPost2010Prop38
140
0.0
102
RTVSPost2010PropOp38
 70
     1
102
RTVSPost2010Prop39
140
1.0
102
RTVSPost2010PropOp39
 70
     1
102
RTVSPost2010Prop40
 90
        0
102
RTVSPost2010PropOp40
 70
     1
102
RTVSPost2010Prop41ColorIndex
 90
       18
102
RTVSPost2010Prop41ColorRGB
 90
        0
102
RTVSPost2010PropOp41
 70
     1
102
RTVSPost2010Prop42
 90
       50
102
RTVSPost2010PropOp42
 70
     1
102
RTVSPost2010Prop43
 90
        3
102
RTVSPost2010PropOp43
 70
     1
102
RTVSPost2010Prop44ColorIndex
 90
        5
102
RTVSPost2010Prop44ColorRGB
 90
      255
102
RTVSPost2010PropOp44
 70
     1
102
RTVSPost2010Prop45
280
     0
102
RTVSPost2010PropOp45
 70
     1
102
RTVSPost2010Prop46
 90
       50
102
RTVSPost2010PropOp46
 70
     1
102
RTVSPost2010Prop47
 90
       50
102
RTVSPost2010PropOp47
 70
     1
102
RTVSPost2010Prop48
 90
       50
102
RTVSPost2010PropOp48
 70
     1
102
RTVSPost2010Prop49
280
     0
102
RTVSPost2010PropOp49
 70
     1
102
RTVSPost2010Prop50
 90
       50
102
RTVSPost2010PropOp50
 70
     1
102
RTVSPost2010Prop51ColorIndex
 90
      256
102
RTVSPost2010Prop51ColorRGB
 90
-16777216
102
RTVSPost2010PropOp51
 70
     0
102
RTVSPost2010Prop52
140
1.0
102
RTVSPost2010PropOp52
 70
     0
102
RTVSPost2010Prop53
 90
        2
102
RTVSPost2010PropOp53
 70
     1
102
RTVSPost2010Prop54
  1
strokes_ogs.tif
102
RTVSPost2010PropOp54
 70
     1
102
RTVSPost2010Prop55
280
     0
102
RTVSPost2010PropOp55
 70
     1
102
RTVSPost2010Prop56
140
1.0
102
RTVSPost2010PropOp56
 70
     1
102
RTVSPost2010Prop57
140
1.0
102
RTVSPost2010PropOp57
 70
     1
  0
XRECORD
  5
856F
102
{ACAD_REACTORS
330
856E
102
}
330
856E
100
AcDbXrecord
280
     1
102
RTVSPost2010Prop28
280
     0
102
RTVSPost2010PropOp28
 70
     1
102
RTVSPost2010Prop29
280
     1
102
RTVSPost2010PropOp29
 70
     1
102
RTVSPost2010Prop30
280
     1
102
RTVSPost2010PropOp30
 70
     1
102
RTVSPost2010Prop31
280
     0
102
RTVSPost2010PropOp31
 70
     1
102
RTVSPost2010Prop32
280
     0
102
RTVSPost2010PropOp32
 70
     1
102
RTVSPost2010Prop33
280
     0
102
RTVSPost2010PropOp33
 70
     1
102
RTVSPost2010Prop34
280
     0
102
RTVSPost2010PropOp34
 70
     1
102
RTVSPost2010Prop35
280
     0
102
RTVSPost2010PropOp35
 70
     1
102
RTVSPost2010Prop36
280
     0
102
RTVSPost2010PropOp36
 70
     1
102
RTVSPost2010Prop37
 90
       50
102
RTVSPost2010PropOp37
 70
     1
102
RTVSPost2010Prop38
140
0.0
102
RTVSPost2010PropOp38
 70
     1
102
RTVSPost2010Prop39
140
1.0
102
RTVSPost2010PropOp39
 70
     1
102
RTVSPost2010Prop40
 90
        0
102
RTVSPost2010PropOp40
 70
     1
102
RTVSPost2010Prop41ColorIndex
 90
       18
102
RTVSPost2010Prop41ColorRGB
 90
        0
102
RTVSPost2010PropOp41
 70
     1
102
RTVSPost2010Prop42
 90
       50
102
RTVSPost2010PropOp42
 70
     1
102
RTVSPost2010Prop43
 90
        3
102
RTVSPost2010PropOp43
 70
     1
102
RTVSPost2010Prop44ColorIndex
 90
        5
102
RTVSPost2010Prop44ColorRGB
 90
      255
102
RTVSPost2010PropOp44
 70
     1
102
RTVSPost2010Prop45
280
     0
102
RTVSPost2010PropOp45
 70
     1
102
RTVSPost2010Prop46
 90
       50
102
RTVSPost2010PropOp46
 70
     1
102
RTVSPost2010Prop47
 90
       50
102
RTVSPost2010PropOp47
 70
     1
102
RTVSPost2010Prop48
 90
       50
102
RTVSPost2010PropOp48
 70
     1
102
RTVSPost2010Prop49
280
     0
102
RTVSPost2010PropOp49
 70
     1
102
RTVSPost2010Prop50
 90
       50
102
RTVSPost2010PropOp50
 70
     1
102
RTVSPost2010Prop51ColorIndex
 90
      256
102
RTVSPost2010Prop51ColorRGB
 90
-16777216
102
RTVSPost2010PropOp51
 70
     0
102
RTVSPost2010Prop52
140
1.0
102
RTVSPost2010PropOp52
 70
     0
102
RTVSPost2010Prop53
 90
        2
102
RTVSPost2010PropOp53
 70
     1
102
RTVSPost2010Prop54
  1
strokes_ogs.tif
102
RTVSPost2010PropOp54
 70
     1
102
RTVSPost2010Prop55
280
     0
102
RTVSPost2010PropOp55
 70
     1
102
RTVSPost2010Prop56
140
1.0
102
RTVSPost2010PropOp56
 70
     1
102
RTVSPost2010Prop57
140
1.0
102
RTVSPost2010PropOp57
 70
     1
  0
XRECORD
  5
8571
102
{ACAD_REACTORS
330
8570
102
}
330
8570
100
AcDbXrecord
280
     1
102
RTVSPost2010Prop28
280
     0
102
RTVSPost2010PropOp28
 70
     1
102
RTVSPost2010Prop29
280
     1
102
RTVSPost2010PropOp29
 70
     1
102
RTVSPost2010Prop30
280
     1
102
RTVSPost2010PropOp30
 70
     1
102
RTVSPost2010Prop31
280
     0
102
RTVSPost2010PropOp31
 70
     1
102
RTVSPost2010Prop32
280
     0
102
RTVSPost2010PropOp32
 70
     1
102
RTVSPost2010Prop33
280
     0
102
RTVSPost2010PropOp33
 70
     1
102
RTVSPost2010Prop34
280
     0
102
RTVSPost2010PropOp34
 70
     1
102
RTVSPost2010Prop35
280
     0
102
RTVSPost2010PropOp35
 70
     1
102
RTVSPost2010Prop36
280
     0
102
RTVSPost2010PropOp36
 70
     1
102
RTVSPost2010Prop37
 90
       50
102
RTVSPost2010PropOp37
 70
     1
102
RTVSPost2010Prop38
140
0.0
102
RTVSPost2010PropOp38
 70
     1
102
RTVSPost2010Prop39
140
1.0
102
RTVSPost2010PropOp39
 70
     1
102
RTVSPost2010Prop40
 90
        0
102
RTVSPost2010PropOp40
 70
     1
102
RTVSPost2010Prop41ColorIndex
 90
       18
102
RTVSPost2010Prop41ColorRGB
 90
        0
102
RTVSPost2010PropOp41
 70
     1
102
RTVSPost2010Prop42
 90
       50
102
RTVSPost2010PropOp42
 70
     1
102
RTVSPost2010Prop43
 90
        3
102
RTVSPost2010PropOp43
 70
     1
102
RTVSPost2010Prop44ColorIndex
 90
        5
102
RTVSPost2010Prop44ColorRGB
 90
      255
102
RTVSPost2010PropOp44
 70
     1
102
RTVSPost2010Prop45
280
     0
102
RTVSPost2010PropOp45
 70
     1
102
RTVSPost2010Prop46
 90
       50
102
RTVSPost2010PropOp46
 70
     1
102
RTVSPost2010Prop47
 90
       50
102
RTVSPost2010PropOp47
 70
     1
102
RTVSPost2010Prop48
 90
       50
102
RTVSPost2010PropOp48
 70
     1
102
RTVSPost2010Prop49
280
     0
102
RTVSPost2010PropOp49
 70
     1
102
RTVSPost2010Prop50
 90
       50
102
RTVSPost2010PropOp50
 70
     1
102
RTVSPost2010Prop51ColorIndex
 90
      256
102
RTVSPost2010Prop51ColorRGB
 90
-16777216
102
RTVSPost2010PropOp51
 70
     0
102
RTVSPost2010Prop52
140
1.0
102
RTVSPost2010PropOp52
 70
     0
102
RTVSPost2010Prop53
 90
        2
102
RTVSPost2010PropOp53
 70
     1
102
RTVSPost2010Prop54
  1
strokes_ogs.tif
102
RTVSPost2010PropOp54
 70
     1
102
RTVSPost2010Prop55
280
     0
102
RTVSPost2010PropOp55
 70
     1
102
RTVSPost2010Prop56
140
1.0
102
RTVSPost2010PropOp56
 70
     1
102
RTVSPost2010Prop57
140
1.0
102
RTVSPost2010PropOp57
 70
     1
  0
XRECORD
  5
8579
102
{ACAD_REACTORS
330
8578
102
}
330
8578
100
AcDbXrecord
280
     1
102
RTVSPost2010Prop28
280
     0
102
RTVSPost2010PropOp28
 70
     1
102
RTVSPost2010Prop29
280
     1
102
RTVSPost2010PropOp29
 70
     1
102
RTVSPost2010Prop30
280
     1
102
RTVSPost2010PropOp30
 70
     1
102
RTVSPost2010Prop31
280
     0
102
RTVSPost2010PropOp31
 70
     1
102
RTVSPost2010Prop32
280
     0
102
RTVSPost2010PropOp32
 70
     1
102
RTVSPost2010Prop33
280
     0
102
RTVSPost2010PropOp33
 70
     1
102
RTVSPost2010Prop34
280
     0
102
RTVSPost2010PropOp34
 70
     1
102
RTVSPost2010Prop35
280
     0
102
RTVSPost2010PropOp35
 70
     1
102
RTVSPost2010Prop36
280
     0
102
RTVSPost2010PropOp36
 70
     1
102
RTVSPost2010Prop37
 90
       50
102
RTVSPost2010PropOp37
 70
     1
102
RTVSPost2010Prop38
140
0.0
102
RTVSPost2010PropOp38
 70
     1
102
RTVSPost2010Prop39
140
1.0
102
RTVSPost2010PropOp39
 70
     1
102
RTVSPost2010Prop40
 90
        0
102
RTVSPost2010PropOp40
 70
     1
102
RTVSPost2010Prop41ColorIndex
 90
       18
102
RTVSPost2010Prop41ColorRGB
 90
        0
102
RTVSPost2010PropOp41
 70
     1
102
RTVSPost2010Prop42
 90
       50
102
RTVSPost2010PropOp42
 70
     1
102
RTVSPost2010Prop43
 90
        3
102
RTVSPost2010PropOp43
 70
     1
102
RTVSPost2010Prop44ColorIndex
 90
        5
102
RTVSPost2010Prop44ColorRGB
 90
      255
102
RTVSPost2010PropOp44
 70
     1
102
RTVSPost2010Prop45
280
     0
102
RTVSPost2010PropOp45
 70
     1
102
RTVSPost2010Prop46
 90
       50
102
RTVSPost2010PropOp46
 70
     1
102
RTVSPost2010Prop47
 90
       50
102
RTVSPost2010PropOp47
 70
     1
102
RTVSPost2010Prop48
 90
       50
102
RTVSPost2010PropOp48
 70
     1
102
RTVSPost2010Prop49
280
     0
102
RTVSPost2010PropOp49
 70
     1
102
RTVSPost2010Prop50
 90
       50
102
RTVSPost2010PropOp50
 70
     1
102
RTVSPost2010Prop51ColorIndex
 90
      256
102
RTVSPost2010Prop51ColorRGB
 90
-16777216
102
RTVSPost2010PropOp51
 70
     0
102
RTVSPost2010Prop52
140
1.0
102
RTVSPost2010PropOp52
 70
     0
102
RTVSPost2010Prop53
 90
        2
102
RTVSPost2010PropOp53
 70
     1
102
RTVSPost2010Prop54
  1
strokes_ogs.tif
102
RTVSPost2010PropOp54
 70
     1
102
RTVSPost2010Prop55
280
     0
102
RTVSPost2010PropOp55
 70
     1
102
RTVSPost2010Prop56
140
1.0
102
RTVSPost2010PropOp56
 70
     1
102
RTVSPost2010Prop57
140
1.0
102
RTVSPost2010PropOp57
 70
     1
  0
XRECORD
  5
8595
102
{ACAD_REACTORS
330
8594
102
}
330
8594
100
AcDbXrecord
280
     1
102
RTVSPost2010Prop28
280
     0
102
RTVSPost2010PropOp28
 70
     1
102
RTVSPost2010Prop29
280
     1
102
RTVSPost2010PropOp29
 70
     1
102
RTVSPost2010Prop30
280
     1
102
RTVSPost2010PropOp30
 70
     1
102
RTVSPost2010Prop31
280
     0
102
RTVSPost2010PropOp31
 70
     1
102
RTVSPost2010Prop32
280
     0
102
RTVSPost2010PropOp32
 70
     1
102
RTVSPost2010Prop33
280
     0
102
RTVSPost2010PropOp33
 70
     1
102
RTVSPost2010Prop34
280
     0
102
RTVSPost2010PropOp34
 70
     1
102
RTVSPost2010Prop35
280
     0
102
RTVSPost2010PropOp35
 70
     1
102
RTVSPost2010Prop36
280
     0
102
RTVSPost2010PropOp36
 70
     1
102
RTVSPost2010Prop37
 90
       50
102
RTVSPost2010PropOp37
 70
     0
102
RTVSPost2010Prop38
140
0.0
102
RTVSPost2010PropOp38
 70
     0
102
RTVSPost2010Prop39
140
1.0
102
RTVSPost2010PropOp39
 70
     0
102
RTVSPost2010Prop40
 90
        0
102
RTVSPost2010PropOp40
 70
     0
102
RTVSPost2010Prop41ColorIndex
 90
       18
102
RTVSPost2010Prop41ColorRGB
 90
        0
102
RTVSPost2010PropOp41
 70
     0
102
RTVSPost2010Prop42
 90
       50
102
RTVSPost2010PropOp42
 70
     0
102
RTVSPost2010Prop43
 90
        3
102
RTVSPost2010PropOp43
 70
     0
102
RTVSPost2010Prop44ColorIndex
 90
        5
102
RTVSPost2010Prop44ColorRGB
 90
      255
102
RTVSPost2010PropOp44
 70
     0
102
RTVSPost2010Prop45
280
     0
102
RTVSPost2010PropOp45
 70
     1
102
RTVSPost2010Prop46
 90
       50
102
RTVSPost2010PropOp46
 70
     0
102
RTVSPost2010Prop47
 90
       50
102
RTVSPost2010PropOp47
 70
     0
102
RTVSPost2010Prop48
 90
       50
102
RTVSPost2010PropOp48
 70
     0
102
RTVSPost2010Prop49
280
     0
102
RTVSPost2010PropOp49
 70
     1
102
RTVSPost2010Prop50
 90
       50
102
RTVSPost2010PropOp50
 70
     0
102
RTVSPost2010Prop51ColorIndex
 90
      256
102
RTVSPost2010Prop51ColorRGB
 90
-16777216
102
RTVSPost2010PropOp51
 70
     0
102
RTVSPost2010Prop52
140
1.0
102
RTVSPost2010PropOp52
 70
     0
102
RTVSPost2010Prop53
 90
        2
102
RTVSPost2010PropOp53
 70
     0
102
RTVSPost2010Prop54
  1
strokes_ogs.tif
102
RTVSPost2010PropOp54
 70
     0
102
RTVSPost2010Prop55
280
     0
102
RTVSPost2010PropOp55
 70
     1
102
RTVSPost2010Prop56
140
1.0
102
RTVSPost2010PropOp56
 70
     0
102
RTVSPost2010Prop57
140
1.0
102
RTVSPost2010PropOp57
 70
     0
  0
XRECORD
  5
8585
102
{ACAD_REACTORS
330
8584
102
}
330
8584
100
AcDbXrecord
280
     1
102
RTVSPost2010Prop28
280
     0
102
RTVSPost2010PropOp28
 70
     1
102
RTVSPost2010Prop29
280
     1
102
RTVSPost2010PropOp29
 70
     1
102
RTVSPost2010Prop30
280
     1
102
RTVSPost2010PropOp30
 70
     1
102
RTVSPost2010Prop31
280
     0
102
RTVSPost2010PropOp31
 70
     1
102
RTVSPost2010Prop32
280
     0
102
RTVSPost2010PropOp32
 70
     1
102
RTVSPost2010Prop33
280
     0
102
RTVSPost2010PropOp33
 70
     1
102
RTVSPost2010Prop34
280
     0
102
RTVSPost2010PropOp34
 70
     1
102
RTVSPost2010Prop35
280
     0
102
RTVSPost2010PropOp35
 70
     1
102
RTVSPost2010Prop36
280
     0
102
RTVSPost2010PropOp36
 70
     1
102
RTVSPost2010Prop37
 90
       50
102
RTVSPost2010PropOp37
 70
     1
102
RTVSPost2010Prop38
140
0.0
102
RTVSPost2010PropOp38
 70
     1
102
RTVSPost2010Prop39
140
1.0
102
RTVSPost2010PropOp39
 70
     1
102
RTVSPost2010Prop40
 90
        0
102
RTVSPost2010PropOp40
 70
     1
102
RTVSPost2010Prop41ColorIndex
 90
       18
102
RTVSPost2010Prop41ColorRGB
 90
        0
102
RTVSPost2010PropOp41
 70
     1
102
RTVSPost2010Prop42
 90
       50
102
RTVSPost2010PropOp42
 70
     1
102
RTVSPost2010Prop43
 90
        3
102
RTVSPost2010PropOp43
 70
     1
102
RTVSPost2010Prop44ColorIndex
 90
        5
102
RTVSPost2010Prop44ColorRGB
 90
      255
102
RTVSPost2010PropOp44
 70
     1
102
RTVSPost2010Prop45
280
     0
102
RTVSPost2010PropOp45
 70
     1
102
RTVSPost2010Prop46
 90
       50
102
RTVSPost2010PropOp46
 70
     1
102
RTVSPost2010Prop47
 90
       50
102
RTVSPost2010PropOp47
 70
     1
102
RTVSPost2010Prop48
 90
       50
102
RTVSPost2010PropOp48
 70
     1
102
RTVSPost2010Prop49
280
     0
102
RTVSPost2010PropOp49
 70
     1
102
RTVSPost2010Prop50
 90
       50
102
RTVSPost2010PropOp50
 70
     1
102
RTVSPost2010Prop51ColorIndex
 90
      256
102
RTVSPost2010Prop51ColorRGB
 90
-16777216
102
RTVSPost2010PropOp51
 70
     0
102
RTVSPost2010Prop52
140
1.0
102
RTVSPost2010PropOp52
 70
     0
102
RTVSPost2010Prop53
 90
        2
102
RTVSPost2010PropOp53
 70
     1
102
RTVSPost2010Prop54
  1
strokes_ogs.tif
102
RTVSPost2010PropOp54
 70
     1
102
RTVSPost2010Prop55
280
     0
102
RTVSPost2010PropOp55
 70
     1
102
RTVSPost2010Prop56
140
1.0
102
RTVSPost2010PropOp56
 70
     1
102
RTVSPost2010Prop57
140
1.0
102
RTVSPost2010PropOp57
 70
     1
  0
XRECORD
  5
8597
102
{ACAD_REACTORS
330
8596
102
}
330
8596
100
AcDbXrecord
280
     1
102
RTVSPost2010Prop28
280
     0
102
RTVSPost2010PropOp28
 70
     1
102
RTVSPost2010Prop29
280
     1
102
RTVSPost2010PropOp29
 70
     1
102
RTVSPost2010Prop30
280
     1
102
RTVSPost2010PropOp30
 70
     1
102
RTVSPost2010Prop31
280
     0
102
RTVSPost2010PropOp31
 70
     1
102
RTVSPost2010Prop32
280
     0
102
RTVSPost2010PropOp32
 70
     1
102
RTVSPost2010Prop33
280
     0
102
RTVSPost2010PropOp33
 70
     1
102
RTVSPost2010Prop34
280
     0
102
RTVSPost2010PropOp34
 70
     1
102
RTVSPost2010Prop35
280
     0
102
RTVSPost2010PropOp35
 70
     1
102
RTVSPost2010Prop36
280
     0
102
RTVSPost2010PropOp36
 70
     1
102
RTVSPost2010Prop37
 90
       50
102
RTVSPost2010PropOp37
 70
     0
102
RTVSPost2010Prop38
140
0.0
102
RTVSPost2010PropOp38
 70
     0
102
RTVSPost2010Prop39
140
1.0
102
RTVSPost2010PropOp39
 70
     0
102
RTVSPost2010Prop40
 90
        0
102
RTVSPost2010PropOp40
 70
     0
102
RTVSPost2010Prop41ColorIndex
 90
       18
102
RTVSPost2010Prop41ColorRGB
 90
        0
102
RTVSPost2010PropOp41
 70
     0
102
RTVSPost2010Prop42
 90
       50
102
RTVSPost2010PropOp42
 70
     0
102
RTVSPost2010Prop43
 90
        3
102
RTVSPost2010PropOp43
 70
     0
102
RTVSPost2010Prop44ColorIndex
 90
        5
102
RTVSPost2010Prop44ColorRGB
 90
      255
102
RTVSPost2010PropOp44
 70
     0
102
RTVSPost2010Prop45
280
     0
102
RTVSPost2010PropOp45
 70
     1
102
RTVSPost2010Prop46
 90
       50
102
RTVSPost2010PropOp46
 70
     0
102
RTVSPost2010Prop47
 90
       50
102
RTVSPost2010PropOp47
 70
     0
102
RTVSPost2010Prop48
 90
       50
102
RTVSPost2010PropOp48
 70
     0
102
RTVSPost2010Prop49
280
     0
102
RTVSPost2010PropOp49
 70
     1
102
RTVSPost2010Prop50
 90
       50
102
RTVSPost2010PropOp50
 70
     0
102
RTVSPost2010Prop51ColorIndex
 90
      256
102
RTVSPost2010Prop51ColorRGB
 90
-16777216
102
RTVSPost2010PropOp51
 70
     0
102
RTVSPost2010Prop52
140
1.0
102
RTVSPost2010PropOp52
 70
     0
102
RTVSPost2010Prop53
 90
        2
102
RTVSPost2010PropOp53
 70
     0
102
RTVSPost2010Prop54
  1
strokes_ogs.tif
102
RTVSPost2010PropOp54
 70
     0
102
RTVSPost2010Prop55
280
     0
102
RTVSPost2010PropOp55
 70
     1
102
RTVSPost2010Prop56
140
1.0
102
RTVSPost2010PropOp56
 70
     0
102
RTVSPost2010Prop57
140
1.0
102
RTVSPost2010PropOp57
 70
     0
  0
XRECORD
  5
857D
102
{ACAD_REACTORS
330
857C
102
}
330
857C
100
AcDbXrecord
280
     1
102
RTVSPost2010Prop28
280
     0
102
RTVSPost2010PropOp28
 70
     1
102
RTVSPost2010Prop29
280
     1
102
RTVSPost2010PropOp29
 70
     1
102
RTVSPost2010Prop30
280
     1
102
RTVSPost2010PropOp30
 70
     1
102
RTVSPost2010Prop31
280
     0
102
RTVSPost2010PropOp31
 70
     1
102
RTVSPost2010Prop32
280
     0
102
RTVSPost2010PropOp32
 70
     1
102
RTVSPost2010Prop33
280
     0
102
RTVSPost2010PropOp33
 70
     1
102
RTVSPost2010Prop34
280
     0
102
RTVSPost2010PropOp34
 70
     1
102
RTVSPost2010Prop35
280
     0
102
RTVSPost2010PropOp35
 70
     1
102
RTVSPost2010Prop36
280
     0
102
RTVSPost2010PropOp36
 70
     1
102
RTVSPost2010Prop37
 90
       50
102
RTVSPost2010PropOp37
 70
     1
102
RTVSPost2010Prop38
140
0.0
102
RTVSPost2010PropOp38
 70
     1
102
RTVSPost2010Prop39
140
1.0
102
RTVSPost2010PropOp39
 70
     1
102
RTVSPost2010Prop40
 90
        0
102
RTVSPost2010PropOp40
 70
     1
102
RTVSPost2010Prop41ColorIndex
 90
       18
102
RTVSPost2010Prop41ColorRGB
 90
        0
102
RTVSPost2010PropOp41
 70
     1
102
RTVSPost2010Prop42
 90
       50
102
RTVSPost2010PropOp42
 70
     1
102
RTVSPost2010Prop43
 90
        3
102
RTVSPost2010PropOp43
 70
     1
102
RTVSPost2010Prop44ColorIndex
 90
        5
102
RTVSPost2010Prop44ColorRGB
 90
      255
102
RTVSPost2010PropOp44
 70
     1
102
RTVSPost2010Prop45
280
     0
102
RTVSPost2010PropOp45
 70
     1
102
RTVSPost2010Prop46
 90
       50
102
RTVSPost2010PropOp46
 70
     1
102
RTVSPost2010Prop47
 90
       50
102
RTVSPost2010PropOp47
 70
     1
102
RTVSPost2010Prop48
 90
       50
102
RTVSPost2010PropOp48
 70
     1
102
RTVSPost2010Prop49
280
     0
102
RTVSPost2010PropOp49
 70
     1
102
RTVSPost2010Prop50
 90
       50
102
RTVSPost2010PropOp50
 70
     1
102
RTVSPost2010Prop51ColorIndex
 90
      256
102
RTVSPost2010Prop51ColorRGB
 90
-16777216
102
RTVSPost2010PropOp51
 70
     0
102
RTVSPost2010Prop52
140
1.0
102
RTVSPost2010PropOp52
 70
     0
102
RTVSPost2010Prop53
 90
        2
102
RTVSPost2010PropOp53
 70
     1
102
RTVSPost2010Prop54
  1
strokes_ogs.tif
102
RTVSPost2010PropOp54
 70
     1
102
RTVSPost2010Prop55
280
     0
102
RTVSPost2010PropOp55
 70
     1
102
RTVSPost2010Prop56
140
1.0
102
RTVSPost2010PropOp56
 70
     1
102
RTVSPost2010Prop57
140
1.0
102
RTVSPost2010PropOp57
 70
     1
  0
XRECORD
  5
8593
102
{ACAD_REACTORS
330
8592
102
}
330
8592
100
AcDbXrecord
280
     1
102
RTVSPost2010Prop28
280
     0
102
RTVSPost2010PropOp28
 70
     1
102
RTVSPost2010Prop29
280
     1
102
RTVSPost2010PropOp29
 70
     1
102
RTVSPost2010Prop30
280
     1
102
RTVSPost2010PropOp30
 70
     1
102
RTVSPost2010Prop31
280
     0
102
RTVSPost2010PropOp31
 70
     1
102
RTVSPost2010Prop32
280
     0
102
RTVSPost2010PropOp32
 70
     1
102
RTVSPost2010Prop33
280
     0
102
RTVSPost2010PropOp33
 70
     1
102
RTVSPost2010Prop34
280
     0
102
RTVSPost2010PropOp34
 70
     1
102
RTVSPost2010Prop35
280
     0
102
RTVSPost2010PropOp35
 70
     1
102
RTVSPost2010Prop36
280
     0
102
RTVSPost2010PropOp36
 70
     1
102
RTVSPost2010Prop37
 90
       50
102
RTVSPost2010PropOp37
 70
     1
102
RTVSPost2010Prop38
140
0.0
102
RTVSPost2010PropOp38
 70
     1
102
RTVSPost2010Prop39
140
1.0
102
RTVSPost2010PropOp39
 70
     1
102
RTVSPost2010Prop40
 90
        0
102
RTVSPost2010PropOp40
 70
     1
102
RTVSPost2010Prop41ColorIndex
 90
       18
102
RTVSPost2010Prop41ColorRGB
 90
        0
102
RTVSPost2010PropOp41
 70
     1
102
RTVSPost2010Prop42
 90
       50
102
RTVSPost2010PropOp42
 70
     1
102
RTVSPost2010Prop43
 90
        3
102
RTVSPost2010PropOp43
 70
     1
102
RTVSPost2010Prop44ColorIndex
 90
        5
102
RTVSPost2010Prop44ColorRGB
 90
      255
102
RTVSPost2010PropOp44
 70
     1
102
RTVSPost2010Prop45
280
     0
102
RTVSPost2010PropOp45
 70
     1
102
RTVSPost2010Prop46
 90
       50
102
RTVSPost2010PropOp46
 70
     1
102
RTVSPost2010Prop47
 90
       50
102
RTVSPost2010PropOp47
 70
     1
102
RTVSPost2010Prop48
 90
       50
102
RTVSPost2010PropOp48
 70
     1
102
RTVSPost2010Prop49
280
     0
102
RTVSPost2010PropOp49
 70
     1
102
RTVSPost2010Prop50
 90
       50
102
RTVSPost2010PropOp50
 70
     1
102
RTVSPost2010Prop51ColorIndex
 90
      256
102
RTVSPost2010Prop51ColorRGB
 90
-16777216
102
RTVSPost2010PropOp51
 70
     0
102
RTVSPost2010Prop52
140
1.0
102
RTVSPost2010PropOp52
 70
     0
102
RTVSPost2010Prop53
 90
        2
102
RTVSPost2010PropOp53
 70
     1
102
RTVSPost2010Prop54
  1
strokes_ogs.tif
102
RTVSPost2010PropOp54
 70
     1
102
RTVSPost2010Prop55
280
     0
102
RTVSPost2010PropOp55
 70
     1
102
RTVSPost2010Prop56
140
1.0
102
RTVSPost2010PropOp56
 70
     1
102
RTVSPost2010Prop57
140
1.0
102
RTVSPost2010PropOp57
 70
     1
  0
XRECORD
  5
8591
102
{ACAD_REACTORS
330
8590
102
}
330
8590
100
AcDbXrecord
280
     1
102
RTVSPost2010Prop28
280
     0
102
RTVSPost2010PropOp28
 70
     1
102
RTVSPost2010Prop29
280
     1
102
RTVSPost2010PropOp29
 70
     1
102
RTVSPost2010Prop30
280
     1
102
RTVSPost2010PropOp30
 70
     1
102
RTVSPost2010Prop31
280
     0
102
RTVSPost2010PropOp31
 70
     1
102
RTVSPost2010Prop32
280
     0
102
RTVSPost2010PropOp32
 70
     1
102
RTVSPost2010Prop33
280
     0
102
RTVSPost2010PropOp33
 70
     1
102
RTVSPost2010Prop34
280
     0
102
RTVSPost2010PropOp34
 70
     1
102
RTVSPost2010Prop35
280
     0
102
RTVSPost2010PropOp35
 70
     1
102
RTVSPost2010Prop36
280
     0
102
RTVSPost2010PropOp36
 70
     1
102
RTVSPost2010Prop37
 90
       50
102
RTVSPost2010PropOp37
 70
     1
102
RTVSPost2010Prop38
140
0.0
102
RTVSPost2010PropOp38
 70
     1
102
RTVSPost2010Prop39
140
1.0
102
RTVSPost2010PropOp39
 70
     1
102
RTVSPost2010Prop40
 90
        0
102
RTVSPost2010PropOp40
 70
     1
102
RTVSPost2010Prop41ColorIndex
 90
       18
102
RTVSPost2010Prop41ColorRGB
 90
        0
102
RTVSPost2010PropOp41
 70
     1
102
RTVSPost2010Prop42
 90
       50
102
RTVSPost2010PropOp42
 70
     1
102
RTVSPost2010Prop43
 90
        3
102
RTVSPost2010PropOp43
 70
     1
102
RTVSPost2010Prop44ColorIndex
 90
        5
102
RTVSPost2010Prop44ColorRGB
 90
      255
102
RTVSPost2010PropOp44
 70
     1
102
RTVSPost2010Prop45
280
     0
102
RTVSPost2010PropOp45
 70
     1
102
RTVSPost2010Prop46
 90
       50
102
RTVSPost2010PropOp46
 70
     1
102
RTVSPost2010Prop47
 90
       50
102
RTVSPost2010PropOp47
 70
     1
102
RTVSPost2010Prop48
 90
       50
102
RTVSPost2010PropOp48
 70
     1
102
RTVSPost2010Prop49
280
     0
102
RTVSPost2010PropOp49
 70
     1
102
RTVSPost2010Prop50
 90
       50
102
RTVSPost2010PropOp50
 70
     1
102
RTVSPost2010Prop51ColorIndex
 90
      256
102
RTVSPost2010Prop51ColorRGB
 90
-16777216
102
RTVSPost2010PropOp51
 70
     0
102
RTVSPost2010Prop52
140
1.0
102
RTVSPost2010PropOp52
 70
     0
102
RTVSPost2010Prop53
 90
        2
102
RTVSPost2010PropOp53
 70
     1
102
RTVSPost2010Prop54
  1
strokes_ogs.tif
102
RTVSPost2010PropOp54
 70
     1
102
RTVSPost2010Prop55
280
     0
102
RTVSPost2010PropOp55
 70
     1
102
RTVSPost2010Prop56
140
1.0
102
RTVSPost2010PropOp56
 70
     1
102
RTVSPost2010Prop57
140
1.0
102
RTVSPost2010PropOp57
 70
     1
  0
XRECORD
  5
858B
102
{ACAD_REACTORS
330
858A
102
}
330
858A
100
AcDbXrecord
280
     1
102
RTVSPost2010Prop28
280
     0
102
RTVSPost2010PropOp28
 70
     1
102
RTVSPost2010Prop29
280
     1
102
RTVSPost2010PropOp29
 70
     1
102
RTVSPost2010Prop30
280
     1
102
RTVSPost2010PropOp30
 70
     1
102
RTVSPost2010Prop31
280
     0
102
RTVSPost2010PropOp31
 70
     1
102
RTVSPost2010Prop32
280
     0
102
RTVSPost2010PropOp32
 70
     1
102
RTVSPost2010Prop33
280
     0
102
RTVSPost2010PropOp33
 70
     1
102
RTVSPost2010Prop34
280
     0
102
RTVSPost2010PropOp34
 70
     1
102
RTVSPost2010Prop35
280
     0
102
RTVSPost2010PropOp35
 70
     1
102
RTVSPost2010Prop36
280
     0
102
RTVSPost2010PropOp36
 70
     1
102
RTVSPost2010Prop37
 90
       50
102
RTVSPost2010PropOp37
 70
     1
102
RTVSPost2010Prop38
140
0.0
102
RTVSPost2010PropOp38
 70
     1
102
RTVSPost2010Prop39
140
1.0
102
RTVSPost2010PropOp39
 70
     1
102
RTVSPost2010Prop40
 90
        0
102
RTVSPost2010PropOp40
 70
     1
102
RTVSPost2010Prop41ColorIndex
 90
       18
102
RTVSPost2010Prop41ColorRGB
 90
        0
102
RTVSPost2010PropOp41
 70
     1
102
RTVSPost2010Prop42
 90
       50
102
RTVSPost2010PropOp42
 70
     1
102
RTVSPost2010Prop43
 90
        3
102
RTVSPost2010PropOp43
 70
     1
102
RTVSPost2010Prop44ColorIndex
 90
        5
102
RTVSPost2010Prop44ColorRGB
 90
      255
102
RTVSPost2010PropOp44
 70
     1
102
RTVSPost2010Prop45
280
     0
102
RTVSPost2010PropOp45
 70
     1
102
RTVSPost2010Prop46
 90
       50
102
RTVSPost2010PropOp46
 70
     1
102
RTVSPost2010Prop47
 90
       50
102
RTVSPost2010PropOp47
 70
     1
102
RTVSPost2010Prop48
 90
       50
102
RTVSPost2010PropOp48
 70
     1
102
RTVSPost2010Prop49
280
     0
102
RTVSPost2010PropOp49
 70
     1
102
RTVSPost2010Prop50
 90
       50
102
RTVSPost2010PropOp50
 70
     1
102
RTVSPost2010Prop51ColorIndex
 90
      256
102
RTVSPost2010Prop51ColorRGB
 90
-16777216
102
RTVSPost2010PropOp51
 70
     0
102
RTVSPost2010Prop52
140
1.0
102
RTVSPost2010PropOp52
 70
     0
102
RTVSPost2010Prop53
 90
        2
102
RTVSPost2010PropOp53
 70
     1
102
RTVSPost2010Prop54
  1
strokes_ogs.tif
102
RTVSPost2010PropOp54
 70
     1
102
RTVSPost2010Prop55
280
     0
102
RTVSPost2010PropOp55
 70
     1
102
RTVSPost2010Prop56
140
1.0
102
RTVSPost2010PropOp56
 70
     1
102
RTVSPost2010Prop57
140
1.0
102
RTVSPost2010PropOp57
 70
     1
  0
XRECORD
  5
858D
102
{ACAD_REACTORS
330
858C
102
}
330
858C
100
AcDbXrecord
280
     1
102
RTVSPost2010Prop28
280
     0
102
RTVSPost2010PropOp28
 70
     1
102
RTVSPost2010Prop29
280
     1
102
RTVSPost2010PropOp29
 70
     1
102
RTVSPost2010Prop30
280
     1
102
RTVSPost2010PropOp30
 70
     1
102
RTVSPost2010Prop31
280
     0
102
RTVSPost2010PropOp31
 70
     1
102
RTVSPost2010Prop32
280
     0
102
RTVSPost2010PropOp32
 70
     1
102
RTVSPost2010Prop33
280
     0
102
RTVSPost2010PropOp33
 70
     1
102
RTVSPost2010Prop34
280
     0
102
RTVSPost2010PropOp34
 70
     1
102
RTVSPost2010Prop35
280
     0
102
RTVSPost2010PropOp35
 70
     1
102
RTVSPost2010Prop36
280
     0
102
RTVSPost2010PropOp36
 70
     1
102
RTVSPost2010Prop37
 90
       50
102
RTVSPost2010PropOp37
 70
     1
102
RTVSPost2010Prop38
140
0.0
102
RTVSPost2010PropOp38
 70
     1
102
RTVSPost2010Prop39
140
1.0
102
RTVSPost2010PropOp39
 70
     1
102
RTVSPost2010Prop40
 90
        0
102
RTVSPost2010PropOp40
 70
     1
102
RTVSPost2010Prop41ColorIndex
 90
       18
102
RTVSPost2010Prop41ColorRGB
 90
        0
102
RTVSPost2010PropOp41
 70
     1
102
RTVSPost2010Prop42
 90
       50
102
RTVSPost2010PropOp42
 70
     1
102
RTVSPost2010Prop43
 90
        3
102
RTVSPost2010PropOp43
 70
     1
102
RTVSPost2010Prop44ColorIndex
 90
        5
102
RTVSPost2010Prop44ColorRGB
 90
      255
102
RTVSPost2010PropOp44
 70
     1
102
RTVSPost2010Prop45
280
     0
102
RTVSPost2010PropOp45
 70
     1
102
RTVSPost2010Prop46
 90
       50
102
RTVSPost2010PropOp46
 70
     1
102
RTVSPost2010Prop47
 90
       50
102
RTVSPost2010PropOp47
 70
     1
102
RTVSPost2010Prop48
 90
       50
102
RTVSPost2010PropOp48
 70
     1
102
RTVSPost2010Prop49
280
     0
102
RTVSPost2010PropOp49
 70
     1
102
RTVSPost2010Prop50
 90
       50
102
RTVSPost2010PropOp50
 70
     1
102
RTVSPost2010Prop51ColorIndex
 90
      256
102
RTVSPost2010Prop51ColorRGB
 90
-16777216
102
RTVSPost2010PropOp51
 70
     0
102
RTVSPost2010Prop52
140
1.0
102
RTVSPost2010PropOp52
 70
     0
102
RTVSPost2010Prop53
 90
        2
102
RTVSPost2010PropOp53
 70
     1
102
RTVSPost2010Prop54
  1
strokes_ogs.tif
102
RTVSPost2010PropOp54
 70
     1
102
RTVSPost2010Prop55
280
     0
102
RTVSPost2010PropOp55
 70
     1
102
RTVSPost2010Prop56
140
1.0
102
RTVSPost2010PropOp56
 70
     1
102
RTVSPost2010Prop57
140
1.0
102
RTVSPost2010PropOp57
 70
     1
  0
XRECORD
  5
8583
102
{ACAD_REACTORS
330
8582
102
}
330
8582
100
AcDbXrecord
280
     1
102
RTVSPost2010Prop28
280
     0
102
RTVSPost2010PropOp28
 70
     1
102
RTVSPost2010Prop29
280
     1
102
RTVSPost2010PropOp29
 70
     1
102
RTVSPost2010Prop30
280
     1
102
RTVSPost2010PropOp30
 70
     1
102
RTVSPost2010Prop31
280
     0
102
RTVSPost2010PropOp31
 70
     1
102
RTVSPost2010Prop32
280
     0
102
RTVSPost2010PropOp32
 70
     1
102
RTVSPost2010Prop33
280
     0
102
RTVSPost2010PropOp33
 70
     1
102
RTVSPost2010Prop34
280
     0
102
RTVSPost2010PropOp34
 70
     1
102
RTVSPost2010Prop35
280
     0
102
RTVSPost2010PropOp35
 70
     1
102
RTVSPost2010Prop36
280
     0
102
RTVSPost2010PropOp36
 70
     1
102
RTVSPost2010Prop37
 90
       50
102
RTVSPost2010PropOp37
 70
     1
102
RTVSPost2010Prop38
140
0.0
102
RTVSPost2010PropOp38
 70
     1
102
RTVSPost2010Prop39
140
1.0
102
RTVSPost2010PropOp39
 70
     1
102
RTVSPost2010Prop40
 90
        0
102
RTVSPost2010PropOp40
 70
     1
102
RTVSPost2010Prop41ColorIndex
 90
       18
102
RTVSPost2010Prop41ColorRGB
 90
        0
102
RTVSPost2010PropOp41
 70
     1
102
RTVSPost2010Prop42
 90
       50
102
RTVSPost2010PropOp42
 70
     1
102
RTVSPost2010Prop43
 90
        3
102
RTVSPost2010PropOp43
 70
     1
102
RTVSPost2010Prop44ColorIndex
 90
        5
102
RTVSPost2010Prop44ColorRGB
 90
      255
102
RTVSPost2010PropOp44
 70
     1
102
RTVSPost2010Prop45
280
     0
102
RTVSPost2010PropOp45
 70
     1
102
RTVSPost2010Prop46
 90
       50
102
RTVSPost2010PropOp46
 70
     1
102
RTVSPost2010Prop47
 90
       50
102
RTVSPost2010PropOp47
 70
     1
102
RTVSPost2010Prop48
 90
       50
102
RTVSPost2010PropOp48
 70
     1
102
RTVSPost2010Prop49
280
     0
102
RTVSPost2010PropOp49
 70
     1
102
RTVSPost2010Prop50
 90
       50
102
RTVSPost2010PropOp50
 70
     1
102
RTVSPost2010Prop51ColorIndex
 90
      256
102
RTVSPost2010Prop51ColorRGB
 90
-16777216
102
RTVSPost2010PropOp51
 70
     0
102
RTVSPost2010Prop52
140
1.0
102
RTVSPost2010PropOp52
 70
     0
102
RTVSPost2010Prop53
 90
        2
102
RTVSPost2010PropOp53
 70
     1
102
RTVSPost2010Prop54
  1
strokes_ogs.tif
102
RTVSPost2010PropOp54
 70
     1
102
RTVSPost2010Prop55
280
     0
102
RTVSPost2010PropOp55
 70
     1
102
RTVSPost2010Prop56
140
1.0
102
RTVSPost2010PropOp56
 70
     1
102
RTVSPost2010Prop57
140
1.0
102
RTVSPost2010PropOp57
 70
     1
  0
XRECORD
  5
8577
102
{ACAD_REACTORS
330
8576
102
}
330
8576
100
AcDbXrecord
280
     1
102
RTVSPost2010Prop28
280
     0
102
RTVSPost2010PropOp28
 70
     1
102
RTVSPost2010Prop29
280
     1
102
RTVSPost2010PropOp29
 70
     1
102
RTVSPost2010Prop30
280
     1
102
RTVSPost2010PropOp30
 70
     1
102
RTVSPost2010Prop31
280
     0
102
RTVSPost2010PropOp31
 70
     1
102
RTVSPost2010Prop32
280
     0
102
RTVSPost2010PropOp32
 70
     1
102
RTVSPost2010Prop33
280
     0
102
RTVSPost2010PropOp33
 70
     1
102
RTVSPost2010Prop34
280
     0
102
RTVSPost2010PropOp34
 70
     1
102
RTVSPost2010Prop35
280
     0
102
RTVSPost2010PropOp35
 70
     1
102
RTVSPost2010Prop36
280
     0
102
RTVSPost2010PropOp36
 70
     1
102
RTVSPost2010Prop37
 90
       50
102
RTVSPost2010PropOp37
 70
     1
102
RTVSPost2010Prop38
140
0.0
102
RTVSPost2010PropOp38
 70
     1
102
RTVSPost2010Prop39
140
1.0
102
RTVSPost2010PropOp39
 70
     1
102
RTVSPost2010Prop40
 90
        0
102
RTVSPost2010PropOp40
 70
     1
102
RTVSPost2010Prop41ColorIndex
 90
       18
102
RTVSPost2010Prop41ColorRGB
 90
        0
102
RTVSPost2010PropOp41
 70
     1
102
RTVSPost2010Prop42
 90
       50
102
RTVSPost2010PropOp42
 70
     1
102
RTVSPost2010Prop43
 90
        3
102
RTVSPost2010PropOp43
 70
     1
102
RTVSPost2010Prop44ColorIndex
 90
        5
102
RTVSPost2010Prop44ColorRGB
 90
      255
102
RTVSPost2010PropOp44
 70
     1
102
RTVSPost2010Prop45
280
     0
102
RTVSPost2010PropOp45
 70
     1
102
RTVSPost2010Prop46
 90
       50
102
RTVSPost2010PropOp46
 70
     1
102
RTVSPost2010Prop47
 90
       50
102
RTVSPost2010PropOp47
 70
     1
102
RTVSPost2010Prop48
 90
       50
102
RTVSPost2010PropOp48
 70
     1
102
RTVSPost2010Prop49
280
     0
102
RTVSPost2010PropOp49
 70
     1
102
RTVSPost2010Prop50
 90
       50
102
RTVSPost2010PropOp50
 70
     1
102
RTVSPost2010Prop51ColorIndex
 90
      256
102
RTVSPost2010Prop51ColorRGB
 90
-16777216
102
RTVSPost2010PropOp51
 70
     0
102
RTVSPost2010Prop52
140
1.0
102
RTVSPost2010PropOp52
 70
     0
102
RTVSPost2010Prop53
 90
        2
102
RTVSPost2010PropOp53
 70
     1
102
RTVSPost2010Prop54
  1
strokes_ogs.tif
102
RTVSPost2010PropOp54
 70
     1
102
RTVSPost2010Prop55
280
     0
102
RTVSPost2010PropOp55
 70
     1
102
RTVSPost2010Prop56
140
1.0
102
RTVSPost2010PropOp56
 70
     1
102
RTVSPost2010Prop57
140
1.0
102
RTVSPost2010PropOp57
 70
     1
  0
XRECORD
  5
858F
102
{ACAD_REACTORS
330
858E
102
}
330
858E
100
AcDbXrecord
280
     1
102
RTVSPost2010Prop28
280
     0
102
RTVSPost2010PropOp28
 70
     1
102
RTVSPost2010Prop29
280
     1
102
RTVSPost2010PropOp29
 70
     1
102
RTVSPost2010Prop30
280
     1
102
RTVSPost2010PropOp30
 70
     1
102
RTVSPost2010Prop31
280
     0
102
RTVSPost2010PropOp31
 70
     1
102
RTVSPost2010Prop32
280
     0
102
RTVSPost2010PropOp32
 70
     1
102
RTVSPost2010Prop33
280
     0
102
RTVSPost2010PropOp33
 70
     1
102
RTVSPost2010Prop34
280
     0
102
RTVSPost2010PropOp34
 70
     1
102
RTVSPost2010Prop35
280
     0
102
RTVSPost2010PropOp35
 70
     1
102
RTVSPost2010Prop36
280
     0
102
RTVSPost2010PropOp36
 70
     1
102
RTVSPost2010Prop37
 90
       50
102
RTVSPost2010PropOp37
 70
     1
102
RTVSPost2010Prop38
140
0.0
102
RTVSPost2010PropOp38
 70
     1
102
RTVSPost2010Prop39
140
1.0
102
RTVSPost2010PropOp39
 70
     1
102
RTVSPost2010Prop40
 90
        0
102
RTVSPost2010PropOp40
 70
     1
102
RTVSPost2010Prop41ColorIndex
 90
       18
102
RTVSPost2010Prop41ColorRGB
 90
        0
102
RTVSPost2010PropOp41
 70
     1
102
RTVSPost2010Prop42
 90
       50
102
RTVSPost2010PropOp42
 70
     1
102
RTVSPost2010Prop43
 90
        3
102
RTVSPost2010PropOp43
 70
     1
102
RTVSPost2010Prop44ColorIndex
 90
        5
102
RTVSPost2010Prop44ColorRGB
 90
      255
102
RTVSPost2010PropOp44
 70
     1
102
RTVSPost2010Prop45
280
     0
102
RTVSPost2010PropOp45
 70
     1
102
RTVSPost2010Prop46
 90
       50
102
RTVSPost2010PropOp46
 70
     1
102
RTVSPost2010Prop47
 90
       50
102
RTVSPost2010PropOp47
 70
     1
102
RTVSPost2010Prop48
 90
       50
102
RTVSPost2010PropOp48
 70
     1
102
RTVSPost2010Prop49
280
     0
102
RTVSPost2010PropOp49
 70
     1
102
RTVSPost2010Prop50
 90
       50
102
RTVSPost2010PropOp50
 70
     1
102
RTVSPost2010Prop51ColorIndex
 90
      256
102
RTVSPost2010Prop51ColorRGB
 90
-16777216
102
RTVSPost2010PropOp51
 70
     0
102
RTVSPost2010Prop52
140
1.0
102
RTVSPost2010PropOp52
 70
     0
102
RTVSPost2010Prop53
 90
        2
102
RTVSPost2010PropOp53
 70
     1
102
RTVSPost2010Prop54
  1
strokes_ogs.tif
102
RTVSPost2010PropOp54
 70
     1
102
RTVSPost2010Prop55
280
     0
102
RTVSPost2010PropOp55
 70
     1
102
RTVSPost2010Prop56
140
1.0
102
RTVSPost2010PropOp56
 70
     1
102
RTVSPost2010Prop57
140
1.0
102
RTVSPost2010PropOp57
 70
     1
  0
ENDSEC
  0
EOF
